  0
SECTION
  2
HEADER
  9
$ACADVER
  1
AC1015
  9
$ACADMAINTVER
 70
         6
  9
$DWGCODEPAGE
  3
ANSI_932
  9
$INSBASE
 10
0.0
 20
0.0
 30
0.0
  9
$EXTMIN
 10
1.0000000000E+20
 20
1.0000000000E+20
 30
1.0000000000E+20
  9
$EXTMAX
 10
-1.0000000000E+20
 20
-1.0000000000E+20
 30
-1.0000000000E+20
  9
$LIMMIN
 10
0.0
 20
0.0
  9
$LIMMAX
 10
0.0
 20
0.0
  9
$ORTHOMODE
 70
         0
  9
$REGENMODE
 70
         1
  9
$FILLMODE
 70
         1
  9
$QTEXTMODE
 70
         0
  9
$MIRRTEXT
 70
         1
  9
$LTSCALE
 40
1.0
  9
$ATTMODE
 70
         1
  9
$TEXTSIZE
 40
0.2
  9
$TRACEWID
 40
0.05
  9
$TEXTSTYLE
  7
Standard
  9
$CLAYER
  8
0
  9
$CELTYPE
  6
Continuous
  9
$CECOLOR
 62
       256
  9
$CELTSCALE
 40
1.0
  9
$DISPSILH
 70
         0
  9
$DIMSCALE
 40
1.0
  9
$DIMASZ
 40
0.18
  9
$DIMEXO
 40
0.0625
  9
$DIMDLI
 40
0.38
  9
$DIMRND
 40
0.0
  9
$DIMDLE
 40
0.0
  9
$DIMEXE
 40
0.18
  9
$DIMTP
 40
0.0
  9
$DIMTM
 40
0.0
  9
$DIMTXT
 40
0.18
  9
$DIMCEN
 40
0.09
  9
$DIMTSZ
 40
0.0
  9
$DIMTOL
 70
         0
  9
$DIMLIM
 70
         0
  9
$DIMTIH
 70
         1
  9
$DIMTOH
 70
         1
  9
$DIMSE1
 70
         0
  9
$DIMSE2
 70
         0
  9
$DIMTAD
 70
         0
  9
$DIMZIN
 70
         0
  9
$DIMBLK
  1

  9
$DIMASO
 70
         1
  9
$DIMSHO
 70
         1
  9
$DIMPOST
  1

  9
$DIMAPOST
  1

  9
$DIMALT
 70
         0
  9
$DIMALTD
 70
         2
  9
$DIMALTF
 40
25.4
  9
$DIMLFAC
 40
1.0
  9
$DIMTOFL
 70
         0
  9
$DIMTVP
 40
0.0
  9
$DIMTIX
 70
         0
  9
$DIMSOXD
 70
         0
  9
$DIMSAH
 70
         0
  9
$DIMBLK1
  1

  9
$DIMBLK2
  1

  9
$DIMSTYLE
  2
Standard
  9
$DIMCLRD
 70
         0
  9
$DIMCLRE
 70
         0
  9
$DIMCLRT
 70
         0
  9
$DIMTFAC
 40
1.0
  9
$DIMGAP
 40
0.09
  9
$DIMJUST
 70
         0
  9
$DIMSD1
 70
         0
  9
$DIMSD2
 70
         0
  9
$DIMTOLJ
 70
         1
  9
$DIMTZIN
 70
         0
  9
$DIMALTZ
 70
         0
  9
$DIMALTTZ
 70
         0
  9
$DIMUPT
 70
         0
  9
$DIMDEC
 70
         4
  9
$DIMTDEC
 70
         4
  9
$DIMALTU
 70
         2
  9
$DIMALTTD
 70
         2
  9
$DIMTXSTY
  7
Standard
  9
$DIMAUNIT
 70
         0
  9
$DIMADEC
 70
         0
  9
$DIMALTRND
 40
0.0
  9
$DIMAZIN
 70
         0
  9
$DIMDSEP
 70
         0
  9
$DIMATFIT
 70
         3
  9
$DIMFRAC
 70
         0
  9
$DIMLDRBLK
  1

  9
$DIMLUNIT
 70
         2
  9
$DIMLWD
 70
         0
  9
$DIMLWE
 70
         0
  9
$DIMTMOVE
 70
         0
  9
$LUNITS
 70
         2
  9
$LUPREC
 70
         4
  9
$SKETCHINC
 40
0.1
  9
$FILLETRAD
 40
0.0
  9
$AUNITS
 70
         0
  9
$AUPREC
 70
         0
  9
$MENU
  1
acad
  9
$ELEVATION
 40
0.0
  9
$PELEVATION
 40
0.0
  9
$THICKNESS
 40
0.0
  9
$LIMCHECK
 70
         0
  9
$CHAMFERA
 40
0.0
  9
$CHAMFERB
 40
0.0
  9
$CHAMFERC
 40
0.0
  9
$CHAMFERD
 40
0.0
  9
$SKPOLY
 70
         0
  9
$TDCREATE
 40
0.000000000
  9
$TDUCREATE
 40
0.000000000
  9
$TDUPDATE
 40
0.000000000
  9
$TDUUPDATE
 40
0.000000000
  9
$TDINDWG
 40
0.0000000000
  9
$TDUSRTIMER
 40
0.0000000000
  9
$USRTIMER
 70
         1
  9
$ANGBASE
 50
0.0
  9
$ANGDIR
 70
         0
  9
$PDMODE
 70
         3
  9
$PDSIZE
 40
-1.0
  9
$PLINEWID
 40
0.0
  9
$SPLFRAME
 70
         0
  9
$SPLINETYPE
 70
         6
  9
$SPLINESEGS
 70
         8
  9
$HANDSEED
  5
1B6
  9
$SURFTAB1
 70
         6
  9
$SURFTAB2
 70
         6
  9
$SURFTYPE
 70
         6
  9
$SURFU
 70
         6
  9
$SURFV
 70
         6
  9
$UCSBASE
  2

  9
$UCSNAME
  2

  9
$UCSORG
 10
0.0
 20
0.0
 30
0.0
  9
$UCSXDIR
 10
1.0
 20
0.0
 30
0.0
  9
$UCSYDIR
 10
0.0
 20
1.0
 30
0.0
  9
$UCSORTHOREF
  2

  9
$UCSORTHOVIEW
 70
         0
  9
$UCSORGTOP
 10
0.0
 20
0.0
 30
0.0
  9
$UCSORGBOTTOM
 10
0.0
 20
0.0
 30
0.0
  9
$UCSORGLEFT
 10
0.0
 20
0.0
 30
0.0
  9
$UCSORGRIGHT
 10
0.0
 20
0.0
 30
0.0
  9
$UCSORGFRONT
 10
0.0
 20
0.0
 30
0.0
  9
$UCSORGBACK
 10
0.0
 20
0.0
 30
0.0
  9
$PUCSBASE
  2

  9
$PUCSNAME
  2

  9
$PUCSORG
 10
0.0
 20
0.0
 30
0.0
  9
$PUCSXDIR
 10
1.0
 20
0.0
 30
0.0
  9
$PUCSYDIR
 10
0.0
 20
1.0
 30
0.0
  9
$PUCSORTHOREF
  2

  9
$PUCSORTHOVIEW
 70
         0
  9
$PUCSORGTOP
 10
0.0
 20
0.0
 30
0.0
  9
$PUCSORGBOTTOM
 10
0.0
 20
0.0
 30
0.0
  9
$PUCSORGLEFT
 10
0.0
 20
0.0
 30
0.0
  9
$PUCSORGRIGHT
 10
0.0
 20
0.0
 30
0.0
  9
$PUCSORGFRONT
 10
0.0
 20
0.0
 30
0.0
  9
$PUCSORGBACK
 10
0.0
 20
0.0
 30
0.0
  9
$USERI1
 70
         0
  9
$USERI2
 70
         0
  9
$USERI3
 70
         0
  9
$USERI4
 70
         0
  9
$USERI5
 70
         0
  9
$USERR1
 40
0.0
  9
$USERR2
 40
0.0
  9
$USERR3
 40
0.0
  9
$USERR4
 40
0.0
  9
$USERR5
 40
0.0
  9
$WORLDVIEW
 70
         1
  9
$SHADEDGE
 70
         3
  9
$SHADEDIF
 70
        70
  9
$TILEMODE
 70
         1
  9
$MAXACTVP
 70
        16
  9
$PINSBASE
 10
0.0
 20
0.0
 30
0.0
  9
$PLIMCHECK
 70
         0
  9
$PEXTMIN
 10
1.0000000000E+20
 20
1.0000000000E+20
 30
1.0000000000E+20
  9
$PEXTMAX
 10
-1.0000000000E+20
 20
-1.0000000000E+20
 30
-1.0000000000E+20
  9
$PLIMMIN
 10
0.0
 20
0.0
  9
$PLIMMAX
 10
12.0
 20
9.0
  9
$UNITMODE
 70
         0
  9
$VISRETAIN
 70
         0
  9
$PLINEGEN
 70
         1
  9
$PSLTSCALE
 70
         0
  9
$TREEDEPTH
 70
      3020
  9
$CMLSTYLE
  2
Standard
  9
$CMLJUST
 70
         0
  9
$CMLSCALE
 40
1.0
  9
$PROXYGRAPHICS
 70
         0
  9
$MEASUREMENT
 70
         0
  9
$CELWEIGHT
370
         0
  9
$ENDCAPS
280
         0
  9
$JOINSTYLE
280
         0
  9
$LWDISPLAY
290
         0
  9
$INSUNITS
 70
         0
  9
$HYPERLINKBASE
  1

  9
$XEDIT
290
         1
  9
$CEPSNTYPE
380
         0
  9
$PSTYLEMODE
290
         0
  9
$FINGERPRINTGUID
  2

  9
$VERSIONGUID
  2

  9
$EXTNAMES
290
         1
  9
$PSVPSCALE
 40
0.0
  0
ENDSEC
  0
SECTION
  2
CLASSES
  0
CLASS
  1
LWPOLYLINE
  2
AcDbPolyline
  3
"AutoCAD"
 90
        0
280
         0
281
         1
  0
CLASS
  1
IMAGE
  2
AcDbRasterImage
  3
ISM
 90
      127
280
         0
281
         1
  0
CLASS
  1
OLE2FRAME
  2
AcDbOle2Frame
  3
""
 90
        0
280
         0
281
         1
  0
CLASS
  1
HATCH
  2
AcDbHatch
  3
"ACAD_SEDONA"
 90
        0
280
         0
281
         1
  0
CLASS
  1
DICTIONARYVAR
  2
AcDbDictionaryVar
  3
"AutoCAD"
 90
        0
280
         0
281
         0
  0
CLASS
  1
RASTERVARIABLES
  2
AcDbRasterVariables
  3
ISM
 90
        0
280
         0
281
         0
  0
CLASS
  1
IMAGEDEF
  2
AcDbRasterImageDef
  3
ISM
 90
        0
280
         0
281
         0
  0
CLASS
  1
IMAGEDEF_REACTOR
  2
AcDbRasterImageDefReactor
  3
ISM
 90
        1
280
         0
281
         0
  0
CLASS
  1
IDBUFFER
  2
AcDbIdBuffer
  3
"Acad"
 90
        0
280
         0
281
         0
  0
CLASS
  1
SPATIAL_FILTER
  2
AcDbSpatialFilter
  3
"Acad"
 90
        0
280
         0
281
         0
  0
CLASS
  1
XRECORD
  2
AcDbXrecord
  3
"<Built In>"
 90
        0
280
         0
281
         0
  0
CLASS
  1
SORTENTSTABLE
  2
AcDbSortentsTable
  3
"AutoCAD"
 90
        0
280
         0
281
         0
  0
CLASS
  1
LAYER_INDEX
  2
AcDbLayerIndex
  3
"Acad"
 90
        0
280
         0
281
         0
  0
CLASS
  1
SPATIAL_INDEX
  2
AcDbSpatialIndex
  3
"Acad"
 90
        0
280
         0
281
         0
  0
CLASS
  1
OBJECT_PTR
  2
CAseDLPNTableRecord
  3
"ASE-LPNTableRecord"
 90
        1
280
         0
281
         0
  0
CLASS
  1
LAYOUT
  2
AcDbLayout
  3
"AutoCAD 2000"
 90
        1
280
         0
281
         0
  0
CLASS
  1
PLOTSETTINGS
  2
AcDbPlotSettings
  3
"AutoCAD 2000"
 90
        1
280
         0
281
         0
  0
CLASS
  1
ACDBDICTIONARYWDFLT
  2
AcDbDictionaryWithDefault
  3
"AutoCAD 2000"
 90
        1
280
         0
281
         0
  0
CLASS
  1
ACDBPLACEHOLDER
  2
AcDbPlaceHolder
  3
"AutoCAD 2000"
 90
        1
280
         0
281
         0
  0
CLASS
  1
VBA_PROJECT
  2
AcDbVbaProject
  3
"acadvba"
 90
        1
280
         0
281
         0
  0
CLASS
  1
WIPEOUT
  2
AcDbWipeout
  3
WipeOut|AutoCAD Express Tool|expresstools@autodesk.com
 90
      127
280
         0
281
         1
  0
CLASS
  1
WIPEOUTVARIABLES
  2
AcDbWipeoutVariables
  3
WipeOut|AutoCAD Express Tool|expresstools@autodesk.com
 90
        0
280
         0
281
         0
  0
CLASS
  1
RTEXT
  2
RText
  3
RText|AutoCAD Express Tool|expresstools@autodesk.com
 90
        0
280
         0
281
         1
  0
CLASS
  1
ARCALIGNEDTEXT
  2
AcDbArcAlignedText
  3
ATEXT|AutoCAD Express Tool|expresstools@autodesk.com
 90
        0
280
         0
281
         1
  0
ENDSEC
  0
SECTION
  2
TABLES
  0
TABLE
  2
VPORT
  5
7
100
AcDbSymbolTable
 70
         1
  0
VPORT
  5
15
100
AcDbSymbolTableRecord
100
AcDbViewportTableRecord
  2
*ACTIVE
 70
         0
 10
0.0
 20
0.0
 11
1.0
 21
1.0
 12
6.591288
 22
4.579184
 13
0.0
 23
0.0
 14
1.0
 24
1.0
 15
0.0
 25
0.0
 16
0.0
 26
0.0
 36
1.0
 17
0.0
 27
0.0
 37
0.0
 40
9.158369
 41
0.688564
 42
50.0
 43
0.0
 44
0.0
 50
0.0
 51
0.0
 71
         0
 72
       100
 73
         1
 74
         1
 75
         0
 76
         0
 77
         0
 78
         0
281
         0
 65
         0
110
0.0
120
0.0
130
0.0
111
1.0
121
0.0
131
0.0
112
0.0
122
1.0
132
0.0
345
0
346
0
 79
         0
146
0.0
  0
ENDTAB
  0
TABLE
  2
LTYPE
  5
4
100
AcDbSymbolTable
 70
        13
  0
LTYPE
  5
11
100
AcDbSymbolTableRecord
100
AcDbLinetypeTableRecord
  2
ByBlock
 70
        64
  3

 72
        65
 73
         0
 40
0.0
  0
LTYPE
  5
12
100
AcDbSymbolTableRecord
100
AcDbLinetypeTableRecord
  2
ByLayer
 70
        64
  3

 72
        65
 73
         0
 40
0.0
  0
LTYPE
  5
13
100
AcDbSymbolTableRecord
100
AcDbLinetypeTableRecord
  2
Continuous
 70
        64
  3
Solid line
 72
        65
 73
         0
 40
0.0
  0
LTYPE
  5
24
100
AcDbSymbolTableRecord
100
AcDbLinetypeTableRecord
  2
DOT
 70
        64
  3
. . . . . . . . 
 72
        65
 73
         2
 40
1.0
 49
0.0
 74
         0
 49
-1.0
 74
         0
  0
LTYPE
  5
25
100
AcDbSymbolTableRecord
100
AcDbLinetypeTableRecord
  2
DASHED
 70
        64
  3
___  ___  ___  ___  
 72
        65
 73
         2
 40
4.0
 49
3.0
 74
         0
 49
-1.0
 74
         0
  0
LTYPE
  5
26
100
AcDbSymbolTableRecord
100
AcDbLinetypeTableRecord
  2
HIDDEN
 70
        64
  3
__ __ __ __ 
 72
        65
 73
         2
 40
3.0
 49
2.0
 74
         0
 49
-1.0
 74
         0
  0
LTYPE
  5
27
100
AcDbSymbolTableRecord
100
AcDbLinetypeTableRecord
  2
STITCH
 70
        64
  3
_ _ _ _ 
 72
        65
 73
         2
 40
2.0
 49
1.0
 74
         0
 49
-1.0
 74
         0
  0
LTYPE
  5
28
100
AcDbSymbolTableRecord
100
AcDbLinetypeTableRecord
  2
CENTER
 70
        64
  3
______  __  ______  __  
 72
        65
 73
         4
 40
43.0
 49
40.0
 74
         0
 49
-1.0
 74
         0
 49
1.0
 74
         0
 49
-1.0
 74
         0
  0
LTYPE
  5
29
100
AcDbSymbolTableRecord
100
AcDbLinetypeTableRecord
  2
DASHDOT
 70
        64
  3
____ . ____ . 
 72
        65
 73
         4
 40
32.0
 49
30.0
 74
         0
 49
-1.0
 74
         0
 49
0.0
 74
         0
 49
-1.0
 74
         0
  0
LTYPE
  5
2A
100
AcDbSymbolTableRecord
100
AcDbLinetypeTableRecord
  2
BORDER
 70
        64
  3
__ . __ . 
 72
        65
 73
         4
 40
22.0
 49
20.0
 74
         0
 49
-1.0
 74
         0
 49
0.0
 74
         0
 49
-1.0
 74
         0
  0
LTYPE
  5
2B
100
AcDbSymbolTableRecord
100
AcDbLinetypeTableRecord
  2
CUTTING
 70
        64
  3
________   ___   ___   
 72
        65
 73
         6
 40
45.0
 49
40.0
 74
         0
 49
-1.0
 74
         0
 49
1.0
 74
         0
 49
-1.0
 74
         0
 49
1.0
 74
         0
 49
-1.0
 74
         0
  0
LTYPE
  5
2C
100
AcDbSymbolTableRecord
100
AcDbLinetypeTableRecord
  2
PHANTOM
 70
        64
  3
______  __  __  
 72
        65
 73
         6
 40
35.0
 49
30.0
 74
         0
 49
-1.0
 74
         0
 49
1.0
 74
         0
 49
-1.0
 74
         0
 49
1.0
 74
         0
 49
-1.0
 74
         0
  0
LTYPE
  5
2D
100
AcDbSymbolTableRecord
100
AcDbLinetypeTableRecord
  2
DIVIDE
 70
        64
  3
____ . . ____ . . 
 72
        65
 73
         6
 40
23.0
 49
20.0
 74
         0
 49
-1.0
 74
         0
 49
0.0
 74
         0
 49
-1.0
 74
         0
 49
0.0
 74
         0
 49
-1.0
 74
         0
  0
ENDTAB
  0
TABLE
  2
LAYER
  5
2
100
AcDbSymbolTable
 70
         3
  0
LAYER
  5
14
100
AcDbSymbolTableRecord
100
AcDbLayerTableRecord
  2
0
 70
         0
 62
         7
  6
Continuous
290
         1
370
        -3
390
1D
  0
LAYER
  5
34
100
AcDbSymbolTableRecord
100
AcDbLayerTableRecord
  2
LAYER0
 70
         0
 62
         7
  6
Continuous
290
         1
370
        -3
390
1F
  0
LAYER
  5
48
100
AcDbSymbolTableRecord
100
AcDbLayerTableRecord
  2
LAYER3
 70
         0
 62
         7
  6
Continuous
290
         1
370
        -3
390
1F
  0
ENDTAB
  0
TABLE
  2
STYLE
  5
3
100
AcDbSymbolTable
 70
         1
  0
STYLE
  5
17
100
AcDbSymbolTableRecord
100
AcDbTextStyleTableRecord
  2
Standard
 70
         0
 40
0.0
 41
1.0
 50
0.0
 71
         0
 42
0.0
  3
txt
  4
extfont
  0
ENDTAB
  0
TABLE
  2
VIEW
  5
5
100
AcDbSymbolTable
 70
         0
  0
ENDTAB
  0
TABLE
  2
UCS
  5
6
100
AcDbSymbolTable
 70
         0
  0
ENDTAB
  0
TABLE
  2
APPID
  5
8
100
AcDbSymbolTable
 70
         1
  0
APPID
  5
16
100
AcDbSymbolTableRecord
100
AcDbRegAppTableRecord
  2
ACAD
 70
         0
  0
ENDTAB
  0
TABLE
  2
DIMSTYLE
  5
9
100
AcDbSymbolTable
 70
         1
100
AcDbDimStyleTable
 71
         0
  0
DIMSTYLE
105
18
100
AcDbSymbolTableRecord
100
AcDbDimStyleTableRecord
  2
Standard
 70
         0
  3

  4

 40
1.0
 41
0.18
 42
0.0625
 43
0.38
 44
0.18
 45
0.0
 46
0.0
 47
0.0
 48
0.0
 71
         0
 72
         0
 73
         1
 74
         1
 75
         0
 76
         0
 77
         0
 78
         0
 79
         0
140
0.18
141
0.09
142
0.0
143
25.4
144
1.0
145
0.0
146
1.0
147
0.09
148
0.0
170
         0
171
         2
172
         0
173
         0
174
         0
175
         0
176
         0
177
         0
178
         0
179
         0
271
         4
272
         4
273
         2
274
         2
275
         0
276
         0
277
         2
278
        46
279
         0
280
         0
281
         0
282
         0
283
         1
284
         0
285
         0
286
         0
288
         0
340
17
341
0
342
0
343
0
344
0
371
        -2
372
        -2
  0
ENDTAB
  0
TABLE
  2
BLOCK_RECORD
  5
1
100
AcDbSymbolTable
 70
         8
  0
BLOCK_RECORD
  5
A
100
AcDbSymbolTableRecord
100
AcDbBlockTableRecord
  2
*MODEL_SPACE
340
20
  0
BLOCK_RECORD
  5
B
100
AcDbSymbolTableRecord
100
AcDbBlockTableRecord
  2
*PAPER_SPACE
340
21
  0
BLOCK_RECORD
  5
2E
100
AcDbSymbolTableRecord
100
AcDbBlockTableRecord
  2
CLUMP0
340
0
  0
BLOCK_RECORD
  5
31
100
AcDbSymbolTableRecord
100
AcDbBlockTableRecord
  2
CLUMP1
340
0
  0
BLOCK_RECORD
  5
59
100
AcDbSymbolTableRecord
100
AcDbBlockTableRecord
  2
CLUMP2
340
0
  0
BLOCK_RECORD
  5
5C
100
AcDbSymbolTableRecord
100
AcDbBlockTableRecord
  2
CLUMP3
340
0
  0
BLOCK_RECORD
  5
F4
100
AcDbSymbolTableRecord
100
AcDbBlockTableRecord
  2
CLUMP4
340
0
  0
BLOCK_RECORD
  5
F7
100
AcDbSymbolTableRecord
100
AcDbBlockTableRecord
  2
CLUMP5
340
0
  0
BLOCK_RECORD
  5
10C
100
AcDbSymbolTableRecord
100
AcDbBlockTableRecord
  2
CLUMP6
340
0
  0
BLOCK_RECORD
  5
10F
100
AcDbSymbolTableRecord
100
AcDbBlockTableRecord
  2
CLUMP7
340
0
  0
ENDTAB
  0
ENDSEC
  0
SECTION
  2
BLOCKS
  0
BLOCK
  5
D
100
AcDbEntity
  8
0
100
AcDbBlockBegin
  2
*MODEL_SPACE
 70
         0
 10
0.0
 20
0.0
 30
0.0
  3
*MODEL_SPACE
  1

  0
ENDBLK
  5
E
100
AcDbEntity
  8
0
100
AcDbBlockEnd
  0
BLOCK
  5
F
100
AcDbEntity
 67
         1
  8
0
100
AcDbBlockBegin
  2
*PAPER_SPACE
 70
         0
 10
0.0
 20
0.0
 30
0.0
  3
*PAPER_SPACE
  1

  0
ENDBLK
  5
10
100
AcDbEntity
 67
         1
  8
0
100
AcDbBlockEnd
  0
BLOCK
  5
30
100
AcDbEntity
  8
0
100
AcDbBlockBegin
  2
CLUMP0
 70
         0
 10
0.0
 20
0.0
 30
0.0
  3

  1

  0
INSERT
  5
32
100
AcDbEntity
  8
0
100
AcDbBlockReference
  2
CLUMP1
 10
0.0
 20
0.0
 30
0.0
  0
ENDBLK
  5
3F
100
AcDbEntity
  8
0
100
AcDbBlockEnd
  0
BLOCK
  5
33
100
AcDbEntity
  8
0
100
AcDbBlockBegin
  2
CLUMP1
 70
         0
 10
0.0
 20
0.0
 30
0.0
  3

  1

  0
CIRCLE
  5
35
100
AcDbEntity
  8
LAYER0
 62
         3
100
AcDbCircle
 10
27.1876443418
 20
84.8900339891
 30
0.0
 40
5.0
210
0.0
220
0.0
230
1.0
  0
LINE
  5
36
100
AcDbEntity
  8
LAYER0
 62
         3
100
AcDbLine
 10
22.1876443418
 20
87.776785335
 30
0.0
 11
27.1876443418
 21
90.663536681
 31
0.0
  0
LINE
  5
37
100
AcDbEntity
  8
LAYER0
 62
         3
100
AcDbLine
 10
27.1876443418
 20
90.663536681
 30
0.0
 11
32.1876443418
 21
87.776785335
 31
0.0
  0
LINE
  5
38
100
AcDbEntity
  8
LAYER0
 62
         3
100
AcDbLine
 10
32.1876443418
 20
87.776785335
 30
0.0
 11
32.1876443418
 21
82.0032826431
 31
0.0
  0
LINE
  5
39
100
AcDbEntity
  8
LAYER0
 62
         3
100
AcDbLine
 10
32.1876443418
 20
82.0032826431
 30
0.0
 11
27.1876443418
 21
79.1165312972
 31
0.0
  0
LINE
  5
3A
100
AcDbEntity
  8
LAYER0
 62
         3
100
AcDbLine
 10
27.1876443418
 20
79.1165312972
 30
0.0
 11
22.1876443418
 21
82.0032826431
 31
0.0
  0
LINE
  5
3B
100
AcDbEntity
  8
LAYER0
 62
         3
100
AcDbLine
 10
22.1876443418
 20
82.0032826431
 30
0.0
 11
22.1876443418
 21
87.776785335
 31
0.0
  0
CIRCLE
  5
3C
100
AcDbEntity
  8
LAYER0
 62
         3
100
AcDbCircle
 10
27.1876443418
 20
84.8900339891
 30
0.0
 40
2.5
210
0.0
220
0.0
230
1.0
  0
CIRCLE
  5
3D
100
AcDbEntity
  8
LAYER0
 62
         5
100
AcDbCircle
 10
27.1876443418
 20
84.8900339891
 30
0.0
 40
3.0
210
0.0
220
0.0
230
1.0
  0
ENDBLK
  5
3E
100
AcDbEntity
  8
0
100
AcDbBlockEnd
  0
BLOCK
  5
5B
100
AcDbEntity
  8
0
100
AcDbBlockBegin
  2
CLUMP2
 70
         0
 10
0.0
 20
0.0
 30
0.0
  3

  1

  0
INSERT
  5
5D
100
AcDbEntity
  8
0
100
AcDbBlockReference
  2
CLUMP3
 10
0.0
 20
0.0
 30
0.0
  0
ENDBLK
  5
69
100
AcDbEntity
  8
0
100
AcDbBlockEnd
  0
BLOCK
  5
5E
100
AcDbEntity
  8
0
100
AcDbBlockBegin
  2
CLUMP3
 70
         0
 10
0.0
 20
0.0
 30
0.0
  3

  1

  0
LINE
  5
5F
100
AcDbEntity
  8
LAYER0
 62
         3
100
AcDbLine
 10
22.1876443418
 20
41.6620465859
 30
0.0
 11
32.1876443418
 21
41.6620465859
 31
0.0
  0
LINE
  5
60
100
AcDbEntity
  8
LAYER0
 62
         3
100
AcDbLine
 10
32.1876443418
 20
41.6620465859
 30
0.0
 11
32.1876443418
 21
36.6620465859
 31
0.0
  0
LINE
  5
61
100
AcDbEntity
  8
LAYER0
 62
         3
100
AcDbLine
 10
32.1876443418
 20
36.6620465859
 30
0.0
 11
22.1876443418
 21
36.6620465859
 31
0.0
  0
LINE
  5
62
100
AcDbEntity
  8
LAYER0
 62
         3
100
AcDbLine
 10
22.1876443418
 20
36.6620465859
 30
0.0
 11
22.1876443418
 21
41.6620465859
 31
0.0
  0
LINE
  5
63
100
AcDbEntity
  8
LAYER0
 62
         3
100
AcDbLine
 10
27.1876443418
 20
36.6620465859
 30
0.0
 11
27.1876443418
 21
40.218670913
 31
0.0
  0
ARC
  5
64
100
AcDbEntity
  8
LAYER0
 62
         3
100
AcDbCircle
 10
29.6876443418
 20
38.8208875318
 30
0.0
 40
2.8642273619
210
0.0
220
-0.0
230
1.0
100
AcDbArc
 50
29.2101389827
 51
150.7898640878
  0
ARC
  5
65
100
AcDbEntity
  8
LAYER0
 62
         3
100
AcDbCircle
 10
24.6876443418
 20
38.8208875318
 30
0.0
 40
2.8642273619
210
0.0
220
-0.0
230
1.0
100
AcDbArc
 50
29.2101389827
 51
150.7898640878
  0
ARC
  5
66
100
AcDbEntity
  8
LAYER0
 62
         3
100
AcDbCircle
 10
24.6876443418
 20
38.8208875318
 30
0.0
 40
2.8642273619
210
0.0
220
-0.0
230
1.0
100
AcDbArc
 50
29.2101389827
 51
150.7898640878
  0
ARC
  5
67
100
AcDbEntity
  8
LAYER0
 62
         3
100
AcDbCircle
 10
24.6876443418
 20
38.8208875318
 30
0.0
 40
2.8642273619
210
0.0
220
-0.0
230
1.0
100
AcDbArc
 50
29.2101389827
 51
150.7898640878
  0
ENDBLK
  5
68
100
AcDbEntity
  8
0
100
AcDbBlockEnd
  0
BLOCK
  5
F6
100
AcDbEntity
  8
0
100
AcDbBlockBegin
  2
CLUMP4
 70
         0
 10
0.0
 20
0.0
 30
0.0
  3

  1

  0
INSERT
  5
F8
100
AcDbEntity
  8
0
100
AcDbBlockReference
  2
CLUMP5
 10
0.0
 20
0.0
 30
0.0
  0
ENDBLK
  5
104
100
AcDbEntity
  8
0
100
AcDbBlockEnd
  0
BLOCK
  5
F9
100
AcDbEntity
  8
0
100
AcDbBlockBegin
  2
CLUMP5
 70
         0
 10
0.0
 20
0.0
 30
0.0
  3

  1

  0
CIRCLE
  5
FA
100
AcDbEntity
  8
LAYER0
 62
         3
100
AcDbCircle
 10
-13.8123556582
 20
84.8900339891
 30
0.0
 40
5.0
210
0.0
220
0.0
230
1.0
  0
LINE
  5
FB
100
AcDbEntity
  8
LAYER0
 62
         3
100
AcDbLine
 10
-8.8123556582
 20
87.776785335
 30
0.0
 11
-13.8123556582
 21
90.663536681
 31
0.0
  0
LINE
  5
FC
100
AcDbEntity
  8
LAYER0
 62
         3
100
AcDbLine
 10
-13.8123556582
 20
90.663536681
 30
0.0
 11
-18.8123556582
 21
87.776785335
 31
0.0
  0
LINE
  5
FD
100
AcDbEntity
  8
LAYER0
 62
         3
100
AcDbLine
 10
-18.8123556582
 20
87.776785335
 30
0.0
 11
-18.8123556582
 21
82.0032826431
 31
0.0
  0
LINE
  5
FE
100
AcDbEntity
  8
LAYER0
 62
         3
100
AcDbLine
 10
-18.8123556582
 20
82.0032826431
 30
0.0
 11
-13.8123556582
 21
79.1165312972
 31
0.0
  0
LINE
  5
FF
100
AcDbEntity
  8
LAYER0
 62
         3
100
AcDbLine
 10
-13.8123556582
 20
79.1165312972
 30
0.0
 11
-8.8123556582
 21
82.0032826431
 31
0.0
  0
LINE
  5
100
100
AcDbEntity
  8
LAYER0
 62
         3
100
AcDbLine
 10
-8.8123556582
 20
82.0032826431
 30
0.0
 11
-8.8123556582
 21
87.776785335
 31
0.0
  0
CIRCLE
  5
101
100
AcDbEntity
  8
LAYER0
 62
         3
100
AcDbCircle
 10
-13.8123556582
 20
84.8900339891
 30
0.0
 40
2.5
210
0.0
220
0.0
230
1.0
  0
CIRCLE
  5
102
100
AcDbEntity
  8
LAYER0
 62
         5
100
AcDbCircle
 10
-13.8123556582
 20
84.8900339891
 30
0.0
 40
3.0
210
0.0
220
0.0
230
1.0
  0
ENDBLK
  5
103
100
AcDbEntity
  8
0
100
AcDbBlockEnd
  0
BLOCK
  5
10E
100
AcDbEntity
  8
0
100
AcDbBlockBegin
  2
CLUMP6
 70
         0
 10
0.0
 20
0.0
 30
0.0
  3

  1

  0
INSERT
  5
110
100
AcDbEntity
  8
0
100
AcDbBlockReference
  2
CLUMP7
 10
0.0
 20
0.0
 30
0.0
  0
ENDBLK
  5
11C
100
AcDbEntity
  8
0
100
AcDbBlockEnd
  0
BLOCK
  5
111
100
AcDbEntity
  8
0
100
AcDbBlockBegin
  2
CLUMP7
 70
         0
 10
0.0
 20
0.0
 30
0.0
  3

  1

  0
LINE
  5
112
100
AcDbEntity
  8
LAYER0
 62
         3
100
AcDbLine
 10
-8.8123556582
 20
41.6620465859
 30
0.0
 11
-18.8123556582
 21
41.6620465859
 31
0.0
  0
LINE
  5
113
100
AcDbEntity
  8
LAYER0
 62
         3
100
AcDbLine
 10
-18.8123556582
 20
41.6620465859
 30
0.0
 11
-18.8123556582
 21
36.6620465859
 31
0.0
  0
LINE
  5
114
100
AcDbEntity
  8
LAYER0
 62
         3
100
AcDbLine
 10
-18.8123556582
 20
36.6620465859
 30
0.0
 11
-8.8123556582
 21
36.6620465859
 31
0.0
  0
LINE
  5
115
100
AcDbEntity
  8
LAYER0
 62
         3
100
AcDbLine
 10
-8.8123556582
 20
36.6620465859
 30
0.0
 11
-8.8123556582
 21
41.6620465859
 31
0.0
  0
LINE
  5
116
100
AcDbEntity
  8
LAYER0
 62
         3
100
AcDbLine
 10
-13.8123556582
 20
36.6620465859
 30
0.0
 11
-13.8123556582
 21
40.218670913
 31
0.0
  0
ARC
  5
117
100
AcDbEntity
  8
LAYER0
 62
         3
100
AcDbCircle
 10
-16.3123556582
 20
38.8208875318
 30
0.0
 40
2.8642273619
210
0.0
220
-0.0
230
1.0
100
AcDbArc
 50
29.2101389827
 51
150.7898640878
  0
ARC
  5
118
100
AcDbEntity
  8
LAYER0
 62
         3
100
AcDbCircle
 10
-11.3123556582
 20
38.8208875318
 30
0.0
 40
2.8642273619
210
0.0
220
-0.0
230
1.0
100
AcDbArc
 50
29.2101389827
 51
150.7898640878
  0
ARC
  5
119
100
AcDbEntity
  8
LAYER0
 62
         3
100
AcDbCircle
 10
-11.3123556582
 20
38.8208875318
 30
0.0
 40
2.8642273619
210
0.0
220
-0.0
230
1.0
100
AcDbArc
 50
29.2101389827
 51
150.7898640878
  0
ARC
  5
11A
100
AcDbEntity
  8
LAYER0
 62
         3
100
AcDbCircle
 10
-11.3123556582
 20
38.8208875318
 30
0.0
 40
2.8642273619
210
0.0
220
-0.0
230
1.0
100
AcDbArc
 50
29.2101389827
 51
150.7898640878
  0
ENDBLK
  5
11B
100
AcDbEntity
  8
0
100
AcDbBlockEnd
  0
ENDSEC
  0
SECTION
  2
ENTITIES
  0
INSERT
  5
2F
100
AcDbEntity
  8
0
100
AcDbBlockReference
  2
CLUMP0
 10
0.0
 20
0.0
 30
0.0
  0
ARC
  5
40
100
AcDbEntity
  8
LAYER0
 62
         6
100
AcDbCircle
 10
31.1876443418
 20
94.8900339891
 30
0.0
 40
4.0
210
0.0
220
-0.0
230
1.0
100
AcDbArc
 50
0.0
 51
90.0000015352
  0
LINE
  5
41
100
AcDbEntity
  8
LAYER0
 62
         6
100
AcDbLine
 10
35.1876443418
 20
74.8900339891
 30
0.0
 11
35.1876443418
 21
94.8900339891
 31
0.0
  0
POINT
  5
42
100
AcDbEntity
  8
LAYER0
 62
         2
100
AcDbPoint
 10
6.6876443418
 20
84.8900339891
 30
0.0
  0
LINE
  5
43
100
AcDbEntity
  8
LAYER0
 62
         6
100
AcDbLine
 10
31.1876443418
 20
70.8900339891
 30
0.0
 11
6.6876443418
 21
70.8900339891
 31
0.0
  0
LINE
  5
44
100
AcDbEntity
  8
LAYER0
 62
         6
100
AcDbLine
 10
31.1876443418
 20
98.8900339891
 30
0.0
 11
6.6876443418
 21
98.8900339891
 31
0.0
  0
ARC
  5
45
100
AcDbEntity
  8
LAYER0
 62
         3
100
AcDbCircle
 10
26.6876443418
 20
97.8900339891
 30
0.0
 40
4.0
210
0.0
220
-0.0
230
1.0
100
AcDbArc
 50
13.7749011776
 51
90.0000015352
  0
ARC
  5
46
100
AcDbEntity
  8
LAYER0
 62
         3
100
AcDbCircle
 10
26.6876443418
 20
71.8900339891
 30
0.0
 40
4.0
210
0.0
220
0.0
230
1.0
100
AcDbArc
 50
269.9999984648
 51
345.5224875671
  0
LINE
  5
47
100
AcDbEntity
  8
LAYER0
 62
         6
100
AcDbLine
 10
19.2003217404
 20
33.4620465859
 30
0.0
 11
35.1876443418
 21
33.4620465859
 31
0.0
  0
LINE
  5
49
100
AcDbEntity
  8
LAYER3
 62
         4
100
AcDbLine
 10
35.1876443418
 20
115.2884839282
 30
0.0
 11
32.2532015396
 21
114.6647488558
 31
0.0
  0
LINE
  5
4A
100
AcDbEntity
  8
LAYER3
 62
         4
100
AcDbLine
 10
35.1876443418
 20
115.2884839282
 30
0.0
 11
32.2532015396
 21
115.9122190007
 31
0.0
  0
LINE
  5
4B
100
AcDbEntity
  8
LAYER3
 62
         4
100
AcDbLine
 10
35.1876443418
 20
95.8900339891
 30
0.0
 11
35.1876443418
 21
116.2884839282
 31
0.0
  0
LINE
  5
4C
100
AcDbEntity
  8
LAYER0
 62
         3
100
AcDbLine
 10
30.1876443418
 20
41.6620465859
 30
0.0
 11
30.1876443418
 21
50.8625866051
 31
0.0
  0
LINE
  5
4D
100
AcDbEntity
  8
LAYER0
 62
         3
100
AcDbLine
 10
30.1876443418
 20
19.3625866051
 30
0.0
 11
30.1876443418
 21
33.4620465859
 31
0.0
  0
LINE
  5
4E
100
AcDbEntity
  8
LAYER0
 62
         4
100
AcDbLine
 10
29.8376443418
 20
33.4620465859
 30
0.0
 11
29.8376443418
 21
25.8625866051
 31
0.0
  0
LINE
  5
4F
100
AcDbEntity
  8
LAYER0
 62
         4
100
AcDbLine
 10
29.8376443418
 20
50.8625866051
 30
0.0
 11
29.8376443418
 21
41.6620465859
 31
0.0
  0
LINE
  5
50
100
AcDbEntity
  8
LAYER0
 62
         3
100
AcDbLine
 10
24.1876443418
 20
41.6620465859
 30
0.0
 11
24.1876443418
 21
50.8625866051
 31
0.0
  0
LINE
  5
51
100
AcDbEntity
  8
LAYER0
 62
         3
100
AcDbLine
 10
24.1876443418
 20
19.3625866051
 30
0.0
 11
24.1876443418
 21
33.4620465859
 31
0.0
  0
LINE
  5
52
100
AcDbEntity
  8
LAYER0
 62
         4
100
AcDbLine
 10
24.5376443418
 20
33.4620465859
 30
0.0
 11
24.5376443418
 21
25.8625866051
 31
0.0
  0
LINE
  5
53
100
AcDbEntity
  8
LAYER0
 62
         4
100
AcDbLine
 10
24.5376443418
 20
50.8625866051
 30
0.0
 11
24.5376443418
 21
41.6620465859
 31
0.0
  0
MTEXT
  5
54
100
AcDbEntity
  8
LAYER3
100
AcDbMText
 10
4.2876443418
 20
112.7368601974
 30
0.0
 40
2.1473683357
 41
2.5646459961
 71
         1
 72
         1
  1
\W0.8;41
  0
LINE
  5
55
100
AcDbEntity
  8
LAYER3
 62
         4
100
AcDbLine
 10
27.1876443418
 20
108.949201506
 30
0.0
 11
24.2532015396
 21
108.3254664335
 31
0.0
  0
LINE
  5
56
100
AcDbEntity
  8
LAYER3
 62
         4
100
AcDbLine
 10
27.1876443418
 20
108.949201506
 30
0.0
 11
24.2532015396
 21
109.5729365784
 31
0.0
  0
LINE
  5
57
100
AcDbEntity
  8
LAYER3
 62
         4
100
AcDbLine
 10
27.1876443418
 20
93.4790407806
 30
0.0
 11
27.1876443418
 21
109.949201506
 31
0.0
  0
MTEXT
  5
58
100
AcDbEntity
  8
LAYER3
100
AcDbMText
 10
4.2876443418
 20
119.0761426196
 30
0.0
 40
2.1473683357
 41
2.5646459961
 71
         1
 72
         1
  1
\W0.8;57
  0
INSERT
  5
5A
100
AcDbEntity
  8
0
100
AcDbBlockReference
  2
CLUMP2
 10
0.0
 20
0.0
 30
0.0
  0
LINE
  5
6A
100
AcDbEntity
  8
LAYER3
 62
         4
100
AcDbLine
 10
19.6876443418
 20
-47.0123424688
 30
0.0
 11
16.7532015396
 21
-47.6360775412
 31
0.0
  0
LINE
  5
6B
100
AcDbEntity
  8
LAYER3
 62
         4
100
AcDbLine
 10
19.6876443418
 20
-47.0123424688
 30
0.0
 11
16.7532015396
 21
-46.3886073963
 31
0.0
  0
LINE
  5
6C
100
AcDbEntity
  8
LAYER3
 62
         4
100
AcDbLine
 10
19.6876443418
 20
-62.8377651665
 30
0.0
 11
19.6876443418
 21
-46.0123424688
 31
0.0
  0
MTEXT
  5
6D
100
AcDbEntity
  8
LAYER3
100
AcDbMText
 10
4.2876443418
 20
-91.3549984081
 30
0.0
 40
2.1473683357
 41
2.5646459961
 71
         1
 72
         1
  1
\W0.8;48
  0
LINE
  5
6E
100
AcDbEntity
  8
LAYER3
 62
         4
100
AcDbLine
 10
30.6876443418
 20
-95.1426570995
 30
0.0
 11
27.7532015396
 21
-95.7663921719
 31
0.0
  0
LINE
  5
6F
100
AcDbEntity
  8
LAYER3
 62
         4
100
AcDbLine
 10
30.6876443418
 20
-95.1426570995
 30
0.0
 11
27.7532015396
 21
-94.518922027
 31
0.0
  0
LINE
  5
70
100
AcDbEntity
  8
LAYER3
 62
         4
100
AcDbLine
 10
30.6876443418
 20
-82.245788229
 30
0.0
 11
30.6876443418
 21
-96.1426570995
 31
0.0
  0
MTEXT
  5
71
100
AcDbEntity
  8
LAYER3
100
AcDbMText
 10
38.1837601574
 20
-70.6457883036
 30
0.0
 40
2.1473683357
 41
2.5646459961
 71
         1
 72
         1
  1
\W0.8;20
 11
-0.0000000268
 21
1.0
 31
0.0
  0
LINE
  5
72
100
AcDbEntity
  8
LAYER3
 62
         4
100
AcDbLine
 10
41.9714188488
 20
-78.245788229
 30
0.0
 11
41.3476837763
 21
-75.3113454268
 31
0.0
  0
MTEXT
  5
73
100
AcDbEntity
  8
LAYER3
100
AcDbMText
 10
4.2876443418
 20
-43.2246837774
 30
0.0
 40
2.1473683357
 41
2.5646459961
 71
         1
 72
         1
  1
\W0.8;26
  0
LINE
  5
74
100
AcDbEntity
  8
LAYER0
 62
         3
100
AcDbLine
 10
24.1876443418
 20
25.8625866051
 30
0.0
 11
30.1876443418
 21
25.8625866051
 31
0.0
  0
LINE
  5
75
100
AcDbEntity
  8
LAYER0
 62
         3
100
AcDbLine
 10
24.1876443418
 20
50.8625866051
 30
0.0
 11
30.1876443418
 21
50.8625866051
 31
0.0
  0
LINE
  5
76
100
AcDbEntity
  8
LAYER0
  6
CENTER
100
AcDbLine
 10
27.1876443418
 20
92.4790407806
 30
0.0
 11
27.1876443418
 21
77.3073346244
 31
0.0
  0
LINE
  5
77
100
AcDbEntity
  8
LAYER0
  6
CENTER
100
AcDbLine
 10
6.6876443418
 20
65.8779826534
 30
0.0
 11
6.6876443418
 21
104.110682167
 31
0.0
  0
POINT
  5
78
100
AcDbEntity
  8
LAYER0
 62
         2
100
AcDbPoint
 10
6.6876443418
 20
18.8625866051
 30
0.0
  0
LINE
  5
79
100
AcDbEntity
  8
LAYER0
 62
         6
100
AcDbLine
 10
19.2003217404
 20
36.6620465859
 30
0.0
 11
34.6876443418
 21
36.6620465859
 31
0.0
  0
ARC
  5
7A
100
AcDbEntity
  8
LAYER0
 62
         6
100
AcDbCircle
 10
34.6876443418
 20
36.1620465859
 30
0.0
 40
0.5
210
0.0
220
-0.0
230
1.0
100
AcDbArc
 50
0.0
 51
90.0000015352
  0
LINE
  5
7B
100
AcDbEntity
  8
LAYER0
 62
         6
100
AcDbLine
 10
35.1876443418
 20
33.4620465859
 30
0.0
 11
35.1876443418
 21
36.1620465859
 31
0.0
  0
ARC
  5
7C
100
AcDbEntity
  8
LAYER0
 62
         6
100
AcDbCircle
 10
19.2003217404
 20
43.4620465859
 30
0.0
 40
6.8
210
0.0
220
0.0
230
1.0
100
AcDbArc
 50
254.9999982089
 51
269.9999984648
  0
ARC
  5
7D
100
AcDbEntity
  8
LAYER0
 62
         6
100
AcDbCircle
 10
19.2003217404
 20
43.4620465859
 30
0.0
 40
10.0
210
0.0
220
0.0
230
1.0
100
AcDbArc
 50
254.9999982089
 51
269.9999984648
  0
ARC
  5
7E
100
AcDbEntity
  8
LAYER0
 62
         6
100
AcDbCircle
 10
6.6876443418
 20
36.4620465859
 30
0.0
 40
3.2
210
0.0
220
-0.0
230
1.0
100
AcDbArc
 50
75.0000012794
 51
105.0000017911
  0
LINE
  5
7F
100
AcDbEntity
  8
LAYER0
 62
         6
100
AcDbLine
 10
17.4403522337
 20
36.8937509672
 30
0.0
 11
7.5158652861
 21
39.55300923
 31
0.0
  0
LINE
  5
80
100
AcDbEntity
  8
LAYER0
 62
         6
100
AcDbLine
 10
16.6121312894
 20
33.802788323
 30
0.0
 11
6.6876443418
 21
36.4620465859
 31
0.0
  0
LINE
  5
81
100
AcDbEntity
  8
LAYER0
  6
CENTER
 62
         4
100
AcDbLine
 10
17.8837967645
 20
98.8900339891
 30
0.0
 11
17.8837967645
 21
70.8900339891
 31
0.0
  0
ARC
  5
82
100
AcDbEntity
  8
LAYER0
 62
         6
100
AcDbCircle
 10
31.1876443418
 20
74.8900339891
 30
0.0
 40
4.0
210
-0.0
220
0.0
230
1.0
100
AcDbArc
 50
269.9999984648
 51
0.0
  0
ARC
  5
83
100
AcDbEntity
  8
LAYER0
 62
         6
100
AcDbCircle
 10
12.9876443418
 20
-78.045788229
 30
0.0
 40
0.4
210
0.0
220
0.0
230
1.0
100
AcDbArc
 50
180.0000030705
 51
269.9999984648
  0
ARC
  5
84
100
AcDbEntity
  8
LAYER0
 62
         6
100
AcDbCircle
 10
15.1876443418
 20
-78.645788229
 30
0.0
 40
0.5
210
-0.0
220
0.0
230
1.0
100
AcDbArc
 50
269.9999984648
 51
0.0
  0
ARC
  5
85
100
AcDbEntity
  8
LAYER0
 62
         6
100
AcDbCircle
 10
12.5876443418
 20
-78.645788229
 30
0.0
 40
0.5
210
0.0
220
0.0
230
1.0
100
AcDbArc
 50
180.0000030705
 51
269.9999984648
  0
LINE
  5
86
100
AcDbEntity
  8
LAYER3
 62
         4
100
AcDbLine
 10
15.6876443418
 20
-41.1861379873
 30
0.0
 11
18.622087144
 21
-40.5624029149
 31
0.0
  0
LINE
  5
87
100
AcDbEntity
  8
LAYER3
 62
         4
100
AcDbLine
 10
15.6876443418
 20
-41.1861379873
 30
0.0
 11
18.622087144
 21
-41.8098730598
 31
0.0
  0
LINE
  5
88
100
AcDbEntity
  8
LAYER3
 62
         4
100
AcDbLine
 10
15.6876443418
 20
-41.1861379873
 30
0.0
 11
23.6876443418
 21
-41.1861379873
 31
0.0
  0
LINE
  5
89
100
AcDbEntity
  8
LAYER3
 62
         4
100
AcDbLine
 10
15.6876443418
 20
-50.245788229
 30
0.0
 11
15.6876443418
 21
-40.1861379873
 31
0.0
  0
LINE
  5
8A
100
AcDbEntity
  8
LAYER3
 62
         4
100
AcDbLine
 10
23.6876443418
 20
-54.245788229
 30
0.0
 11
23.6876443418
 21
-40.1861379873
 31
0.0
  0
MTEXT
  5
8B
100
AcDbEntity
  8
LAYER3
100
AcDbMText
 10
4.2876443418
 20
-37.3984792959
 30
0.0
 40
2.1473683357
 41
2.5646459961
 71
         1
 72
         1
  1
\W0.8;18
  0
LINE
  5
8C
100
AcDbEntity
  8
LAYER3
 62
         4
100
AcDbLine
 10
15.6876443418
 20
-41.1861379873
 30
0.0
 11
12.7532015396
 21
-41.8098730598
 31
0.0
  0
LINE
  5
8D
100
AcDbEntity
  8
LAYER3
 62
         4
100
AcDbLine
 10
15.6876443418
 20
-41.1861379873
 30
0.0
 11
12.7532015396
 21
-40.5624029149
 31
0.0
  0
LINE
  5
8E
100
AcDbEntity
  8
LAYER3
 62
         4
100
AcDbLine
 10
15.6876443418
 20
-52.745788229
 30
0.0
 11
15.6876443418
 21
-40.1861379873
 31
0.0
  0
LINE
  5
8F
100
AcDbEntity
  8
LAYER0
  6
CENTER
100
AcDbLine
 10
19.6876443418
 20
-73.245788229
 30
0.0
 11
19.6876443418
 21
-63.8377651665
 31
0.0
  0
CIRCLE
  5
90
100
AcDbEntity
  8
LAYER0
 62
         3
100
AcDbCircle
 10
19.6876443418
 20
-68.245788229
 30
0.0
 40
1.7
210
0.0
220
0.0
230
1.0
  0
CIRCLE
  5
91
100
AcDbEntity
  8
LAYER0
 62
         4
100
AcDbCircle
 10
19.6876443418
 20
-68.245788229
 30
0.0
 40
2.0
210
0.0
220
0.0
230
1.0
  0
LINE
  5
92
100
AcDbEntity
  8
LAYER0
 62
         3
100
AcDbLine
 10
23.3876443418
 20
-73.745788229
 30
0.0
 11
23.3876443418
 21
-62.745788229
 31
0.0
  0
LINE
  5
93
100
AcDbEntity
  8
LAYER3
 62
         4
100
AcDbLine
 10
41.9714188488
 20
-78.245788229
 30
0.0
 11
42.5951539212
 21
-75.3113454268
 31
0.0
  0
LINE
  5
94
100
AcDbEntity
  8
LAYER3
 62
         4
100
AcDbLine
 10
41.9714188488
 20
-58.245788229
 30
0.0
 11
42.5951539212
 21
-61.1802310312
 31
0.0
  0
LINE
  5
95
100
AcDbEntity
  8
LAYER3
 62
         4
100
AcDbLine
 10
41.9714188488
 20
-58.245788229
 30
0.0
 11
41.3476837763
 21
-61.1802310312
 31
0.0
  0
LINE
  5
96
100
AcDbEntity
  8
LAYER3
 62
         4
100
AcDbLine
 10
41.9714188488
 20
-58.245788229
 30
0.0
 11
41.9714188488
 21
-78.245788229
 31
0.0
  0
LINE
  5
97
100
AcDbEntity
  8
LAYER3
 62
         4
100
AcDbLine
 10
27.3274676194
 20
-78.245788229
 30
0.0
 11
42.9714188488
 21
-78.245788229
 31
0.0
  0
LINE
  5
98
100
AcDbEntity
  8
LAYER3
 62
         4
100
AcDbLine
 10
27.3274676194
 20
-58.245788229
 30
0.0
 11
42.9714188488
 21
-58.245788229
 31
0.0
  0
MTEXT
  5
99
100
AcDbEntity
  8
LAYER3
100
AcDbMText
 10
18.4876443418
 20
-37.3984792959
 30
0.0
 40
2.1473683357
 41
1.282322998
 71
         1
 72
         1
  1
\W0.8;8
  0
LINE
  5
9A
100
AcDbEntity
  8
LAYER3
 62
         4
100
AcDbLine
 10
23.6876443418
 20
-41.1861379873
 30
0.0
 11
20.7532015396
 21
-41.8098730598
 31
0.0
  0
LINE
  5
9B
100
AcDbEntity
  8
LAYER3
 62
         4
100
AcDbLine
 10
23.6876443418
 20
-41.1861379873
 30
0.0
 11
20.7532015396
 21
-40.5624029149
 31
0.0
  0
MTEXT
  5
9C
100
AcDbEntity
  8
LAYER0
100
AcDbMText
 10
3.305218296
 20
-67.6124365033
 30
0.0
 40
2.1473683357
 41
2.5646459961
 71
         1
 72
         1
  1
\W0.8;40
 11
-0.0000000268
 21
1.0
 31
0.0
  0
ARC
  5
9D
100
AcDbEntity
  8
LAYER0
 62
         3
100
AcDbCircle
 10
23.6876443418
 20
-73.745788229
 30
0.0
 40
0.3
210
0.0
220
-0.0
230
1.0
100
AcDbArc
 50
179.9999969295
 51
0.0
  0
CIRCLE
  5
9E
100
AcDbEntity
  8
LAYER0
 62
         3
100
AcDbCircle
 10
23.6876443418
 20
-78.245788229
 30
0.0
 40
1.7
210
0.0
220
0.0
230
1.0
  0
LINE
  5
9F
100
AcDbEntity
  8
LAYER0
 62
         3
100
AcDbLine
 10
23.9876443418
 20
-62.745788229
 30
0.0
 11
23.9876443418
 21
-73.745788229
 31
0.0
  0
LINE
  5
A0
100
AcDbEntity
  8
LAYER0
 62
         6
100
AcDbLine
 10
14.3876443418
 20
-80.345788229
 30
0.0
 11
14.7876443418
 21
-80.345788229
 31
0.0
  0
LINE
  5
A1
100
AcDbEntity
  8
LAYER0
 62
         6
100
AcDbLine
 10
12.9876443418
 20
-80.345788229
 30
0.0
 11
13.3876443418
 21
-80.345788229
 31
0.0
  0
LINE
  5
A2
100
AcDbEntity
  8
LAYER0
 62
         6
100
AcDbLine
 10
13.3876443418
 20
-79.645788229
 30
0.0
 11
12.5876443418
 21
-79.645788229
 31
0.0
  0
LINE
  5
A3
100
AcDbEntity
  8
LAYER0
 62
         6
100
AcDbLine
 10
15.1876443418
 20
-79.645788229
 30
0.0
 11
14.3876443418
 21
-79.645788229
 31
0.0
  0
LINE
  5
A4
100
AcDbEntity
  8
LAYER0
 62
         6
100
AcDbLine
 10
14.3876443418
 20
-79.645788229
 30
0.0
 11
14.3876443418
 21
-80.345788229
 31
0.0
  0
LINE
  5
A5
100
AcDbEntity
  8
LAYER0
 62
         6
100
AcDbLine
 10
13.3876443418
 20
-80.345788229
 30
0.0
 11
13.3876443418
 21
-79.645788229
 31
0.0
  0
ARC
  5
A6
100
AcDbEntity
  8
LAYER0
 62
         6
100
AcDbCircle
 10
14.7876443418
 20
-80.745788229
 30
0.0
 40
0.4
210
-0.0
220
0.0
230
1.0
100
AcDbArc
 50
269.9999984648
 51
0.0
  0
ARC
  5
A7
100
AcDbEntity
  8
LAYER0
 62
         6
100
AcDbCircle
 10
14.7876443418
 20
-80.745788229
 30
0.0
 40
0.4
210
0.0
220
-0.0
230
1.0
100
AcDbArc
 50
0.0
 51
90.0000015352
  0
ARC
  5
A8
100
AcDbEntity
  8
LAYER0
 62
         6
100
AcDbCircle
 10
12.9876443418
 20
-80.745788229
 30
0.0
 40
0.4
210
0.0
220
0.0
230
1.0
100
AcDbArc
 50
90.0000015352
 51
180.0000030705
  0
ARC
  5
A9
100
AcDbEntity
  8
LAYER0
 62
         6
100
AcDbCircle
 10
12.9876443418
 20
-80.745788229
 30
0.0
 40
0.4
210
0.0
220
0.0
230
1.0
100
AcDbArc
 50
180.0000030705
 51
269.9999984648
  0
ARC
  5
AA
100
AcDbEntity
  8
LAYER0
 62
         6
100
AcDbCircle
 10
15.1876443418
 20
-81.345788229
 30
0.0
 40
0.5
210
-0.0
220
0.0
230
1.0
100
AcDbArc
 50
269.9999984648
 51
0.0
  0
ARC
  5
AB
100
AcDbEntity
  8
LAYER0
 62
         6
100
AcDbCircle
 10
12.5876443418
 20
-81.345788229
 30
0.0
 40
0.5
210
0.0
220
0.0
230
1.0
100
AcDbArc
 50
180.0000030705
 51
269.9999984648
  0
ARC
  5
AC
100
AcDbEntity
  8
LAYER0
 62
         6
100
AcDbCircle
 10
12.5876443418
 20
-80.145788229
 30
0.0
 40
0.5
210
0.0
220
0.0
230
1.0
100
AcDbArc
 50
90.0000015352
 51
180.0000030705
  0
ARC
  5
AD
100
AcDbEntity
  8
LAYER0
 62
         6
100
AcDbCircle
 10
15.1876443418
 20
-80.145788229
 30
0.0
 40
0.5
210
0.0
220
-0.0
230
1.0
100
AcDbArc
 50
0.0
 51
90.0000015352
  0
LINE
  5
AE
100
AcDbEntity
  8
LAYER0
 62
         6
100
AcDbLine
 10
12.0876443418
 20
-81.345788229
 30
0.0
 11
12.0876443418
 21
-80.145788229
 31
0.0
  0
LINE
  5
AF
100
AcDbEntity
  8
LAYER0
 62
         6
100
AcDbLine
 10
15.6876443418
 20
-80.145788229
 30
0.0
 11
15.6876443418
 21
-81.345788229
 31
0.0
  0
LINE
  5
B0
100
AcDbEntity
  8
LAYER0
 62
         6
100
AcDbLine
 10
12.9876443418
 20
-81.145788229
 30
0.0
 11
14.7876443418
 21
-81.145788229
 31
0.0
  0
LINE
  5
B1
100
AcDbEntity
  8
LAYER0
 62
         6
100
AcDbLine
 10
12.5876443418
 20
-81.845788229
 30
0.0
 11
15.1876443418
 21
-81.845788229
 31
0.0
  0
ARC
  5
B2
100
AcDbEntity
  8
LAYER0
 62
         6
100
AcDbCircle
 10
14.7876443418
 20
-78.045788229
 30
0.0
 40
0.4
210
-0.0
220
0.0
230
1.0
100
AcDbArc
 50
269.9999984648
 51
0.0
  0
ARC
  5
B3
100
AcDbEntity
  8
LAYER0
 62
         6
100
AcDbCircle
 10
14.7876443418
 20
-78.045788229
 30
0.0
 40
0.4
210
0.0
220
-0.0
230
1.0
100
AcDbArc
 50
0.0
 51
90.0000015352
  0
ARC
  5
B4
100
AcDbEntity
  8
LAYER0
 62
         6
100
AcDbCircle
 10
12.9876443418
 20
-78.045788229
 30
0.0
 40
0.4
210
0.0
220
0.0
230
1.0
100
AcDbArc
 50
90.0000015352
 51
180.0000030705
  0
CIRCLE
  5
B5
100
AcDbEntity
  8
LAYER0
 62
         3
100
AcDbCircle
 10
23.6876443418
 20
-58.245788229
 30
0.0
 40
1.7
210
0.0
220
0.0
230
1.0
  0
CIRCLE
  5
B6
100
AcDbEntity
  8
LAYER0
 62
         4
100
AcDbCircle
 10
23.6876443418
 20
-58.245788229
 30
0.0
 40
2.0
210
0.0
220
0.0
230
1.0
  0
LINE
  5
B7
100
AcDbEntity
  8
LAYER0
  6
CENTER
100
AcDbLine
 10
26.3274676194
 20
-58.245788229
 30
0.0
 11
19.6876443418
 21
-58.245788229
 31
0.0
  0
LINE
  5
B8
100
AcDbEntity
  8
LAYER0
  6
CENTER
100
AcDbLine
 10
23.6876443418
 20
-55.0921925858
 30
0.0
 11
23.6876443418
 21
-61.4059657922
 31
0.0
  0
ARC
  5
B9
100
AcDbEntity
  8
LAYER0
 62
         6
100
AcDbCircle
 10
12.5876443418
 20
-77.445788229
 30
0.0
 40
0.5
210
0.0
220
0.0
230
1.0
100
AcDbArc
 50
90.0000015352
 51
180.0000030705
  0
ARC
  5
BA
100
AcDbEntity
  8
LAYER0
 62
         6
100
AcDbCircle
 10
15.1876443418
 20
-77.445788229
 30
0.0
 40
0.5
210
0.0
220
-0.0
230
1.0
100
AcDbArc
 50
0.0
 51
90.0000015352
  0
LINE
  5
BB
100
AcDbEntity
  8
LAYER0
 62
         6
100
AcDbLine
 10
15.6876443418
 20
-75.447587494
 30
0.0
 11
15.6876443418
 21
-75.8805846069
 31
0.0
  0
LINE
  5
BC
100
AcDbEntity
  8
LAYER0
 62
         6
100
AcDbLine
 10
15.6876443418
 20
-74.210991851
 30
0.0
 11
15.6876443418
 21
-74.6439889639
 31
0.0
  0
LINE
  5
BD
100
AcDbEntity
  8
LAYER0
 62
         6
100
AcDbLine
 10
12.0876443418
 20
-75.295788229
 30
0.0
 11
12.0876443418
 21
-74.795788229
 31
0.0
  0
LINE
  5
BE
100
AcDbEntity
  8
LAYER0
 62
         6
100
AcDbLine
 10
12.0876443418
 20
-76.645788229
 30
0.0
 11
12.0876443418
 21
-76.032383872
 31
0.0
  0
LINE
  5
BF
100
AcDbEntity
  8
LAYER0
 62
         6
100
AcDbLine
 10
12.0876443418
 20
-74.0591925859
 30
0.0
 11
12.0876443418
 21
-73.445788229
 31
0.0
  0
LINE
  5
C0
100
AcDbEntity
  8
LAYER0
 62
         6
100
AcDbLine
 10
12.0876443418
 20
-78.645788229
 30
0.0
 11
12.0876443418
 21
-77.445788229
 31
0.0
  0
LINE
  5
C1
100
AcDbEntity
  8
LAYER0
 62
         6
100
AcDbLine
 10
15.6876443418
 20
-77.445788229
 30
0.0
 11
15.6876443418
 21
-78.645788229
 31
0.0
  0
LINE
  5
C2
100
AcDbEntity
  8
LAYER0
 62
         6
100
AcDbLine
 10
12.9876443418
 20
-78.445788229
 30
0.0
 11
14.7876443418
 21
-78.445788229
 31
0.0
  0
LINE
  5
C3
100
AcDbEntity
  8
LAYER0
 62
         6
100
AcDbLine
 10
12.9876443418
 20
-77.645788229
 30
0.0
 11
14.7876443418
 21
-77.645788229
 31
0.0
  0
LINE
  5
C4
100
AcDbEntity
  8
LAYER0
 62
         6
100
AcDbLine
 10
12.0876443418
 20
-76.032383872
 30
0.0
 11
13.8203493623
 21
-75.6640860505
 31
0.0
  0
LINE
  5
C5
100
AcDbEntity
  8
LAYER0
 62
         6
100
AcDbLine
 10
12.0876443418
 20
-76.645788229
 30
0.0
 11
15.6876443418
 21
-75.8805846069
 31
0.0
  0
LINE
  5
C6
100
AcDbEntity
  8
LAYER0
 62
         6
100
AcDbLine
 10
13.7973274213
 20
-75.045788229
 30
0.0
 11
15.6876443418
 21
-75.447587494
 31
0.0
  0
LINE
  5
C7
100
AcDbEntity
  8
LAYER0
 62
         6
100
AcDbLine
 10
12.0876443418
 20
-75.295788229
 30
0.0
 11
13.8203493623
 21
-75.6640860505
 31
0.0
  0
LINE
  5
C8
100
AcDbEntity
  8
LAYER0
 62
         6
100
AcDbLine
 10
12.0876443418
 20
-74.0591925859
 30
0.0
 11
13.8203493623
 21
-74.4274904074
 31
0.0
  0
LINE
  5
C9
100
AcDbEntity
  8
LAYER0
 62
         6
100
AcDbLine
 10
12.0876443418
 20
-73.445788229
 30
0.0
 11
15.6876443418
 21
-74.210991851
 31
0.0
  0
LINE
  5
CA
100
AcDbEntity
  8
LAYER0
 62
         6
100
AcDbLine
 10
13.7973274213
 20
-75.045788229
 30
0.0
 11
15.6876443418
 21
-74.6439889639
 31
0.0
  0
LINE
  5
CB
100
AcDbEntity
  8
LAYER0
 62
         6
100
AcDbLine
 10
12.0876443418
 20
-74.795788229
 30
0.0
 11
13.8203493623
 21
-74.4274904074
 31
0.0
  0
LINE
  5
CC
100
AcDbEntity
  8
LAYER0
 62
         6
100
AcDbLine
 10
15.1876443418
 20
-76.945788229
 30
0.0
 11
12.5876443418
 21
-76.945788229
 31
0.0
  0
LINE
  5
CD
100
AcDbEntity
  8
LAYER0
 62
         6
100
AcDbLine
 10
12.5876443418
 20
-79.145788229
 30
0.0
 11
15.1876443418
 21
-79.145788229
 31
0.0
  0
MTEXT
  5
CE
100
AcDbEntity
  8
LAYER0
100
AcDbMText
 10
72.5158633528
 20
-126.7970201517
 30
0.0
 40
2.1473683357
 41
10.2585839844
 71
         1
 72
         1
  1
\W0.8;管理図番
  0
MTEXT
  5
CF
100
AcDbEntity
  8
LAYER0
100
AcDbMText
 10
32.0542682872
 20
-126.7970201517
 30
0.0
 40
2.1473683357
 41
7.6538653946
 71
         1
 72
         1
  1
\W0.8;品　名
  0
LINE
  5
D0
100
AcDbEntity
  8
LAYER0
 62
         3
100
AcDbLine
 10
10.0
 20
-138.5
 30
0.0
 11
10.0
 21
-125.5
 31
0.0
  0
LINE
  5
D1
100
AcDbEntity
  8
LAYER0
 62
         3
100
AcDbLine
 10
95.0
 20
-138.5
 30
0.0
 11
95.0
 21
-125.5
 31
0.0
  0
ARC
  5
D2
100
AcDbEntity
  8
LAYER0
 62
         3
100
AcDbCircle
 10
30.1876443418
 20
-6.8374133949
 30
0.0
 40
0.5
210
-0.0
220
0.0
230
1.0
100
AcDbArc
 50
269.9999984648
 51
0.0
  0
LINE
  5
D3
100
AcDbEntity
  8
LAYER0
 62
         3
100
AcDbLine
 10
30.6876443418
 20
-6.8374133949
 30
0.0
 11
30.6876443418
 21
-4.1374133949
 31
0.0
  0
MTEXT
  5
D4
100
AcDbEntity
  8
LAYER0
100
AcDbMText
 10
4.8440308655
 20
-1.0712487469
 30
0.0
 40
1.7178947091
 41
4.1034336906
 71
         1
 72
         1
  1
\W0.8;溶接
  0
MTEXT
  5
D5
100
AcDbEntity
  8
LAYER3
100
AcDbMText
 10
4.2876443418
 20
-18.2021112135
 30
0.0
 40
2.1473683357
 41
2.5646459961
 71
         1
 72
         1
  1
\W0.8;48
  0
LINE
  5
D6
100
AcDbEntity
  8
LAYER3
 62
         4
100
AcDbLine
 10
30.6876443418
 20
-21.9897699049
 30
0.0
 11
27.7532015396
 21
-22.6135049773
 31
0.0
  0
LINE
  5
D7
100
AcDbEntity
  8
LAYER3
 62
         4
100
AcDbLine
 10
30.6876443418
 20
-21.9897699049
 30
0.0
 11
27.7532015396
 21
-21.3660348324
 31
0.0
  0
LINE
  5
D8
100
AcDbEntity
  8
LAYER3
 62
         4
100
AcDbLine
 10
30.6876443418
 20
-7.8374133949
 30
0.0
 11
30.6876443418
 21
-22.9897699049
 31
0.0
  0
LINE
  5
D9
100
AcDbEntity
  8
LAYER0
  6
CENTER
100
AcDbLine
 10
6.6876443418
 20
-87.1041699906
 30
0.0
 11
6.6876443418
 21
-48.5897258467
 31
0.0
  0
POINT
  5
DA
100
AcDbEntity
  8
LAYER0
 62
         2
100
AcDbPoint
 10
6.6876443418
 20
-68.245788229
 30
0.0
  0
CIRCLE
  5
DB
100
AcDbEntity
  8
LAYER0
 62
         3
100
AcDbCircle
 10
15.6876443418
 20
-58.745788229
 30
0.0
 40
1.7
210
0.0
220
0.0
230
1.0
  0
CIRCLE
  5
DC
100
AcDbEntity
  8
LAYER0
 62
         4
100
AcDbCircle
 10
15.6876443418
 20
-58.745788229
 30
0.0
 40
2.0
210
0.0
220
0.0
230
1.0
  0
LINE
  5
DD
100
AcDbEntity
  8
LAYER0
  6
CENTER
100
AcDbLine
 10
15.6876443418
 20
-63.745788229
 30
0.0
 11
15.6876443418
 21
-53.745788229
 31
0.0
  0
LINE
  5
DE
100
AcDbEntity
  8
LAYER0
  6
CENTER
100
AcDbLine
 10
19.6876443418
 20
-58.745788229
 30
0.0
 11
10.2218235085
 21
-58.745788229
 31
0.0
  0
CIRCLE
  5
DF
100
AcDbEntity
  8
LAYER0
 62
         4
100
AcDbCircle
 10
23.6876443418
 20
-78.245788229
 30
0.0
 40
2.0
210
0.0
220
0.0
230
1.0
  0
LINE
  5
E0
100
AcDbEntity
  8
LAYER0
  6
CENTER
100
AcDbLine
 10
26.3274676194
 20
-78.245788229
 30
0.0
 11
19.6876443418
 21
-78.245788229
 31
0.0
  0
LINE
  5
E1
100
AcDbEntity
  8
LAYER0
  6
CENTER
100
AcDbLine
 10
23.6876443418
 20
-81.3993838721
 30
0.0
 11
23.6876443418
 21
-74.8137245044
 31
0.0
  0
ARC
  5
E2
100
AcDbEntity
  8
LAYER0
 62
         3
100
AcDbCircle
 10
23.6876443418
 20
-62.745788229
 30
0.0
 40
0.3
210
-0.0
220
0.0
230
1.0
100
AcDbArc
 50
0.0
 51
180.0000030705
  0
ARC
  5
E3
100
AcDbEntity
  8
LAYER0
 62
         3
100
AcDbCircle
 10
12.5927934262
 20
-62.0125753065
 30
0.0
 40
0.3
210
0.0
220
0.0
230
1.0
100
AcDbArc
 50
316.5481569578
 51
136.5481600282
  0
ARC
  5
E4
100
AcDbEntity
  8
LAYER0
 62
         3
100
AcDbCircle
 10
26.6876443418
 20
-81.245788229
 30
0.0
 40
4.0
210
-0.0
220
0.0
230
1.0
100
AcDbArc
 50
269.9999984648
 51
0.0
  0
LINE
  5
E5
100
AcDbEntity
  8
LAYER0
 62
         3
100
AcDbLine
 10
30.6876443418
 20
-55.245788229
 30
0.0
 11
30.6876443418
 21
-81.245788229
 31
0.0
  0
ARC
  5
E6
100
AcDbEntity
  8
LAYER0
 62
         3
100
AcDbCircle
 10
26.6876443418
 20
-55.245788229
 30
0.0
 40
4.0
210
0.0
220
-0.0
230
1.0
100
AcDbArc
 50
0.0
 51
90.0000015352
  0
LINE
  5
E7
100
AcDbEntity
  8
LAYER3
 62
         4
100
AcDbLine
 10
-31.0254402997
 20
70.8900339891
 30
0.0
 11
-31.6491753722
 21
73.8244767913
 31
0.0
  0
LINE
  5
E8
100
AcDbEntity
  8
LAYER3
 62
         4
100
AcDbLine
 10
-31.0254402997
 20
70.8900339891
 30
0.0
 11
-30.4017052273
 21
73.8244767913
 31
0.0
  0
LINE
  5
E9
100
AcDbEntity
  8
LAYER3
 62
         4
100
AcDbLine
 10
-31.0254402997
 20
70.8900339891
 30
0.0
 11
-31.0254402997
 21
98.8900339891
 31
0.0
  0
LINE
  5
EA
100
AcDbEntity
  8
LAYER3
 62
         4
100
AcDbLine
 10
-15.3123556582
 20
98.8900339891
 30
0.0
 11
-32.0254402997
 21
98.8900339891
 31
0.0
  0
LINE
  5
EB
100
AcDbEntity
  8
LAYER3
 62
         4
100
AcDbLine
 10
-15.3123556582
 20
70.8900339891
 30
0.0
 11
-32.0254402997
 21
70.8900339891
 31
0.0
  0
MTEXT
  5
EC
100
AcDbEntity
  8
LAYER3
100
AcDbMText
 10
-42.0267651957
 20
82.7358981248
 30
0.0
 40
2.1473683357
 41
2.5646459961
 71
         1
 72
         1
  1
\W0.8;34
 11
-0.0000000268
 21
1.0
 31
0.0
  0
LINE
  5
ED
100
AcDbEntity
  8
LAYER3
 62
         4
100
AcDbLine
 10
-38.2391065043
 20
67.8900339891
 30
0.0
 11
-38.8628415768
 21
70.8244767913
 31
0.0
  0
LINE
  5
EE
100
AcDbEntity
  8
LAYER3
 62
         4
100
AcDbLine
 10
-38.2391065043
 20
67.8900339891
 30
0.0
 11
-37.6153714319
 21
70.8244767913
 31
0.0
  0
LINE
  5
EF
100
AcDbEntity
  8
LAYER3
 62
         4
100
AcDbLine
 10
-38.2391065043
 20
101.8900339891
 30
0.0
 11
-37.6153714319
 21
98.9555911869
 31
0.0
  0
LINE
  5
F0
100
AcDbEntity
  8
LAYER3
 62
         4
100
AcDbLine
 10
-38.2391065043
 20
101.8900339891
 30
0.0
 11
-38.8628415768
 21
98.9555911869
 31
0.0
  0
LINE
  5
F1
100
AcDbEntity
  8
LAYER3
 62
         4
100
AcDbLine
 10
-38.2391065043
 20
101.8900339891
 30
0.0
 11
-38.2391065043
 21
67.8900339891
 31
0.0
  0
LINE
  5
F2
100
AcDbEntity
  8
LAYER3
 62
         4
100
AcDbLine
 10
-14.3123556582
 20
67.8900339891
 30
0.0
 11
-39.2391065043
 21
67.8900339891
 31
0.0
  0
LINE
  5
F3
100
AcDbEntity
  8
LAYER3
 62
         4
100
AcDbLine
 10
-14.3123556582
 20
101.8900339891
 30
0.0
 11
-39.2391065043
 21
101.8900339891
 31
0.0
  0
INSERT
  5
F5
100
AcDbEntity
  8
0
100
AcDbBlockReference
  2
CLUMP4
 10
0.0
 20
0.0
 30
0.0
  0
MTEXT
  5
105
100
AcDbEntity
  8
LAYER3
100
AcDbMText
 10
-33.9387152088
 20
0.9106582155
 30
0.0
 40
2.1473683357
 41
5.1292919922
 71
         1
 72
         1
  1
\W0.8;26.2
 11
-0.0000000268
 21
1.0
 31
0.0
  0
LINE
  5
106
100
AcDbEntity
  8
LAYER3
 62
         4
100
AcDbLine
 10
-30.1510565173
 20
18.8625866051
 30
0.0
 11
-29.5273214449
 21
15.9281438029
 31
0.0
  0
LINE
  5
107
100
AcDbEntity
  8
LAYER3
 62
         4
100
AcDbLine
 10
-30.1510565173
 20
18.8625866051
 30
0.0
 11
-30.7747915898
 21
15.9281438029
 31
0.0
  0
MTEXT
  5
108
100
AcDbEntity
  8
LAYER3
100
AcDbMText
 10
-41.5895733046
 20
16.7915328623
 30
0.0
 40
2.1473683357
 41
5.1292919922
 71
         1
 72
         1
  1
\W0.8;58.2
 11
-0.0000000268
 21
1.0
 31
0.0
  0
LINE
  5
109
100
AcDbEntity
  8
LAYER3
 62
         4
100
AcDbLine
 10
-37.8019146131
 20
50.8625866051
 30
0.0
 11
-37.1781795407
 21
47.9281438029
 31
0.0
  0
LINE
  5
10A
100
AcDbEntity
  8
LAYER3
 62
         4
100
AcDbLine
 10
-37.8019146131
 20
50.8625866051
 30
0.0
 11
-38.4256496856
 21
47.9281438029
 31
0.0
  0
LINE
  5
10B
100
AcDbEntity
  8
LAYER3
 62
         4
100
AcDbLine
 10
-17.8123556582
 20
50.8625866051
 30
0.0
 11
-38.8019146131
 21
50.8625866051
 31
0.0
  0
INSERT
  5
10D
100
AcDbEntity
  8
0
100
AcDbBlockReference
  2
CLUMP6
 10
0.0
 20
0.0
 30
0.0
  0
MTEXT
  5
11D
100
AcDbEntity
  8
LAYER0
100
AcDbMText
 10
15.6655595939
 20
-132.943297737
 30
0.0
 40
2.4737683892
 41
38.4081394695
 71
         1
 72
         1
  1
\W0.8;φ34鋼管用ブラケットベース
  0
MTEXT
  5
11E
100
AcDbEntity
  8
LAYER0
100
AcDbMText
 10
68.6999898377
 20
-133.1227062422
 30
0.0
 40
2.4737683892
 41
8.8634168007
 71
         1
 72
         1
  1
\W0.8;D56496
  0
LINE
  5
11F
100
AcDbEntity
  8
LAYER0
 62
         3
100
AcDbLine
 10
60.0
 20
-125.5
 30
0.0
 11
60.0
 21
-138.5
 31
0.0
  0
ARC
  5
120
100
AcDbEntity
  8
LAYER0
 62
         6
100
AcDbCircle
 10
-5.8250330568
 20
43.4620465859
 30
0.0
 40
10.0
210
0.0
220
0.0
230
1.0
100
AcDbArc
 50
269.9999984648
 51
284.9999987206
  0
LINE
  5
121
100
AcDbEntity
  8
LAYER0
 62
         4
100
AcDbLine
 10
-16.4623556582
 20
33.4620465859
 30
0.0
 11
-16.4623556582
 21
25.8625866051
 31
0.0
  0
LINE
  5
122
100
AcDbEntity
  8
LAYER0
 62
         4
100
AcDbLine
 10
-16.4623556582
 20
50.8625866051
 30
0.0
 11
-16.4623556582
 21
41.6620465859
 31
0.0
  0
LINE
  5
123
100
AcDbEntity
  8
LAYER0
 62
         3
100
AcDbLine
 10
-16.8123556582
 20
41.6620465859
 30
0.0
 11
-16.8123556582
 21
50.8625866051
 31
0.0
  0
LINE
  5
124
100
AcDbEntity
  8
LAYER0
 62
         3
100
AcDbLine
 10
-16.8123556582
 20
19.3625866051
 30
0.0
 11
-16.8123556582
 21
33.4620465859
 31
0.0
  0
LINE
  5
125
100
AcDbEntity
  8
LAYER0
  6
CENTER
 62
         4
100
AcDbLine
 10
-4.5085080809
 20
98.8900339891
 30
0.0
 11
-4.5085080809
 21
70.8900339891
 31
0.0
  0
ARC
  5
126
100
AcDbEntity
  8
LAYER0
 62
         6
100
AcDbCircle
 10
-17.8123556582
 20
74.8900339891
 30
0.0
 40
4.0
210
0.0
220
0.0
230
1.0
100
AcDbArc
 50
179.9999969295
 51
269.9999984648
  0
ARC
  5
127
100
AcDbEntity
  8
LAYER0
 62
         6
100
AcDbCircle
 10
-17.8123556582
 20
94.8900339891
 30
0.0
 40
4.0
210
0.0
220
0.0
230
1.0
100
AcDbArc
 50
90.0000015352
 51
179.9999969295
  0
LINE
  5
128
100
AcDbEntity
  8
LAYER0
 62
         6
100
AcDbLine
 10
-21.8123556582
 20
74.8900339891
 30
0.0
 11
-21.8123556582
 21
94.8900339891
 31
0.0
  0
ARC
  5
129
100
AcDbEntity
  8
LAYER0
 62
         3
100
AcDbCircle
 10
-13.3123556582
 20
97.8900339891
 30
0.0
 40
4.0
210
0.0
220
0.0
230
1.0
100
AcDbArc
 50
90.0000015352
 51
165.5224906376
  0
ARC
  5
12A
100
AcDbEntity
  8
LAYER0
 62
         3
100
AcDbCircle
 10
-13.3123556582
 20
71.8900339891
 30
0.0
 40
4.0
210
0.0
220
0.0
230
1.0
100
AcDbArc
 50
194.4775093624
 51
269.9999984648
  0
LINE
  5
12B
100
AcDbEntity
  8
LAYER3
 62
         4
100
AcDbLine
 10
-21.8123556582
 20
115.2884839282
 30
0.0
 11
-18.877912856
 21
115.9122190007
 31
0.0
  0
LINE
  5
12C
100
AcDbEntity
  8
LAYER3
 62
         4
100
AcDbLine
 10
-21.8123556582
 20
115.2884839282
 30
0.0
 11
-18.877912856
 21
114.6647488558
 31
0.0
  0
LINE
  5
12D
100
AcDbEntity
  8
LAYER3
 62
         4
100
AcDbLine
 10
-21.8123556582
 20
95.8900339891
 30
0.0
 11
-21.8123556582
 21
116.2884839282
 31
0.0
  0
LINE
  5
12E
100
AcDbEntity
  8
LAYER0
 62
         3
100
AcDbLine
 10
-10.8123556582
 20
25.8625866051
 30
0.0
 11
-16.8123556582
 21
25.8625866051
 31
0.0
  0
LINE
  5
12F
100
AcDbEntity
  8
LAYER0
 62
         3
100
AcDbLine
 10
-10.8123556582
 20
41.6620465859
 30
0.0
 11
-10.8123556582
 21
50.8625866051
 31
0.0
  0
LINE
  5
130
100
AcDbEntity
  8
LAYER0
 62
         3
100
AcDbLine
 10
-10.8123556582
 20
19.3625866051
 30
0.0
 11
-10.8123556582
 21
33.4620465859
 31
0.0
  0
LINE
  5
131
100
AcDbEntity
  8
LAYER0
 62
         4
100
AcDbLine
 10
-11.1623556582
 20
33.4620465859
 30
0.0
 11
-11.1623556582
 21
25.8625866051
 31
0.0
  0
LINE
  5
132
100
AcDbEntity
  8
LAYER0
 62
         4
100
AcDbLine
 10
-11.1623556582
 20
50.8625866051
 30
0.0
 11
-11.1623556582
 21
41.6620465859
 31
0.0
  0
LINE
  5
133
100
AcDbEntity
  8
LAYER3
 62
         4
100
AcDbLine
 10
-13.8123556582
 20
108.949201506
 30
0.0
 11
-10.877912856
 21
109.5729365784
 31
0.0
  0
LINE
  5
134
100
AcDbEntity
  8
LAYER3
 62
         4
100
AcDbLine
 10
-13.8123556582
 20
108.949201506
 30
0.0
 11
-10.877912856
 21
108.3254664335
 31
0.0
  0
LINE
  5
135
100
AcDbEntity
  8
LAYER3
 62
         4
100
AcDbLine
 10
-13.8123556582
 20
93.4790407806
 30
0.0
 11
-13.8123556582
 21
109.949201506
 31
0.0
  0
MTEXT
  5
136
100
AcDbEntity
  8
LAYER3
100
AcDbMText
 10
-34.8130989911
 20
82.4900339144
 30
0.0
 40
2.1473683357
 41
2.5646459961
 71
         1
 72
         1
  1
\W0.8;28
 11
-0.0000000268
 21
1.0
 31
0.0
  0
LINE
  5
137
100
AcDbEntity
  8
LAYER3
 62
         4
100
AcDbLine
 10
-31.0254402997
 20
98.8900339891
 30
0.0
 11
-30.4017052273
 21
95.9555911869
 31
0.0
  0
LINE
  5
138
100
AcDbEntity
  8
LAYER3
 62
         4
100
AcDbLine
 10
-31.0254402997
 20
98.8900339891
 30
0.0
 11
-31.6491753722
 21
95.9555911869
 31
0.0
  0
LINE
  5
139
100
AcDbEntity
  8
LAYER3
 62
         4
100
AcDbLine
 10
-37.734647008
 20
-51.245788229
 30
0.0
 11
-37.1109119355
 21
-54.1802310312
 31
0.0
  0
LINE
  5
13A
100
AcDbEntity
  8
LAYER3
 62
         4
100
AcDbLine
 10
-37.734647008
 20
-51.245788229
 30
0.0
 11
-38.3583820804
 21
-54.1802310312
 31
0.0
  0
LINE
  5
13B
100
AcDbEntity
  8
LAYER3
 62
         4
100
AcDbLine
 10
-37.734647008
 20
-51.245788229
 30
0.0
 11
-37.734647008
 21
-85.245788229
 31
0.0
  0
LINE
  5
13C
100
AcDbEntity
  8
LAYER3
 62
         4
100
AcDbLine
 10
-14.3123556582
 20
-85.245788229
 30
0.0
 11
-38.734647008
 21
-85.245788229
 31
0.0
  0
LINE
  5
13D
100
AcDbEntity
  8
LAYER3
 62
         4
100
AcDbLine
 10
-14.3123556582
 20
-51.245788229
 30
0.0
 11
-38.734647008
 21
-51.245788229
 31
0.0
  0
LINE
  5
13E
100
AcDbEntity
  8
LAYER3
 62
         4
100
AcDbLine
 10
-6.3123556582
 20
-47.0123424688
 30
0.0
 11
-3.377912856
 21
-46.3886073963
 31
0.0
  0
LINE
  5
13F
100
AcDbEntity
  8
LAYER3
 62
         4
100
AcDbLine
 10
-6.3123556582
 20
-47.0123424688
 30
0.0
 11
-3.377912856
 21
-47.6360775412
 31
0.0
  0
LINE
  5
140
100
AcDbEntity
  8
LAYER3
 62
         4
100
AcDbLine
 10
-6.3123556582
 20
-62.8377651665
 30
0.0
 11
-6.3123556582
 21
-46.0123424688
 31
0.0
  0
MTEXT
  5
141
100
AcDbEntity
  8
LAYER3
100
AcDbMText
 10
-29.6625559539
 20
-70.6457883036
 30
0.0
 40
2.1473683357
 41
2.5646459961
 71
         1
 72
         1
  1
\W0.8;19
 11
-0.0000000268
 21
1.0
 31
0.0
  0
LINE
  5
142
100
AcDbEntity
  8
LAYER3
 62
         4
100
AcDbLine
 10
-25.8748972625
 20
-77.745788229
 30
0.0
 11
-26.498632335
 21
-74.8113454268
 31
0.0
  0
LINE
  5
143
100
AcDbEntity
  8
LAYER3
 62
         4
100
AcDbLine
 10
-25.8748972625
 20
-77.745788229
 30
0.0
 11
-25.2511621901
 21
-74.8113454268
 31
0.0
  0
LINE
  5
144
100
AcDbEntity
  8
LAYER3
 62
         4
100
AcDbLine
 10
-25.8748972625
 20
-58.745788229
 30
0.0
 11
-25.2511621901
 21
-61.6802310312
 31
0.0
  0
LINE
  5
145
100
AcDbEntity
  8
LAYER3
 62
         4
100
AcDbLine
 10
-25.8748972625
 20
-58.745788229
 30
0.0
 11
-26.498632335
 21
-61.6802310312
 31
0.0
  0
LINE
  5
146
100
AcDbEntity
  8
LAYER3
 62
         4
100
AcDbLine
 10
-25.8748972625
 20
-58.745788229
 30
0.0
 11
-25.8748972625
 21
-77.745788229
 31
0.0
  0
LINE
  5
147
100
AcDbEntity
  8
LAYER3
 62
         4
100
AcDbLine
 10
-7.3123556582
 20
-77.745788229
 30
0.0
 11
-26.8748972625
 21
-77.745788229
 31
0.0
  0
LINE
  5
148
100
AcDbEntity
  8
LAYER3
 62
         4
100
AcDbLine
 10
-17.3123556582
 20
-95.1426570995
 30
0.0
 11
-14.377912856
 21
-94.518922027
 31
0.0
  0
LINE
  5
149
100
AcDbEntity
  8
LAYER3
 62
         4
100
AcDbLine
 10
-17.3123556582
 20
-95.1426570995
 30
0.0
 11
-14.377912856
 21
-95.7663921719
 31
0.0
  0
LINE
  5
14A
100
AcDbEntity
  8
LAYER3
 62
         4
100
AcDbLine
 10
-17.3123556582
 20
-82.245788229
 30
0.0
 11
-17.3123556582
 21
-96.1426570995
 31
0.0
  0
LINE
  5
14B
100
AcDbEntity
  8
LAYER0
 62
         3
100
AcDbLine
 10
-10.8123556582
 20
50.8625866051
 30
0.0
 11
-16.8123556582
 21
50.8625866051
 31
0.0
  0
LINE
  5
14C
100
AcDbEntity
  8
LAYER0
  6
CENTER
100
AcDbLine
 10
-13.8123556582
 20
92.4790407806
 30
0.0
 11
-13.8123556582
 21
77.3073346244
 31
0.0
  0
ARC
  5
14D
100
AcDbEntity
  8
LAYER0
 62
         6
100
AcDbCircle
 10
-21.3123556582
 20
36.1620465859
 30
0.0
 40
0.5
210
0.0
220
0.0
230
1.0
100
AcDbArc
 50
90.0000015352
 51
180.0000030705
  0
LINE
  5
14E
100
AcDbEntity
  8
LAYER0
 62
         6
100
AcDbLine
 10
-5.8250330568
 20
36.6620465859
 30
0.0
 11
-21.3123556582
 21
36.6620465859
 31
0.0
  0
LINE
  5
14F
100
AcDbEntity
  8
LAYER0
 62
         6
100
AcDbLine
 10
-5.8250330568
 20
33.4620465859
 30
0.0
 11
-21.8123556582
 21
33.4620465859
 31
0.0
  0
LINE
  5
150
100
AcDbEntity
  8
LAYER0
 62
         6
100
AcDbLine
 10
-21.8123556582
 20
33.4620465859
 30
0.0
 11
-21.8123556582
 21
36.1620465859
 31
0.0
  0
ARC
  5
151
100
AcDbEntity
  8
LAYER0
 62
         6
100
AcDbCircle
 10
-5.8250330568
 20
43.4620465859
 30
0.0
 40
6.8
210
0.0
220
0.0
230
1.0
100
AcDbArc
 50
269.9999984648
 51
284.9999987206
  0
CIRCLE
  5
152
100
AcDbEntity
  8
LAYER0
 62
         4
100
AcDbCircle
 10
-10.3123556582
 20
-79.245788229
 30
0.0
 40
2.0
210
0.0
220
0.0
230
1.0
  0
LINE
  5
153
100
AcDbEntity
  8
LAYER0
  6
CENTER
100
AcDbLine
 10
-12.9521789358
 20
-79.245788229
 30
0.0
 11
-7.7719573534
 21
-79.245788229
 31
0.0
  0
CIRCLE
  5
154
100
AcDbEntity
  8
LAYER0
 62
         3
100
AcDbCircle
 10
-6.3123556582
 20
-68.245788229
 30
0.0
 40
1.7
210
0.0
220
0.0
230
1.0
  0
CIRCLE
  5
155
100
AcDbEntity
  8
LAYER0
 62
         4
100
AcDbCircle
 10
-6.3123556582
 20
-68.245788229
 30
0.0
 40
2.0
210
0.0
220
0.0
230
1.0
  0
MTEXT
  5
156
100
AcDbEntity
  8
LAYER0
100
AcDbMText
 10
-14.946230143
 20
-70.6363451204
 30
0.0
 40
2.1473683357
 41
2.5646459961
 71
         1
 72
         1
  1
\W0.8;40
 11
-0.0000000268
 21
1.0
 31
0.0
  0
MTEXT
  5
157
100
AcDbEntity
  8
LAYER3
100
AcDbMText
 10
-7.5123556582
 20
-37.3984792959
 30
0.0
 40
2.1473683357
 41
1.282322998
 71
         1
 72
         1
  1
\W0.8;8
  0
LINE
  5
158
100
AcDbEntity
  8
LAYER3
 62
         4
100
AcDbLine
 10
-10.3123556582
 20
-41.1861379873
 30
0.0
 11
-7.377912856
 21
-40.5624029149
 31
0.0
  0
LINE
  5
159
100
AcDbEntity
  8
LAYER3
 62
         4
100
AcDbLine
 10
-10.3123556582
 20
-41.1861379873
 30
0.0
 11
-7.377912856
 21
-41.8098730598
 31
0.0
  0
LINE
  5
15A
100
AcDbEntity
  8
LAYER3
 62
         4
100
AcDbLine
 10
-2.3123556582
 20
-41.1861379873
 30
0.0
 11
-5.2467984604
 21
-41.8098730598
 31
0.0
  0
LINE
  5
15B
100
AcDbEntity
  8
LAYER3
 62
         4
100
AcDbLine
 10
-2.3123556582
 20
-41.1861379873
 30
0.0
 11
-5.2467984604
 21
-40.5624029149
 31
0.0
  0
LINE
  5
15C
100
AcDbEntity
  8
LAYER3
 62
         4
100
AcDbLine
 10
-2.3123556582
 20
-41.1861379873
 30
0.0
 11
-10.3123556582
 21
-41.1861379873
 31
0.0
  0
LINE
  5
15D
100
AcDbEntity
  8
LAYER3
 62
         4
100
AcDbLine
 10
-2.3123556582
 20
-52.745788229
 30
0.0
 11
-2.3123556582
 21
-40.1861379873
 31
0.0
  0
LINE
  5
15E
100
AcDbEntity
  8
LAYER3
 62
         4
100
AcDbLine
 10
-10.3123556582
 20
-53.0921925858
 30
0.0
 11
-10.3123556582
 21
-40.1861379873
 31
0.0
  0
LINE
  5
15F
100
AcDbEntity
  8
LAYER3
 62
         4
100
AcDbLine
 10
-2.3123556582
 20
-72.8594043958
 30
0.0
 11
-2.3123556582
 21
-40.1861379873
 31
0.0
  0
MTEXT
  5
160
100
AcDbEntity
  8
LAYER3
100
AcDbMText
 10
-35.4321639382
 20
-70.6457883036
 30
0.0
 40
2.1473683357
 41
2.5646459961
 71
         1
 72
         1
  1
\W0.8;22
 11
-0.0000000268
 21
1.0
 31
0.0
  0
LINE
  5
161
100
AcDbEntity
  8
LAYER3
 62
         4
100
AcDbLine
 10
-31.6445052468
 20
-79.245788229
 30
0.0
 11
-32.2682403193
 21
-76.3113454268
 31
0.0
  0
LINE
  5
162
100
AcDbEntity
  8
LAYER3
 62
         4
100
AcDbLine
 10
-31.6445052468
 20
-79.245788229
 30
0.0
 11
-31.0207701744
 21
-76.3113454268
 31
0.0
  0
LINE
  5
163
100
AcDbEntity
  8
LAYER3
 62
         4
100
AcDbLine
 10
-31.6445052468
 20
-57.245788229
 30
0.0
 11
-31.0207701744
 21
-60.1802310312
 31
0.0
  0
LINE
  5
164
100
AcDbEntity
  8
LAYER3
 62
         4
100
AcDbLine
 10
-31.6445052468
 20
-57.245788229
 30
0.0
 11
-32.2682403193
 21
-60.1802310312
 31
0.0
  0
LINE
  5
165
100
AcDbEntity
  8
LAYER3
 62
         4
100
AcDbLine
 10
-31.6445052468
 20
-57.245788229
 30
0.0
 11
-31.6445052468
 21
-79.245788229
 31
0.0
  0
LINE
  5
166
100
AcDbEntity
  8
LAYER3
 62
         4
100
AcDbLine
 10
-13.9521789358
 20
-79.245788229
 30
0.0
 11
-32.6445052468
 21
-79.245788229
 31
0.0
  0
LINE
  5
167
100
AcDbEntity
  8
LAYER3
 62
         4
100
AcDbLine
 10
-13.9521789358
 20
-57.245788229
 30
0.0
 11
-32.6445052468
 21
-57.245788229
 31
0.0
  0
MTEXT
  5
168
100
AcDbEntity
  8
LAYER3
100
AcDbMText
 10
-41.5223056994
 20
-70.6457883036
 30
0.0
 40
2.1473683357
 41
2.5646459961
 71
         1
 72
         1
  1
\W0.8;34
 11
-0.0000000268
 21
1.0
 31
0.0
  0
LINE
  5
169
100
AcDbEntity
  8
LAYER3
 62
         4
100
AcDbLine
 10
-37.734647008
 20
-85.245788229
 30
0.0
 11
-38.3583820804
 21
-82.3113454268
 31
0.0
  0
LINE
  5
16A
100
AcDbEntity
  8
LAYER3
 62
         4
100
AcDbLine
 10
-37.734647008
 20
-85.245788229
 30
0.0
 11
-37.1109119355
 21
-82.3113454268
 31
0.0
  0
LINE
  5
16B
100
AcDbEntity
  8
LAYER3
 62
         4
100
AcDbLine
 10
-30.1510565173
 20
-7.3374133949
 30
0.0
 11
-30.7747915898
 21
-4.4029705927
 31
0.0
  0
LINE
  5
16C
100
AcDbEntity
  8
LAYER3
 62
         4
100
AcDbLine
 10
-30.1510565173
 20
-7.3374133949
 30
0.0
 11
-29.5273214449
 21
-4.4029705927
 31
0.0
  0
LINE
  5
16D
100
AcDbEntity
  8
LAYER3
 62
         4
100
AcDbLine
 10
-17.8123556582
 20
-7.3374133949
 30
0.0
 11
-31.1510565173
 21
-7.3374133949
 31
0.0
  0
LINE
  5
16E
100
AcDbEntity
  8
LAYER3
 62
         4
100
AcDbLine
 10
-37.8019146131
 20
-7.3374133949
 30
0.0
 11
-38.4256496856
 21
-4.4029705927
 31
0.0
  0
LINE
  5
16F
100
AcDbEntity
  8
LAYER3
 62
         4
100
AcDbLine
 10
-37.8019146131
 20
-7.3374133949
 30
0.0
 11
-37.1781795407
 21
-4.4029705927
 31
0.0
  0
LINE
  5
170
100
AcDbEntity
  8
LAYER3
 62
         4
100
AcDbLine
 10
-17.8123556582
 20
-7.3374133949
 30
0.0
 11
-38.8019146131
 21
-7.3374133949
 31
0.0
  0
LINE
  5
171
100
AcDbEntity
  8
LAYER3
 62
         4
100
AcDbLine
 10
-17.3123556582
 20
-21.9897699049
 30
0.0
 11
-14.377912856
 21
-21.3660348324
 31
0.0
  0
LINE
  5
172
100
AcDbEntity
  8
LAYER3
 62
         4
100
AcDbLine
 10
-17.3123556582
 20
-21.9897699049
 30
0.0
 11
-14.377912856
 21
-22.6135049773
 31
0.0
  0
LINE
  5
173
100
AcDbEntity
  8
LAYER3
 62
         4
100
AcDbLine
 10
-17.3123556582
 20
-7.8374133949
 30
0.0
 11
-17.3123556582
 21
-22.9897699049
 31
0.0
  0
LINE
  5
174
100
AcDbEntity
  8
LAYER0
  6
CENTER
100
AcDbLine
 10
-6.3123556582
 20
-73.245788229
 30
0.0
 11
-6.3123556582
 21
-63.8377651665
 31
0.0
  0
CIRCLE
  5
175
100
AcDbEntity
  8
LAYER0
 62
         3
100
AcDbCircle
 10
-10.3123556582
 20
-57.245788229
 30
0.0
 40
1.7
210
0.0
220
0.0
230
1.0
  0
CIRCLE
  5
176
100
AcDbEntity
  8
LAYER0
 62
         4
100
AcDbCircle
 10
-10.3123556582
 20
-57.245788229
 30
0.0
 40
2.0
210
0.0
220
0.0
230
1.0
  0
ARC
  5
177
100
AcDbEntity
  8
LAYER0
 62
         3
100
AcDbCircle
 10
-13.3123556582
 20
-81.245788229
 30
0.0
 40
4.0
210
0.0
220
0.0
230
1.0
100
AcDbArc
 50
180.0000030705
 51
269.9999984648
  0
ARC
  5
178
100
AcDbEntity
  8
LAYER0
 62
         3
100
AcDbCircle
 10
-13.3123556582
 20
-55.245788229
 30
0.0
 40
4.0
210
0.0
220
0.0
230
1.0
100
AcDbArc
 50
90.0000015352
 51
180.0000030705
  0
LINE
  5
179
100
AcDbEntity
  8
LAYER0
 62
         3
100
AcDbLine
 10
-17.3123556582
 20
-55.245788229
 30
0.0
 11
-17.3123556582
 21
-81.245788229
 31
0.0
  0
LINE
  5
17A
100
AcDbEntity
  8
LAYER0
  6
CENTER
100
AcDbLine
 10
-12.9521789358
 20
-57.245788229
 30
0.0
 11
-6.3123556582
 21
-57.245788229
 31
0.0
  0
LINE
  5
17B
100
AcDbEntity
  8
LAYER0
  6
CENTER
100
AcDbLine
 10
-10.3123556582
 20
-54.0921925858
 30
0.0
 11
-10.3123556582
 21
-60.8778240771
 31
0.0
  0
LINE
  5
17C
100
AcDbEntity
  8
LAYER0
  6
CENTER
100
AcDbLine
 10
-10.3123556582
 20
-83.3930168664
 30
0.0
 11
-10.3123556582
 21
-75.419866147
 31
0.0
  0
LINE
  5
17D
100
AcDbEntity
  8
LAYER0
  6
CENTER
100
AcDbLine
 10
-2.3123556582
 20
-73.2779213479
 30
0.0
 11
-2.3123556582
 21
-82.745788229
 31
0.0
  0
ARC
  5
17E
100
AcDbEntity
  8
LAYER0
 62
         3
100
AcDbCircle
 10
-10.3123556582
 20
-74.745788229
 30
0.0
 40
0.3
210
-0.0
220
0.0
230
1.0
100
AcDbArc
 50
180.0000030705
 51
0.0
  0
ARC
  5
17F
100
AcDbEntity
  8
LAYER0
 62
         3
100
AcDbCircle
 10
-10.3123556582
 20
-61.745788229
 30
0.0
 40
0.3
210
-0.0
220
0.0
230
1.0
100
AcDbArc
 50
0.0
 51
180.0000030705
  0
LINE
  5
180
100
AcDbEntity
  8
LAYER0
 62
         3
100
AcDbLine
 10
-10.6123556582
 20
-74.745788229
 30
0.0
 11
-10.6123556582
 21
-61.745788229
 31
0.0
  0
LINE
  5
181
100
AcDbEntity
  8
LAYER0
 62
         3
100
AcDbLine
 10
-10.0123556582
 20
-61.745788229
 30
0.0
 11
-10.0123556582
 21
-74.745788229
 31
0.0
  0
LINE
  5
182
100
AcDbEntity
  8
LAYER0
  6
CENTER
100
AcDbLine
 10
-6.3123556582
 20
-73.245788229
 30
0.0
 11
-6.3123556582
 21
-63.245788229
 31
0.0
  0
CIRCLE
  5
183
100
AcDbEntity
  8
LAYER0
 62
         3
100
AcDbCircle
 10
-10.3123556582
 20
-79.245788229
 30
0.0
 40
1.7
210
0.0
220
0.0
230
1.0
  0
CIRCLE
  5
184
100
AcDbEntity
  8
LAYER0
 62
         4
100
AcDbCircle
 10
-2.3123556582
 20
-77.745788229
 30
0.0
 40
2.0
210
0.0
220
0.0
230
1.0
  0
LINE
  5
185
100
AcDbEntity
  8
LAYER0
  6
CENTER
100
AcDbLine
 10
-6.3123556582
 20
-77.745788229
 30
0.0
 11
2.5856052335
 21
-77.745788229
 31
0.0
  0
LINE
  5
186
100
AcDbEntity
  8
LAYER0
  6
CENTER
100
AcDbLine
 10
23.6876443418
 20
-68.245788229
 30
0.0
 11
-10.3123556582
 21
-68.245788229
 31
0.0
  0
ARC
  5
187
100
AcDbEntity
  8
LAYER0
 62
         3
100
AcDbCircle
 10
0.7824952574
 20
-74.4790011514
 30
0.0
 40
0.3
210
0.0
220
0.0
230
1.0
100
AcDbArc
 50
136.5481600282
 51
316.5481569578
  0
LINE
  5
188
100
AcDbEntity
  8
LAYER0
 62
         3
100
AcDbLine
 10
12.375007621
 20
-61.8062519122
 30
0.0
 11
0.5647094522
 21
-74.272677757
 31
0.0
  0
LINE
  5
189
100
AcDbEntity
  8
LAYER0
 62
         3
100
AcDbLine
 10
1.0002810626
 20
-74.6853245458
 30
0.0
 11
12.8105792314
 21
-62.2188987009
 31
0.0
  0
LINE
  5
18A
100
AcDbEntity
  8
LAYER3
 62
         4
100
AcDbLine
 10
-2.3123556582
 20
-41.1861379873
 30
0.0
 11
0.622087144
 21
-40.5624029149
 31
0.0
  0
LINE
  5
18B
100
AcDbEntity
  8
LAYER3
 62
         4
100
AcDbLine
 10
-2.3123556582
 20
-41.1861379873
 30
0.0
 11
0.622087144
 21
-41.8098730598
 31
0.0
  0
LINE
  5
18C
100
AcDbEntity
  8
LAYER3
 62
         4
100
AcDbLine
 10
-2.3123556582
 20
-41.1861379873
 30
0.0
 11
15.6876443418
 21
-41.1861379873
 31
0.0
  0
LINE
  5
18D
100
AcDbEntity
  8
LAYER3
 62
         4
100
AcDbLine
 10
-6.3123556582
 20
-47.0123424688
 30
0.0
 11
19.6876443418
 21
-47.0123424688
 31
0.0
  0
LINE
  5
18E
100
AcDbEntity
  8
LAYER3
 62
         4
100
AcDbLine
 10
9.2218235085
 20
-58.745788229
 30
0.0
 11
-26.8748972625
 21
-58.745788229
 31
0.0
  0
LINE
  5
18F
100
AcDbEntity
  8
LAYER3
 62
         4
100
AcDbLine
 10
-17.3123556582
 20
-95.1426570995
 30
0.0
 11
30.6876443418
 21
-95.1426570995
 31
0.0
  0
LINE
  5
190
100
AcDbEntity
  8
LAYER3
 62
         4
100
AcDbLine
 10
-30.1510565173
 20
18.8625866051
 30
0.0
 11
-30.1510565173
 21
-7.3374133949
 31
0.0
  0
LINE
  5
191
100
AcDbEntity
  8
LAYER3
 62
         4
100
AcDbLine
 10
-37.8019146131
 20
-7.3374133949
 30
0.0
 11
-37.8019146131
 21
50.8625866051
 31
0.0
  0
ARC
  5
192
100
AcDbEntity
  8
LAYER0
  6
HIDDEN
 62
         3
100
AcDbCircle
 10
6.6876443418
 20
-5.2105972668
 30
0.0
 40
5.4731838718
210
0.0
220
-0.0
230
1.0
100
AcDbArc
 50
47.5868945724
 51
132.413108498
  0
ARC
  5
193
100
AcDbEntity
  8
LAYER0
  6
HIDDEN
 62
         3
100
AcDbCircle
 10
7.668046149
 20
-4.1374133949
 30
0.0
 40
4.0195981928
210
-0.0
220
0.0
230
1.0
100
AcDbArc
 50
360.0
 51
47.5868945724
  0
LINE
  5
194
100
AcDbEntity
  8
LAYER0
  6
CENTER
100
AcDbLine
 10
6.6876443418
 20
-10.3894233082
 30
0.0
 11
6.6876443418
 21
54.0109030853
 31
0.0
  0
ARC
  5
195
100
AcDbEntity
  8
LAYER0
 62
         3
100
AcDbCircle
 10
6.6876443418
 20
19.3625866051
 30
0.0
 40
23.5
210
-0.0
220
0.0
230
1.0
100
AcDbArc
 50
282.1936071939
 51
0.0
  0
MTEXT
  5
196
100
AcDbEntity
  8
LAYER0
100
AcDbMText
 10
-17.3781737419
 20
-132.5157576176
 30
0.0
 40
3.0922104359
 41
11.0792708193
 71
         1
 72
         1
  1
\W0.8;S-UB34
  0
MTEXT
  5
197
100
AcDbEntity
  8
LAYER0
100
AcDbMText
 10
-35.7051459079
 20
-126.6461242782
 30
0.0
 40
2.1473683357
 41
6.4116149902
 71
         1
 72
         1
  1
\W0.8;Ｎｏ.
  0
LINE
  5
198
100
AcDbEntity
  8
LAYER0
 62
         3
100
AcDbLine
 10
-25.0
 20
-125.5
 30
0.0
 11
-25.0
 21
-138.5
 31
0.0
  0
MTEXT
  5
199
100
AcDbEntity
  8
LAYER0
100
AcDbMText
 10
-10.6564309049
 20
-126.7970201517
 30
0.0
 40
2.1473683357
 41
7.6538653946
 71
         1
 72
         1
  1
\W0.8;品　番
  0
LINE
  5
19A
100
AcDbEntity
  8
LAYER0
 62
         3
100
AcDbLine
 10
-40.0
 20
-138.5
 30
0.0
 11
-40.0
 21
-125.5
 31
0.0
  0
ARC
  5
19B
100
AcDbEntity
  8
LAYER0
 62
         3
100
AcDbCircle
 10
-16.8123556582
 20
-6.8374133949
 30
0.0
 40
0.5
210
0.0
220
0.0
230
1.0
100
AcDbArc
 50
180.0000030705
 51
269.9999984648
  0
LINE
  5
19C
100
AcDbEntity
  8
LAYER0
 62
         3
100
AcDbLine
 10
-17.3123556582
 20
-6.8374133949
 30
0.0
 11
-17.3123556582
 21
-4.1374133949
 31
0.0
  0
ARC
  5
19D
100
AcDbEntity
  8
LAYER0
 62
         3
100
AcDbCircle
 10
6.6876443418
 20
19.3625866051
 30
0.0
 40
17.5
210
-0.0
220
0.0
230
1.0
100
AcDbArc
 50
180.0000030705
 51
0.0
  0
CIRCLE
  5
19E
100
AcDbEntity
  8
LAYER0
  6
HIDDEN
 62
         5
100
AcDbCircle
 10
6.6876443418
 20
18.8625866051
 30
0.0
 40
17.0
210
0.0
220
0.0
230
1.0
  0
LINE
  5
19F
100
AcDbEntity
  8
LAYER0
  6
CENTER
100
AcDbLine
 10
-22.1190807497
 20
84.8900339891
 30
0.0
 11
35.7356920592
 21
84.8900339891
 31
0.0
  0
LINE
  5
1A0
100
AcDbEntity
  8
LAYER0
 62
         3
100
AcDbLine
 10
95.0
 20
-125.5
 30
0.0
 11
-40.0
 21
-125.5
 31
0.0
  0
LINE
  5
1A1
100
AcDbEntity
  8
LAYER0
 62
         3
100
AcDbLine
 10
95.0
 20
-130.5
 30
0.0
 11
-40.0
 21
-130.5
 31
0.0
  0
LINE
  5
1A2
100
AcDbEntity
  8
LAYER0
 62
         3
100
AcDbLine
 10
95.0
 20
-138.5
 30
0.0
 11
-40.0
 21
-138.5
 31
0.0
  0
LINE
  5
1A3
100
AcDbEntity
  8
LAYER0
 62
         6
100
AcDbLine
 10
5.8594233975
 20
39.55300923
 30
0.0
 11
-4.0650635501
 21
36.8937509672
 31
0.0
  0
LINE
  5
1A4
100
AcDbEntity
  8
LAYER0
 62
         6
100
AcDbLine
 10
6.6876443418
 20
36.4620465859
 30
0.0
 11
-3.2368426058
 21
33.802788323
 31
0.0
  0
ARC
  5
1A5
100
AcDbEntity
  8
LAYER0
  6
HIDDEN
 62
         3
100
AcDbCircle
 10
5.7072425346
 20
-4.1374133949
 30
0.0
 40
4.0195981928
210
0.0
220
0.0
230
1.0
100
AcDbArc
 50
132.413108498
 51
180.0000030705
  0
LINE
  5
1A6
100
AcDbEntity
  8
LAYER0
 62
         3
100
AcDbLine
 10
30.6876443418
 20
-4.1374133949
 30
0.0
 11
-17.3123556582
 21
-4.1374133949
 31
0.0
  0
LINE
  5
1A7
100
AcDbEntity
  8
LAYER0
 62
         3
100
AcDbLine
 10
-16.8123556582
 20
-7.3374133949
 30
0.0
 11
30.1876443418
 21
-7.3374133949
 31
0.0
  0
LINE
  5
1A8
100
AcDbEntity
  8
LAYER0
 62
         6
100
AcDbLine
 10
-17.8123556582
 20
70.8900339891
 30
0.0
 11
6.6876443418
 21
70.8900339891
 31
0.0
  0
LINE
  5
1A9
100
AcDbEntity
  8
LAYER0
 62
         6
100
AcDbLine
 10
-17.8123556582
 20
98.8900339891
 30
0.0
 11
6.6876443418
 21
98.8900339891
 31
0.0
  0
LINE
  5
1AA
100
AcDbEntity
  8
LAYER0
 62
         3
100
AcDbLine
 10
-13.3123556582
 20
101.8900339891
 30
0.0
 11
26.6876443418
 21
101.8900339891
 31
0.0
  0
LINE
  5
1AB
100
AcDbEntity
  8
LAYER0
 62
         3
100
AcDbLine
 10
26.6876443418
 20
67.8900339891
 30
0.0
 11
-13.3123556582
 21
67.8900339891
 31
0.0
  0
LINE
  5
1AC
100
AcDbEntity
  8
LAYER0
 62
         3
100
AcDbLine
 10
-13.3123556582
 20
101.8900339891
 30
0.0
 11
26.6876443418
 21
101.8900339891
 31
0.0
  0
LINE
  5
1AD
100
AcDbEntity
  8
LAYER3
 62
         4
100
AcDbLine
 10
-21.8123556582
 20
115.2884839282
 30
0.0
 11
35.1876443418
 21
115.2884839282
 31
0.0
  0
ARC
  5
1AE
100
AcDbEntity
  8
LAYER0
 62
         3
100
AcDbCircle
 10
6.6876443418
 20
19.3625866051
 30
0.0
 40
23.5
210
0.0
220
0.0
230
1.0
100
AcDbArc
 50
179.9999969295
 51
257.8063897356
  0
ARC
  5
1AF
100
AcDbEntity
  8
LAYER0
 62
         5
100
AcDbCircle
 10
6.6876443418
 20
19.3625866051
 30
0.0
 40
23.5
210
0.0
220
0.0
230
1.0
100
AcDbArc
 50
257.8063897356
 51
282.1936071939
  0
LINE
  5
1B0
100
AcDbEntity
  8
LAYER3
 62
         4
100
AcDbLine
 10
-13.8123556582
 20
108.949201506
 30
0.0
 11
27.1876443418
 21
108.949201506
 31
0.0
  0
LINE
  5
1B1
100
AcDbEntity
  8
LAYER3
 62
         4
100
AcDbLine
 10
5.6876443418
 20
18.8625866051
 30
0.0
 11
-31.1510565173
 21
18.8625866051
 31
0.0
  0
LINE
  5
1B2
100
AcDbEntity
  8
LAYER3
 62
         4
100
AcDbLine
 10
-17.3123556582
 20
-21.9897699049
 30
0.0
 11
30.6876443418
 21
-21.9897699049
 31
0.0
  0
LINE
  5
1B3
100
AcDbEntity
  8
LAYER0
 62
         3
100
AcDbLine
 10
-13.3123556582
 20
-85.245788229
 30
0.0
 11
26.6876443418
 21
-85.245788229
 31
0.0
  0
LINE
  5
1B4
100
AcDbEntity
  8
LAYER0
 62
         3
100
AcDbLine
 10
26.6876443418
 20
-51.245788229
 30
0.0
 11
-13.3123556582
 21
-51.245788229
 31
0.0
  0
CIRCLE
  5
1B5
100
AcDbEntity
  8
LAYER0
 62
         3
100
AcDbCircle
 10
-2.3123556582
 20
-77.745788229
 30
0.0
 40
1.7
210
0.0
220
0.0
230
1.0
  0
ENDSEC
  0
SECTION
  2
OBJECTS
  0
DICTIONARY
  5
19
100
AcDbDictionary
280
         0
281
         1
  3
ACAD_GROUP
350
1A
  3
ACAD_MLINESTYLE
350
1B
  3
ACAD_LAYOUT
350
1E
  3
ACAD_PLOTSETTINGS
350
22
  3
ACAD_PLOTSTYLENAME
350
1F
  3
ACAD_WIPEOUT_VARS
350
23
  0
DICTIONARY
  5
1A
102
{ACAD_REACTORS
330
19
102
}
100
AcDbDictionary
280
         0
281
         1
  0
DICTIONARY
  5
1B
102
{ACAD_REACTORS
330
19
102
}
100
AcDbDictionary
280
         0
281
         1
  3
Standard
350
1C
  0
MLINESTYLE
  5
1C
102
{ACAD_REACTORS
330
1B
102
}
100
AcDbMlineStyle
  2
Standard
 70
         0
  3

 62
         0
 51
90.0
 52
90.0
 71
         2
 49
0.5
 62
       256
  6
BYLAYER
 49
-0.5
 62
       256
  6
BYLAYER
  0
ACDBDICTIONARYWDFLT
  5
1F
102
{ACAD_REACTORS
330
19
102
}
100
AcDbDictionary
281
         1
  3
Normal
350
1D
100
AcDbDictionaryWithDefault
340
1D
  0
ACDBPLACEHOLDER
  5
1D
102
{ACAD_REACTORS
330
1F
102
}
  0
LAYOUT
  5
20
102
{ACAD_REACTORS
330
1E
102
}
100
AcDbPlotSettings
  1

  2

  4

  6

 40
0.0
 41
0.0
 42
0.0
 43
0.0
 44
0.0
 45
0.0
 46
0.0
 47
0.0
 48
0.0
 49
0.0
140
0.0
141
0.0
142
1.0
143
1.0
 70
         0
 72
         0
 73
         0
 74
         0
  7

 75
         0
147
1.0
148
0.0
149
0.0
100
AcDbLayout
  1
Model
 70
         0
 71
         0
 10
0.0
 20
0.0
 11
0.0
 21
0.0
 12
0.0
 22
0.0
 32
0.0
 14
0.0
 24
0.0
 34
0.0
 15
0.0
 25
0.0
 35
0.0
146
0.0
 13
0.0
 23
0.0
 33
0.0
 16
0.0
 26
0.0
 36
0.0
 17
0.0
 27
0.0
 37
0.0
 76
         0
330
A
331
0
345
0
346
0
  0
LAYOUT
  5
21
102
{ACAD_REACTORS
330
1E
102
}
100
AcDbPlotSettings
  1

  2

  4

  6

 40
0.0
 41
0.0
 42
0.0
 43
0.0
 44
0.0
 45
0.0
 46
0.0
 47
0.0
 48
0.0
 49
0.0
140
0.0
141
0.0
142
1.0
143
1.0
 70
         0
 72
         0
 73
         0
 74
         0
  7

 75
         0
147
1.0
148
0.0
149
0.0
100
AcDbLayout
  1
Layout1
 70
         0
 71
         0
 10
0.0
 20
0.0
 11
0.0
 21
0.0
 12
0.0
 22
0.0
 32
0.0
 14
0.0
 24
0.0
 34
0.0
 15
0.0
 25
0.0
 35
0.0
146
0.0
 13
0.0
 23
0.0
 33
0.0
 16
0.0
 26
0.0
 36
0.0
 17
0.0
 27
0.0
 37
0.0
 76
         0
330
B
331
0
345
0
346
0
  0
DICTIONARY
  5
1E
102
{ACAD_REACTORS
330
19
102
}
100
AcDbDictionary
280
         0
281
         1
  3
Layout1
350
21
  3
Model
350
20
  0
DICTIONARY
  5
22
102
{ACAD_REACTORS
330
19
102
}
100
AcDbDictionary
280
         0
281
         1
  0
WIPEOUTVARIABLES
  5
23
100
AcDbWipeoutVariables
 70
         1
  0
ENDSEC
  0
EOF
