  0
SECTION
  2
HEADER
  9
$INSBASE
 10
0.0
20
0.0
  9
$REGENMODE
 70
     1
  9
$DRAGMODE
 70
     1
  9
$DIMTAD
 70
     1
  9
$EXTMIN
 10
-210.000000
 20
-148.500000
 30
 0.0
  9
$EXTMAX
 10
210.000000
 20
148.500000
 30
 0.0
  9
$LUPREC
 70
    3
  9
$AUPREC
 70
    3
  9
$LTSCALE
 40
26.250000
  0
ENDSEC
  0
SECTION
  2
TABLES
  0
TABLE
  2
LTYPE
 70
     6
  0
LTYPE
  2
CONTINUOUS
 70
    64
  3
実線
 72
    65
 73
     0
 40
0.0
  0
LTYPE
  2
DOTS
 70
    64
  3
close
 72
    65
 73
     2
 40
0.1
 49
0.05
 49
-0.05
  0
LTYPE
  2
HIDDEN
 70
    64
  3
__ __ __ __ __ __ __ __ __ __ __ __ __ __ __
 72
    65
 73
     2
 40
0.375
 49
0.25
 49
-0.125
  0
LTYPE
  2
DASHED
 70
    64
  3
__ __ __ __ __ __ __ __ __ __ __ __ __ __ __
 72
    65
 73
     2
 40
0.75
 49
0.5
 49
-0.25
  0
LTYPE
  2
DOT
 70
    64
  3
............................................
 72
    65
 73
     2
 40
0.25
 49
0
 49
-0.25
  0
LTYPE
  2
CENTER
 70
    64
  3
____ _ ____ _ ____ _ ____ _ ____ _ ____ _ __
 72
    65
 73
     4
 40
2.0
 49
1.25
 49
-0.25
 49
0.25
 49
-0.25
  0
LTYPE
  2
DASHDOT
 70
    64
  3
__ . __ . __ . __ . __ . __ . __ . __ . __ .
 72
    65
 73
     4
 40
1.0
 49
0.5
 49
-0.25
 49
0.0
 49
-0.25
  0
LTYPE
  2
HIDDENX2
 70
    64
  3
____ ____ ____ ____ ____ ____ ____ ____ ____
 72
    65
 73
     2
 40
0.625
 49
0.5
 49
-0.125
  0
LTYPE
  2
DIVIDE
 70
    64
  3
__ . . __ . . __ . . __ . . __ . . __ . . __
 72
    65
 73
     6
 40
1.25
 49
0.5
 49
-0.25
 49
0.0
 49
-0.25
 49
0.0
 49
-0.25
  0
ENDTAB
  0
TABLE
  2
LAYER
 70
   255
  0
LAYER
  2
0
 70
    64
 62
     7
  6
CONTINUOUS
  0
LAYER
  2
7A
 70
    64
 62
     7
  6
CONTINUOUS
  0
LAYER
  2
LAYER0
 70
    64
 62
     7
  6
CONTINUOUS
  0
LAYER
  2
LAYER4
 70
    64
 62
     7
  6
CONTINUOUS
  0
LAYER
  2
4N
 70
    64
 62
     7
  6
CONTINUOUS
  0
LAYER
  2
LAYER7
 70
    64
 62
     7
  6
CONTINUOUS
  0
LAYER
  2
実線-
 70
    64
 62
     7
  6
CONTINUOUS
  0
LAYER
  2
7AN
 70
    64
 62
     7
  6
CONTINUOUS
  0
LAYER
  2
LAYER5
 70
    64
 62
     7
  6
CONTINUOUS
  0
LAYER
  2
9
 70
    64
 62
     7
  6
CONTINUOUS
  0
LAYER
  2
10
 70
    64
 62
     7
  6
CONTINUOUS
  0
LAYER
  2
11
 70
    64
 62
     7
  6
CONTINUOUS
  0
LAYER
  2
12
 70
    64
 62
     7
  6
CONTINUOUS
  0
LAYER
  2
13
 70
    64
 62
     7
  6
CONTINUOUS
  0
LAYER
  2
14
 70
    64
 62
     7
  6
CONTINUOUS
  0
LAYER
  2
15
 70
    64
 62
     7
  6
CONTINUOUS
  0
LAYER
  2
16
 70
    64
 62
     7
  6
CONTINUOUS
  0
LAYER
  2
17
 70
    64
 62
     7
  6
CONTINUOUS
  0
LAYER
  2
18
 70
    64
 62
     7
  6
CONTINUOUS
  0
LAYER
  2
19
 70
    64
 62
     7
  6
CONTINUOUS
  0
LAYER
  2
20
 70
    64
 62
     7
  6
CONTINUOUS
  0
LAYER
  2
21
 70
    64
 62
     7
  6
CONTINUOUS
  0
LAYER
  2
22
 70
    64
 62
     7
  6
CONTINUOUS
  0
LAYER
  2
23
 70
    64
 62
     7
  6
CONTINUOUS
  0
LAYER
  2
24
 70
    64
 62
     7
  6
CONTINUOUS
  0
LAYER
  2
25
 70
    64
 62
     7
  6
CONTINUOUS
  0
LAYER
  2
26
 70
    64
 62
     7
  6
CONTINUOUS
  0
LAYER
  2
27
 70
    64
 62
     7
  6
CONTINUOUS
  0
LAYER
  2
28
 70
    64
 62
     7
  6
CONTINUOUS
  0
LAYER
  2
29
 70
    64
 62
     7
  6
CONTINUOUS
  0
LAYER
  2
30
 70
    64
 62
     7
  6
CONTINUOUS
  0
LAYER
  2
31
 70
    64
 62
     7
  6
CONTINUOUS
  0
LAYER
  2
32
 70
    64
 62
     7
  6
CONTINUOUS
  0
LAYER
  2
33
 70
    64
 62
     7
  6
CONTINUOUS
  0
LAYER
  2
34
 70
    64
 62
     7
  6
CONTINUOUS
  0
LAYER
  2
35
 70
    64
 62
     7
  6
CONTINUOUS
  0
LAYER
  2
36
 70
    64
 62
     7
  6
CONTINUOUS
  0
LAYER
  2
37
 70
    64
 62
     7
  6
CONTINUOUS
  0
LAYER
  2
38
 70
    64
 62
     7
  6
CONTINUOUS
  0
LAYER
  2
39
 70
    64
 62
     7
  6
CONTINUOUS
  0
LAYER
  2
40
 70
    64
 62
     7
  6
CONTINUOUS
  0
LAYER
  2
41
 70
    64
 62
     7
  6
CONTINUOUS
  0
LAYER
  2
42
 70
    64
 62
     7
  6
CONTINUOUS
  0
LAYER
  2
43
 70
    64
 62
     7
  6
CONTINUOUS
  0
LAYER
  2
44
 70
    64
 62
     7
  6
CONTINUOUS
  0
LAYER
  2
45
 70
    64
 62
     7
  6
CONTINUOUS
  0
LAYER
  2
46
 70
    64
 62
     7
  6
CONTINUOUS
  0
LAYER
  2
47
 70
    64
 62
     7
  6
CONTINUOUS
  0
LAYER
  2
48
 70
    64
 62
     7
  6
CONTINUOUS
  0
LAYER
  2
49
 70
    64
 62
     7
  6
CONTINUOUS
  0
LAYER
  2
50
 70
    64
 62
     7
  6
CONTINUOUS
  0
LAYER
  2
51
 70
    64
 62
     7
  6
CONTINUOUS
  0
LAYER
  2
52
 70
    64
 62
     7
  6
CONTINUOUS
  0
LAYER
  2
53
 70
    64
 62
     7
  6
CONTINUOUS
  0
LAYER
  2
54
 70
    64
 62
     7
  6
CONTINUOUS
  0
LAYER
  2
55
 70
    64
 62
     7
  6
CONTINUOUS
  0
LAYER
  2
56
 70
    64
 62
     7
  6
CONTINUOUS
  0
LAYER
  2
57
 70
    64
 62
     7
  6
CONTINUOUS
  0
LAYER
  2
58
 70
    64
 62
     7
  6
CONTINUOUS
  0
LAYER
  2
59
 70
    64
 62
     7
  6
CONTINUOUS
  0
LAYER
  2
60
 70
    64
 62
     7
  6
CONTINUOUS
  0
LAYER
  2
61
 70
    64
 62
     7
  6
CONTINUOUS
  0
LAYER
  2
62
 70
    64
 62
     7
  6
CONTINUOUS
  0
LAYER
  2
63
 70
    64
 62
     7
  6
CONTINUOUS
  0
LAYER
  2
64
 70
    64
 62
     7
  6
CONTINUOUS
  0
LAYER
  2
65
 70
    64
 62
     7
  6
CONTINUOUS
  0
LAYER
  2
66
 70
    64
 62
     7
  6
CONTINUOUS
  0
LAYER
  2
67
 70
    64
 62
     7
  6
CONTINUOUS
  0
LAYER
  2
68
 70
    64
 62
     7
  6
CONTINUOUS
  0
LAYER
  2
69
 70
    64
 62
     7
  6
CONTINUOUS
  0
LAYER
  2
70
 70
    64
 62
     7
  6
CONTINUOUS
  0
LAYER
  2
71
 70
    64
 62
     7
  6
CONTINUOUS
  0
LAYER
  2
72
 70
    64
 62
     7
  6
CONTINUOUS
  0
LAYER
  2
73
 70
    64
 62
     7
  6
CONTINUOUS
  0
LAYER
  2
74
 70
    64
 62
     7
  6
CONTINUOUS
  0
LAYER
  2
75
 70
    64
 62
     7
  6
CONTINUOUS
  0
LAYER
  2
76
 70
    64
 62
     7
  6
CONTINUOUS
  0
LAYER
  2
77
 70
    64
 62
     7
  6
CONTINUOUS
  0
LAYER
  2
78
 70
    64
 62
     7
  6
CONTINUOUS
  0
LAYER
  2
79
 70
    64
 62
     7
  6
CONTINUOUS
  0
LAYER
  2
80
 70
    64
 62
     7
  6
CONTINUOUS
  0
LAYER
  2
81
 70
    64
 62
     7
  6
CONTINUOUS
  0
LAYER
  2
82
 70
    64
 62
     7
  6
CONTINUOUS
  0
LAYER
  2
83
 70
    64
 62
     7
  6
CONTINUOUS
  0
LAYER
  2
84
 70
    64
 62
     7
  6
CONTINUOUS
  0
LAYER
  2
85
 70
    64
 62
     7
  6
CONTINUOUS
  0
LAYER
  2
86
 70
    64
 62
     7
  6
CONTINUOUS
  0
LAYER
  2
87
 70
    64
 62
     7
  6
CONTINUOUS
  0
LAYER
  2
88
 70
    64
 62
     7
  6
CONTINUOUS
  0
LAYER
  2
89
 70
    64
 62
     7
  6
CONTINUOUS
  0
LAYER
  2
90
 70
    64
 62
     7
  6
CONTINUOUS
  0
LAYER
  2
91
 70
    64
 62
     7
  6
CONTINUOUS
  0
LAYER
  2
92
 70
    64
 62
     7
  6
CONTINUOUS
  0
LAYER
  2
93
 70
    64
 62
     7
  6
CONTINUOUS
  0
LAYER
  2
94
 70
    64
 62
     7
  6
CONTINUOUS
  0
LAYER
  2
95
 70
    64
 62
     7
  6
CONTINUOUS
  0
LAYER
  2
96
 70
    64
 62
     7
  6
CONTINUOUS
  0
LAYER
  2
97
 70
    64
 62
     7
  6
CONTINUOUS
  0
LAYER
  2
98
 70
    64
 62
     7
  6
CONTINUOUS
  0
LAYER
  2
99
 70
    64
 62
     7
  6
CONTINUOUS
  0
LAYER
  2
100
 70
    64
 62
     7
  6
CONTINUOUS
  0
LAYER
  2
101
 70
    64
 62
     7
  6
CONTINUOUS
  0
LAYER
  2
102
 70
    64
 62
     7
  6
CONTINUOUS
  0
LAYER
  2
103
 70
    64
 62
     7
  6
CONTINUOUS
  0
LAYER
  2
104
 70
    64
 62
     7
  6
CONTINUOUS
  0
LAYER
  2
105
 70
    64
 62
     7
  6
CONTINUOUS
  0
LAYER
  2
106
 70
    64
 62
     7
  6
CONTINUOUS
  0
LAYER
  2
107
 70
    64
 62
     7
  6
CONTINUOUS
  0
LAYER
  2
108
 70
    64
 62
     7
  6
CONTINUOUS
  0
LAYER
  2
109
 70
    64
 62
     7
  6
CONTINUOUS
  0
LAYER
  2
110
 70
    64
 62
     7
  6
CONTINUOUS
  0
LAYER
  2
111
 70
    64
 62
     7
  6
CONTINUOUS
  0
LAYER
  2
112
 70
    64
 62
     7
  6
CONTINUOUS
  0
LAYER
  2
113
 70
    64
 62
     7
  6
CONTINUOUS
  0
LAYER
  2
114
 70
    64
 62
     7
  6
CONTINUOUS
  0
LAYER
  2
115
 70
    64
 62
     7
  6
CONTINUOUS
  0
LAYER
  2
116
 70
    64
 62
     7
  6
CONTINUOUS
  0
LAYER
  2
117
 70
    64
 62
     7
  6
CONTINUOUS
  0
LAYER
  2
118
 70
    64
 62
     7
  6
CONTINUOUS
  0
LAYER
  2
119
 70
    64
 62
     7
  6
CONTINUOUS
  0
LAYER
  2
120
 70
    64
 62
     7
  6
CONTINUOUS
  0
LAYER
  2
121
 70
    64
 62
     7
  6
CONTINUOUS
  0
LAYER
  2
122
 70
    64
 62
     7
  6
CONTINUOUS
  0
LAYER
  2
123
 70
    64
 62
     7
  6
CONTINUOUS
  0
LAYER
  2
124
 70
    64
 62
     7
  6
CONTINUOUS
  0
LAYER
  2
125
 70
    64
 62
     7
  6
CONTINUOUS
  0
LAYER
  2
126
 70
    64
 62
     7
  6
CONTINUOUS
  0
LAYER
  2
127
 70
    64
 62
     7
  6
CONTINUOUS
  0
LAYER
  2
128
 70
    64
 62
     7
  6
CONTINUOUS
  0
LAYER
  2
129
 70
    64
 62
     7
  6
CONTINUOUS
  0
LAYER
  2
130
 70
    64
 62
     7
  6
CONTINUOUS
  0
LAYER
  2
131
 70
    64
 62
     7
  6
CONTINUOUS
  0
LAYER
  2
132
 70
    64
 62
     7
  6
CONTINUOUS
  0
LAYER
  2
133
 70
    64
 62
     7
  6
CONTINUOUS
  0
LAYER
  2
134
 70
    64
 62
     7
  6
CONTINUOUS
  0
LAYER
  2
135
 70
    64
 62
     7
  6
CONTINUOUS
  0
LAYER
  2
136
 70
    64
 62
     7
  6
CONTINUOUS
  0
LAYER
  2
137
 70
    64
 62
     7
  6
CONTINUOUS
  0
LAYER
  2
138
 70
    64
 62
     7
  6
CONTINUOUS
  0
LAYER
  2
139
 70
    64
 62
     7
  6
CONTINUOUS
  0
LAYER
  2
140
 70
    64
 62
     7
  6
CONTINUOUS
  0
LAYER
  2
141
 70
    64
 62
     7
  6
CONTINUOUS
  0
LAYER
  2
142
 70
    64
 62
     7
  6
CONTINUOUS
  0
LAYER
  2
143
 70
    64
 62
     7
  6
CONTINUOUS
  0
LAYER
  2
144
 70
    64
 62
     7
  6
CONTINUOUS
  0
LAYER
  2
145
 70
    64
 62
     7
  6
CONTINUOUS
  0
LAYER
  2
146
 70
    64
 62
     7
  6
CONTINUOUS
  0
LAYER
  2
147
 70
    64
 62
     7
  6
CONTINUOUS
  0
LAYER
  2
148
 70
    64
 62
     7
  6
CONTINUOUS
  0
LAYER
  2
149
 70
    64
 62
     7
  6
CONTINUOUS
  0
LAYER
  2
150
 70
    64
 62
     7
  6
CONTINUOUS
  0
LAYER
  2
151
 70
    64
 62
     7
  6
CONTINUOUS
  0
LAYER
  2
152
 70
    64
 62
     7
  6
CONTINUOUS
  0
LAYER
  2
153
 70
    64
 62
     7
  6
CONTINUOUS
  0
LAYER
  2
154
 70
    64
 62
     7
  6
CONTINUOUS
  0
LAYER
  2
155
 70
    64
 62
     7
  6
CONTINUOUS
  0
LAYER
  2
156
 70
    64
 62
     7
  6
CONTINUOUS
  0
LAYER
  2
157
 70
    64
 62
     7
  6
CONTINUOUS
  0
LAYER
  2
158
 70
    64
 62
     7
  6
CONTINUOUS
  0
LAYER
  2
159
 70
    64
 62
     7
  6
CONTINUOUS
  0
LAYER
  2
160
 70
    64
 62
     7
  6
CONTINUOUS
  0
LAYER
  2
161
 70
    64
 62
     7
  6
CONTINUOUS
  0
LAYER
  2
162
 70
    64
 62
     7
  6
CONTINUOUS
  0
LAYER
  2
163
 70
    64
 62
     7
  6
CONTINUOUS
  0
LAYER
  2
164
 70
    64
 62
     7
  6
CONTINUOUS
  0
LAYER
  2
165
 70
    64
 62
     7
  6
CONTINUOUS
  0
LAYER
  2
166
 70
    64
 62
     7
  6
CONTINUOUS
  0
LAYER
  2
167
 70
    64
 62
     7
  6
CONTINUOUS
  0
LAYER
  2
168
 70
    64
 62
     7
  6
CONTINUOUS
  0
LAYER
  2
169
 70
    64
 62
     7
  6
CONTINUOUS
  0
LAYER
  2
170
 70
    64
 62
     7
  6
CONTINUOUS
  0
LAYER
  2
171
 70
    64
 62
     7
  6
CONTINUOUS
  0
LAYER
  2
172
 70
    64
 62
     7
  6
CONTINUOUS
  0
LAYER
  2
173
 70
    64
 62
     7
  6
CONTINUOUS
  0
LAYER
  2
174
 70
    64
 62
     7
  6
CONTINUOUS
  0
LAYER
  2
175
 70
    64
 62
     7
  6
CONTINUOUS
  0
LAYER
  2
176
 70
    64
 62
     7
  6
CONTINUOUS
  0
LAYER
  2
177
 70
    64
 62
     7
  6
CONTINUOUS
  0
LAYER
  2
178
 70
    64
 62
     7
  6
CONTINUOUS
  0
LAYER
  2
179
 70
    64
 62
     7
  6
CONTINUOUS
  0
LAYER
  2
180
 70
    64
 62
     7
  6
CONTINUOUS
  0
LAYER
  2
181
 70
    64
 62
     7
  6
CONTINUOUS
  0
LAYER
  2
182
 70
    64
 62
     7
  6
CONTINUOUS
  0
LAYER
  2
183
 70
    64
 62
     7
  6
CONTINUOUS
  0
LAYER
  2
184
 70
    64
 62
     7
  6
CONTINUOUS
  0
LAYER
  2
185
 70
    64
 62
     7
  6
CONTINUOUS
  0
LAYER
  2
186
 70
    64
 62
     7
  6
CONTINUOUS
  0
LAYER
  2
187
 70
    64
 62
     7
  6
CONTINUOUS
  0
LAYER
  2
188
 70
    64
 62
     7
  6
CONTINUOUS
  0
LAYER
  2
189
 70
    64
 62
     7
  6
CONTINUOUS
  0
LAYER
  2
190
 70
    64
 62
     7
  6
CONTINUOUS
  0
LAYER
  2
191
 70
    64
 62
     7
  6
CONTINUOUS
  0
LAYER
  2
192
 70
    64
 62
     7
  6
CONTINUOUS
  0
LAYER
  2
193
 70
    64
 62
     7
  6
CONTINUOUS
  0
LAYER
  2
194
 70
    64
 62
     7
  6
CONTINUOUS
  0
LAYER
  2
195
 70
    64
 62
     7
  6
CONTINUOUS
  0
LAYER
  2
196
 70
    64
 62
     7
  6
CONTINUOUS
  0
LAYER
  2
197
 70
    64
 62
     7
  6
CONTINUOUS
  0
LAYER
  2
198
 70
    64
 62
     7
  6
CONTINUOUS
  0
LAYER
  2
199
 70
    64
 62
     7
  6
CONTINUOUS
  0
LAYER
  2
200
 70
    64
 62
     7
  6
CONTINUOUS
  0
LAYER
  2
201
 70
    64
 62
     7
  6
CONTINUOUS
  0
LAYER
  2
202
 70
    64
 62
     7
  6
CONTINUOUS
  0
LAYER
  2
203
 70
    64
 62
     7
  6
CONTINUOUS
  0
LAYER
  2
204
 70
    64
 62
     7
  6
CONTINUOUS
  0
LAYER
  2
205
 70
    64
 62
     7
  6
CONTINUOUS
  0
LAYER
  2
206
 70
    64
 62
     7
  6
CONTINUOUS
  0
LAYER
  2
207
 70
    64
 62
     7
  6
CONTINUOUS
  0
LAYER
  2
208
 70
    64
 62
     7
  6
CONTINUOUS
  0
LAYER
  2
209
 70
    64
 62
     7
  6
CONTINUOUS
  0
LAYER
  2
210
 70
    64
 62
     7
  6
CONTINUOUS
  0
LAYER
  2
211
 70
    64
 62
     7
  6
CONTINUOUS
  0
LAYER
  2
212
 70
    64
 62
     7
  6
CONTINUOUS
  0
LAYER
  2
213
 70
    64
 62
     7
  6
CONTINUOUS
  0
LAYER
  2
214
 70
    64
 62
     7
  6
CONTINUOUS
  0
LAYER
  2
215
 70
    64
 62
     7
  6
CONTINUOUS
  0
LAYER
  2
216
 70
    64
 62
     7
  6
CONTINUOUS
  0
LAYER
  2
217
 70
    64
 62
     7
  6
CONTINUOUS
  0
LAYER
  2
218
 70
    64
 62
     7
  6
CONTINUOUS
  0
LAYER
  2
219
 70
    64
 62
     7
  6
CONTINUOUS
  0
LAYER
  2
220
 70
    64
 62
     7
  6
CONTINUOUS
  0
LAYER
  2
221
 70
    64
 62
     7
  6
CONTINUOUS
  0
LAYER
  2
222
 70
    64
 62
     7
  6
CONTINUOUS
  0
LAYER
  2
223
 70
    64
 62
     7
  6
CONTINUOUS
  0
LAYER
  2
224
 70
    64
 62
     7
  6
CONTINUOUS
  0
LAYER
  2
225
 70
    64
 62
     7
  6
CONTINUOUS
  0
LAYER
  2
226
 70
    64
 62
     7
  6
CONTINUOUS
  0
LAYER
  2
227
 70
    64
 62
     7
  6
CONTINUOUS
  0
LAYER
  2
228
 70
    64
 62
     7
  6
CONTINUOUS
  0
LAYER
  2
229
 70
    64
 62
     7
  6
CONTINUOUS
  0
LAYER
  2
230
 70
    64
 62
     7
  6
CONTINUOUS
  0
LAYER
  2
231
 70
    64
 62
     7
  6
CONTINUOUS
  0
LAYER
  2
232
 70
    64
 62
     7
  6
CONTINUOUS
  0
LAYER
  2
233
 70
    64
 62
     7
  6
CONTINUOUS
  0
LAYER
  2
234
 70
    64
 62
     7
  6
CONTINUOUS
  0
LAYER
  2
235
 70
    64
 62
     7
  6
CONTINUOUS
  0
LAYER
  2
236
 70
    64
 62
     7
  6
CONTINUOUS
  0
LAYER
  2
237
 70
    64
 62
     7
  6
CONTINUOUS
  0
LAYER
  2
238
 70
    64
 62
     7
  6
CONTINUOUS
  0
LAYER
  2
239
 70
    64
 62
     7
  6
CONTINUOUS
  0
LAYER
  2
240
 70
    64
 62
     7
  6
CONTINUOUS
  0
LAYER
  2
241
 70
    64
 62
     7
  6
CONTINUOUS
  0
LAYER
  2
242
 70
    64
 62
     7
  6
CONTINUOUS
  0
LAYER
  2
243
 70
    64
 62
     7
  6
CONTINUOUS
  0
LAYER
  2
244
 70
    64
 62
     7
  6
CONTINUOUS
  0
LAYER
  2
245
 70
    64
 62
     7
  6
CONTINUOUS
  0
LAYER
  2
246
 70
    64
 62
     7
  6
CONTINUOUS
  0
LAYER
  2
247
 70
    64
 62
     7
  6
CONTINUOUS
  0
LAYER
  2
248
 70
    64
 62
     7
  6
CONTINUOUS
  0
LAYER
  2
249
 70
    64
 62
     7
  6
CONTINUOUS
  0
LAYER
  2
250
 70
    64
 62
     7
  6
CONTINUOUS
  0
LAYER
  2
251
 70
    64
 62
     7
  6
CONTINUOUS
  0
LAYER
  2
252
 70
    64
 62
     7
  6
CONTINUOUS
  0
LAYER
  2
253
 70
    64
 62
     7
  6
CONTINUOUS
  0
LAYER
  2
254
 70
    64
 62
     7
  6
CONTINUOUS
  0
LAYER
  2
255
 70
    64
 62
     7
  6
CONTINUOUS
  0
ENDTAB
  0
TABLE
  2
STYLE
 70
     2
  0
STYLE
  2
STANDARD
 70
    64
 40
0.0
 41
1.0
 50
0.0
 71
     0
 42
3.000000
  3
TXT
  4
BIGFONT
  0
ENDTAB
  0
ENDSEC
  0
SECTION
  2
BLOCKS
  0
BLOCK
  8
0
  2
CADWIN-G0
 70
    0
 10
0.0
 20
0.0
  0
LINE
  8
LAYER0
  6
CONTINUOUS
 62
     3
 10
 48.667879549107383
 20
 37.391079265526827
 11
 26.167879549107383
 21
 37.391079265526827
  0
LINE
  8
LAYER0
  6
CONTINUOUS
 62
     3
 10
 48.667879549107383
 20
 34.891079265526827
 11
 26.167879549107383
 21
 34.891079265526827
  0
ENDBLK
  8
0
  0
BLOCK
  8
0
  2
CADWIN-G1
 70
    0
 10
0.0
 20
0.0
  0
LINE
  8
LAYER0
  6
CONTINUOUS
 62
     3
 10
 24.06787954910736
 20
 40.241394189226824
 11
 26.067879546407383
 21
 40.241394189226824
  0
LINE
  8
LAYER0
  6
CONTINUOUS
 62
     3
 10
 24.06787954910736
 20
 42.241394189226824
 11
 26.067892223107364
 21
 42.241394189226824
  0
ARC
  8
LAYER0
  6
CONTINUOUS
 62
     3
 10
 43.148309752207368
 20
 29.270649310126824
 40
 5.6268908607999997
 50
 28.170824059342511
 51
 87.254057725893958
  0
ARC
  8
LAYER0
  6
CONTINUOUS
 62
     3
 10
 48.417879549107383
 20
 32.091079265526815
 40
 2.3500000000000001
 50
-152.06507523865005
 51
 0
  0
ARC
  8
LAYER0
  6
CONTINUOUS
 62
     3
 10
 43.152816525007367
 20
 29.284328838726818
 40
 3.6164771599000001
 50
 28.143936276083856
 51
 85.796844074636581
  0
ARC
  8
LAYER0
  6
CONTINUOUS
 62
     3
 10
 48.417879549107383
 20
 32.091079265526815
 40
 0.35
 50
-152.06507523865005
 51
 0
  0
LINE
  8
LAYER0
  6
CONTINUOUS
 62
     3
 10
 48.767879549107377
 20
 40.241394189226824
 11
 50.767879549107377
 21
 40.241394189226824
  0
LINE
  8
LAYER0
  6
CONTINUOUS
 62
     3
 10
 48.767879549107377
 20
 42.241394189226824
 11
 50.767879549107377
 21
 42.241394189226824
  0
LINE
  8
LAYER0
  6
CONTINUOUS
 62
     3
 10
 33.292921549107362
 20
 59.390442155326824
 11
 41.292921549107362
 21
 59.390442155326824
  0
LINE
  8
LAYER0
  6
CONTINUOUS
 62
     3
 10
 31.417879549107383
 20
 61.390947778126815
 11
 43.417879549107383
 21
 61.390947778126815
  0
LINE
  8
LAYER0
  6
CONTINUOUS
 62
     3
 10
 31.417879549107383
 20
 63.390947778126815
 11
 43.417879549107383
 21
 63.390947778126815
  0
LINE
  8
LAYER0
  6
CONTINUOUS
 62
     3
 10
 24.06787954910736
 20
 56.541166715826819
 11
 26.067884354307367
 21
 56.541166715826819
  0
ARC
  8
LAYER0
  6
CONTINUOUS
 62
     3
 10
 26.417172191107383
 20
 64.190740891326811
 40
 0.35
 50
 27.937476829162041
 51
-179.99745407302518
  0
ARC
  8
LAYER0
  6
CONTINUOUS
 62
     3
 10
 26.417172191107383
 20
 64.190740891326811
 40
 2.3500000000000001
 50
 27.937476829162041
 51
-179.99745407302518
  0
ARC
  8
LAYER0
  6
CONTINUOUS
 62
     3
 10
 31.686611479507363
 20
 67.01142071902683
 40
 5.6268937194999999
 50
-151.82646725157986
 51
-92.737402605428983
  0
LINE
  8
LAYER0
  6
CONTINUOUS
 62
     3
 10
 33.292921549107362
 20
 61.390436155326825
 11
 33.292921549107362
 21
 59.390437155326822
  0
ARC
  8
LAYER0
  6
CONTINUOUS
 62
     3
 10
 31.682068394207377
 20
 66.997724992626814
 40
 3.6164399098
 50
-151.8532120721361
 51
-94.189315395095917
  0
LINE
  8
LAYER0
  6
CONTINUOUS
 62
     3
 10
 48.767879549107377
 20
 56.541166715826819
 11
 50.767879549107377
 21
 56.541166715826819
  0
ARC
  8
LAYER0
  6
CONTINUOUS
 62
     3
 10
 43.145984458407369
 20
 67.013209334326831
 40
 5.6288322009999998
 50
-87.231308957505135
 51
-28.172996387178813
  0
ARC
  8
LAYER0
  6
CONTINUOUS
 62
     3
 10
 48.417172170107378
 20
 64.191688494126822
 40
 2.3500000000000001
 50
 0.0025489974434812
 51
 152.06762423609433
  0
LINE
  8
LAYER0
  6
CONTINUOUS
 62
     3
 10
 41.292917596707369
 20
 61.390439155326817
 11
 41.292921549107362
 21
 59.390442155326824
  0
ARC
  8
LAYER0
  6
CONTINUOUS
 62
     3
 10
 43.150417794707366
 20
 66.999535774226814
 40
 3.6184863017
 50
-85.761096855826011
 51
-28.148273637757075
  0
LINE
  8
LAYER0
  6
CONTINUOUS
 62
     3
 10
 50.767172167707358
 20
 64.191793041926815
 11
 50.767879549107377
 21
 63.54043615532683
  0
ARC
  8
LAYER0
  6
CONTINUOUS
 62
     3
 10
 48.417172170107378
 20
 64.191688494126822
 40
 0.35
 50
 0.0025489974434812
 51
 152.06762423609433
  0
LINE
  8
LAYER0
  6
CONTINUOUS
 62
     3
 10
 31.417879549107383
 20
 61.390947778126815
 11
 31.417879549107383
 21
 37.391079265526827
  0
LINE
  8
LAYER0
  6
CONTINUOUS
 62
     3
 10
 43.417879549107383
 20
 61.390947778126815
 11
 43.417879549107383
 21
 37.391079265526827
  0
LINE
  8
LAYER0
  6
CONTINUOUS
 62
     3
 10
 48.767879549107377
 20
 64.210436155326818
 11
 48.767879549107377
 21
 32.091079265526815
  0
LINE
  8
LAYER0
  6
CONTINUOUS
 62
     3
 10
 50.767879549107377
 20
 63.54043615532683
 11
 50.767879549107377
 21
 32.091079265526815
  0
LINE
  8
LAYER0
  6
CONTINUOUS
 62
     3
 10
 26.067879546407383
 20
 64.210436155326818
 11
 26.06787954910736
 21
 32.091079265526815
  0
LINE
  8
LAYER0
  6
CONTINUOUS
 62
     3
 10
 24.067172193507375
 20
 64.190636343626835
 11
 24.06787954910736
 21
 32.091079265526815
  0
ARC
  8
LAYER0
  6
CONTINUOUS
 62
     3
 10
 37.417879548407356
 20
 49.54128045252682
 40
 5.5
 50
 123.05573324160477
 51
 56.944269812164649
  0
LINE
  8
LAYER0
  6
CONTINUOUS
 62
     3
 10
 31.417879549107383
 20
 34.891079265526827
 11
 43.417879549107383
 21
 34.891079265526827
  0
LINE
  8
LAYER0
  6
CONTINUOUS
 62
     3
 10
 31.417879549107383
 20
 32.891079265526827
 11
 43.417879549107383
 21
 32.891079265526827
  0
ARC
  8
LAYER0
  6
CONTINUOUS
 62
     3
 10
 31.687449346007369
 20
 29.270649310126824
 40
 5.6268908607999997
 50
 92.745945344575475
 51
 151.82917901112691
  0
ARC
  8
LAYER0
  6
CONTINUOUS
 62
     3
 10
 26.417879549107383
 20
 32.091079265526815
 40
 0.35
 50
-180.00000307046864
 51
-27.934927831817774
  0
ARC
  8
LAYER0
  6
CONTINUOUS
 62
     3
 10
 26.417879549107383
 20
 32.091079265526815
 40
 2.3500000000000001
 50
-180.00000307046864
 51
-27.934927831817774
  0
ARC
  8
LAYER0
  6
CONTINUOUS
 62
     3
 10
 31.682942573307358
 20
 29.284328838726818
 40
 3.6164771599000001
 50
 94.203158995832851
 51
 151.85606679438558
  0
ENDBLK
  8
0
  0
BLOCK
  8
0
  2
CADWIN-G2
 70
    0
 10
0.0
 20
0.0
  0
LINE
  8
実線-
  6
CONTINUOUS
 62
     3
 10
 32.56787954910736
 20
 76.240947778126809
 11
 31.667879549107383
 21
 75.721332535826832
  0
LINE
  8
実線-
  6
CONTINUOUS
 62
     3
 10
 32.56787954910736
 20
 76.240947778126809
 11
 36.417879549107383
 21
 76.240947778126809
  0
ENDBLK
  8
0
  0
BLOCK
  8
0
  2
CADWIN-G3
 70
    0
 10
0.0
 20
0.0
  0
LINE
  8
実線-
  6
CONTINUOUS
 62
     3
 10
 39.417879549107383
 20
 47.240947778126824
 11
 35.417879549107383
 21
 47.240947778126824
  0
ENDBLK
  8
0
  0
BLOCK
  8
0
  2
CADWIN-G4
 70
    0
 10
0.0
 20
0.0
  0
LINE
  8
実線-
  6
CONTINUOUS
 62
     3
 10
 43.167879549107383
 20
 75.721332535826832
 11
 43.167879549107383
 21
 72.240947778126809
  0
LINE
  8
実線-
  6
CONTINUOUS
 62
     3
 10
 43.167879549107383
 20
 72.240947778126809
 11
 31.667879549107383
 21
 72.240947778126809
  0
LINE
  8
実線-
  6
CONTINUOUS
 62
     3
 10
 31.667879549107383
 20
 72.240947778126809
 11
 31.667879549107383
 21
 75.721332535826832
  0
ENDBLK
  8
0
  0
BLOCK
  8
0
  2
CADWIN-G5
 70
    0
 10
0.0
 20
0.0
  0
LINE
  8
実線-
  6
CONTINUOUS
 62
     3
 10
 38.417879549107383
 20
 76.240947778126809
 11
 42.267879549107377
 21
 76.240947778126809
  0
ENDBLK
  8
0
  0
BLOCK
  8
0
  2
CADWIN-G6
 70
    0
 10
0.0
 20
0.0
  0
CIRCLE
  8
LAYER0
  6
CONTINUOUS
 62
     3
 10
 130.83838857910737
 20
-43.540289989373179
 40
 3
  0
LINE
  8
LAYER0
  6
CONTINUOUS
 62
     3
 10
 130.61588857910741
 20
-41.825969989373178
 11
 130.61588857910741
 21
-43.317785539373176
  0
LINE
  8
LAYER0
  6
CONTINUOUS
 62
     3
 10
 131.06088857910734
 20
-41.825969989373178
 11
 131.06088857910734
 21
-43.317785539373176
  0
LINE
  8
7AN
  6
CENTER
 62
     4
 10
 130.83838857910737
 20
-38.397329989373176
 11
 130.83838857910737
 21
-48.683249989373181
  0
LINE
  8
LAYER0
  6
CONTINUOUS
 62
     3
 10
 131.06088857910734
 20
-45.254609989373179
 11
 130.61588857910741
 21
-45.254609989373179
  0
LINE
  8
LAYER0
  6
CONTINUOUS
 62
     3
 10
 129.12410286490737
 20
-43.317785539373176
 11
 129.12410286490737
 21
-43.762794439373181
  0
LINE
  8
LAYER0
  6
CONTINUOUS
 62
     3
 10
 130.61588857910741
 20
-43.762794439373181
 11
 130.61588857910741
 21
-45.254609989373179
  0
LINE
  8
LAYER0
  6
CONTINUOUS
 62
     3
 10
 129.12410286490737
 20
-43.317785539373176
 11
 130.61588857910741
 21
-43.317785539373176
  0
LINE
  8
LAYER0
  6
CONTINUOUS
 62
     3
 10
 129.12410286490737
 20
-43.762794439373181
 11
 130.61588857910741
 21
-43.762794439373181
  0
LINE
  8
LAYER0
  6
CONTINUOUS
 62
     3
 10
 131.06088857910734
 20
-43.762794439373181
 11
 132.55267429340736
 21
-43.762794439373181
  0
LINE
  8
LAYER0
  6
CONTINUOUS
 62
     3
 10
 131.06088857910734
 20
-43.317785539373176
 11
 132.55267429340736
 21
-43.317785539373176
  0
LINE
  8
LAYER0
  6
CONTINUOUS
 62
     3
 10
 131.06088857910734
 20
-43.762794439373181
 11
 131.06088857910734
 21
-45.254609989373179
  0
LINE
  8
LAYER0
  6
CONTINUOUS
 62
     3
 10
 132.55267429340736
 20
-43.317785539373176
 11
 132.55267429340736
 21
-43.762794439373181
  0
LINE
  8
LAYER0
  6
CONTINUOUS
 62
     3
 10
 131.06088857910734
 20
-41.825969989373178
 11
 130.61588857910741
 21
-41.825969989373178
  0
ENDBLK
  8
0
  0
BLOCK
  8
0
  2
CADWIN-G7
 70
    0
 10
0.0
 20
0.0
  0
LINE
  8
LAYER0
  6
CONTINUOUS
 62
     3
 10
 113.83838857910737
 20
 29.741079265526817
 11
 139.63295562710732
 21
 29.741079265526817
  0
LINE
  8
LAYER0
  6
CONTINUOUS
 62
     3
 10
 113.83838857910737
 20
 39.741394188826817
 11
 113.83838857910737
 21
 29.741079265526817
  0
LINE
  8
LAYER0
  6
CONTINUOUS
 62
     3
 10
 116.33838857910737
 20
 42.241394188826817
 11
 113.83838857910737
 21
 39.741394188826817
  0
ARC
  8
LAYER0
  6
CONTINUOUS
 62
     3
 10
 120.08838857910737
 20
 36.491079265526821
 40
 1.25
 50
 90.000001535234716
 51
-90.00000153523392
  0
LINE
  8
LAYER0
  6
CONTINUOUS
 62
     3
 10
 120.33838857910737
 20
 40.241394188826817
 11
 119.33838857910737
 21
 40.241394188826817
  0
LINE
  8
LAYER0
  6
CONTINUOUS
 62
     3
 10
 117.33838857910737
 20
 42.241394188826817
 11
 116.33838857910737
 21
 42.241394188826817
  0
LINE
  8
LAYER0
  6
CONTINUOUS
 62
     3
 10
 117.33838857910737
 20
 42.241394188826817
 11
 119.33838857910737
 21
 40.241394188826817
  0
LINE
  8
LAYER0
  6
CONTINUOUS
 62
     3
 10
 117.33838857910737
 20
 42.241394188826817
 11
 119.33838857910737
 21
 40.241394188826817
  0
LINE
  8
LAYER0
  6
CONTINUOUS
 62
     3
 10
 123.33838857910737
 20
 42.241394188826817
 11
 122.33838857910737
 21
 42.241394188826817
  0
LINE
  8
LAYER0
  6
CONTINUOUS
 62
     3
 10
 123.33838857910737
 20
 42.241394188826817
 11
 122.33838857910737
 21
 42.241394188826817
  0
LINE
  8
LAYER0
  6
CONTINUOUS
 62
     3
 10
 122.33838857910737
 20
 42.241394188826817
 11
 120.33838857910737
 21
 40.241394188826817
  0
LINE
  8
LAYER0
  6
CONTINUOUS
 62
     3
 10
 119.83838857910737
 20
 66.541481638826809
 11
 119.83838857910737
 21
 59.541166715526828
  0
ARC
  8
LAYER0
  6
CONTINUOUS
 62
     3
 10
 122.83838857910737
 20
 59.541166715526828
 40
 3
 50
-180.00000307046864
 51
-90.00000153523392
  0
LINE
  8
実線-
  6
CONTINUOUS
 62
     3
 10
 124.36343057910739
 20
 76.241987261626832
 11
 123.46343057910738
 21
 75.722372019426814
  0
LINE
  8
実線-
  6
CONTINUOUS
 62
     3
 10
 123.46343057910738
 20
 75.722372019426814
 11
 123.46343057910738
 21
 72.241987261626832
  0
ARC
  8
LAYER0
  6
CONTINUOUS
 62
     3
 10
 140.87221305360737
 20
 46.241394188826817
 40
 5.5
 50
-65.380023786862338
 51
 0
  0
ARC
  8
LAYER0
  6
CONTINUOUS
 62
     3
 10
 139.63295562710732
 20
 46.541079265526818
 40
 16.800000000000001
 50
-90.00000153523392
 51
 0
  0
LINE
  8
LAYER0
  6
CONTINUOUS
 62
     3
 10
 134.33838857910737
 20
 42.241394188826817
 11
 132.33838857910737
 21
 40.241394188826817
  0
LINE
  8
LAYER0
  6
CONTINUOUS
 62
     3
 10
 143.16350090110734
 20
 41.241394188826817
 11
 136.33838857910737
 21
 41.241394188826817
  0
ARC
  8
LAYER0
  6
CONTINUOUS
 62
     3
 10
 142.13295562710732
 20
 52.241481638826826
 40
 14.300000000000001
 50
 0
 51
 90.000001535234716
  0
ARC
  8
LAYER0
  6
CONTINUOUS
 62
     3
 10
 142.07221305360736
 20
 52.241166715526816
 40
 4.2999999999999998
 50
 0
 51
 90.000001535234716
  0
LINE
  8
実線-
  6
CONTINUOUS
 62
     3
 10
 132.21343057910738
 20
 49.241987261626818
 11
 132.21343057910738
 21
 56.541166715526828
  0
LINE
  8
LAYER4
  6
CONTINUOUS
 62
     2
 10
 131.71343057910738
 20
 56.541166715526828
 11
 131.71343057910738
 21
 48.241987261626818
  0
LINE
  8
LAYER4
  6
CONTINUOUS
 62
     2
 10
 126.71343057910738
 20
 56.541166715526828
 11
 126.71343057910738
 21
 48.241987261626818
  0
LINE
  8
実線-
  6
CONTINUOUS
 62
     3
 10
 126.21343057910738
 20
 56.541166715526828
 11
 126.21343057910738
 21
 49.241987261626818
  0
LINE
  8
実線-
  6
CONTINUOUS
 62
     3
 10
 132.21343057910738
 20
 49.241987261626818
 11
 131.21343057910738
 21
 47.241987261626818
  0
LINE
  8
実線-
  6
CONTINUOUS
 62
     3
 10
 127.21343057910738
 20
 47.241987261626818
 11
 126.21343057910738
 21
 49.241987261626818
  0
LINE
  8
実線-
  6
CONTINUOUS
 62
     3
 10
 127.21343057910738
 20
 47.241987261626818
 11
 131.21343057910738
 21
 47.241987261626818
  0
LINE
  8
実線-
  6
CONTINUOUS
 62
     3
 10
 131.21343057910738
 20
 47.241987261626818
 11
 127.21343057910738
 21
 47.241987261626818
  0
LINE
  8
実線-
  6
CONTINUOUS
 62
     3
 10
 132.21343057910738
 20
 49.241987261626818
 11
 126.21343057910738
 21
 49.241987261626818
  0
LINE
  8
LAYER0
  6
CONTINUOUS
 62
     3
 10
 146.37221305360737
 20
 52.241166715526816
 11
 146.37221305360737
 21
 46.241394188826817
  0
LINE
  8
LAYER0
  6
CONTINUOUS
 62
     3
 10
 156.43295562710733
 20
 52.241481638826826
 11
 156.43295562710733
 21
 46.541079265526818
  0
LINE
  8
実線-
  6
CONTINUOUS
 62
     3
 10
 132.21343057910738
 20
 66.541481638826809
 11
 132.21343057910738
 21
 72.241987261626832
  0
LINE
  8
LAYER4
  6
CONTINUOUS
 62
     2
 10
 131.71343057910738
 20
 71.375961857926825
 11
 131.71343057910738
 21
 66.541481638826809
  0
ARC
  8
実線-
  6
CONTINUOUS
 62
     3
 10
 123.21343057910738
 20
 66.821925602726822
 40
 8.9200616589999999
 50
 70.347141568293026
 51
 88.223381999228835
  0
LINE
  8
実線-
  6
CONTINUOUS
 62
     3
 10
 128.21343057910738
 20
 76.241987261626832
 11
 124.36343057910739
 21
 76.241987261626832
  0
LINE
  8
実線-
  6
CONTINUOUS
 62
     3
 10
 123.46343057910738
 20
 72.241987261626832
 11
 134.96343057910738
 21
 72.241987261626832
  0
LINE
  8
LAYER0
  6
CONTINUOUS
 62
     3
 10
 129.58838857910737
 20
 37.741079265526821
 11
 120.08838857910737
 21
 37.741079265526821
  0
LINE
  8
LAYER0
  6
CONTINUOUS
 62
     3
 10
 120.08838857910737
 20
 35.241079265526821
 11
 129.58838857910737
 21
 35.241079265526821
  0
LINE
  8
LAYER0
  6
CONTINUOUS
 62
     3
 10
 123.33838857910737
 20
 42.241394188826817
 11
 125.33838857910737
 21
 40.241394188826817
  0
LINE
  8
LAYER0
  6
CONTINUOUS
 62
     3
 10
 122.83838857910737
 20
 56.541166715526828
 11
 142.07221305360736
 21
 56.541166715526828
  0
LINE
  8
LAYER0
  6
CONTINUOUS
 62
     3
 10
 119.83838857910737
 20
 66.541481638826809
 11
 142.13295562710732
 21
 66.541481638826809
  0
LINE
  8
LAYER4
  6
CONTINUOUS
 62
     2
 10
 126.71343057910738
 20
 71.375961857926825
 11
 126.71343057910738
 21
 66.541481638826809
  0
LINE
  8
実線-
  6
CONTINUOUS
 62
     3
 10
 126.21343057910738
 20
 72.241987261626832
 11
 126.21343057910738
 21
 66.541481638826809
  0
LINE
  8
実線-
  6
CONTINUOUS
 62
     3
 10
 134.0634305791074
 20
 76.241987261626832
 11
 130.21343057910738
 21
 76.241987261626832
  0
ARC
  8
実線-
  6
CONTINUOUS
 62
     3
 10
 129.21343057910738
 20
 66.821925602726822
 40
 8.9200616589999999
 50
 70.347141568293026
 51
 84.438358361963296
  0
LINE
  8
実線-
  6
CONTINUOUS
 62
     3
 10
 132.21343057910738
 20
 71.375961857926825
 11
 126.21343057910738
 21
 71.375961857926825
  0
LINE
  8
実線-
  6
CONTINUOUS
 62
     3
 10
 132.21343057910738
 20
 72.241987261626832
 11
 126.21343057910738
 21
 72.241987261626832
  0
LINE
  8
実線-
  6
CONTINUOUS
 62
     3
 10
 129.71343057910738
 20
 74.241987261626832
 11
 128.71343057910738
 21
 74.241987261626832
  0
LINE
  8
実線-
  6
CONTINUOUS
 62
     3
 10
 128.71343057910738
 20
 74.241987261626832
 11
 128.21343057910738
 21
 76.241987261626832
  0
LINE
  8
実線-
  6
CONTINUOUS
 62
     3
 10
 130.21343057910738
 20
 76.241987261626832
 11
 129.71343057910738
 21
 74.241987261626832
  0
ARC
  8
実線-
  6
CONTINUOUS
 62
     3
 10
 129.21343057910738
 20
 66.821925602726822
 40
 8.9200616589999999
 50
 95.561644708506137
 51
 109.65286150217639
  0
LINE
  8
LAYER4
  6
CONTINUOUS
 62
     2
 10
 126.21343057910738
 20
 72.241987261626832
 11
 126.71343057910738
 21
 71.375961857926825
  0
LINE
  8
実線-
  6
CONTINUOUS
 62
     3
 10
 126.21343057910738
 20
 72.241987261626832
 11
 126.21343057910738
 21
 75.222372019426814
  0
ARC
  8
実線-
  6
CONTINUOUS
 62
     3
 10
 135.21343057910738
 20
 66.821925602726822
 40
 8.9200616589999999
 50
 91.776621071240569
 51
 109.65286150217639
  0
LINE
  8
実線-
  6
CONTINUOUS
 62
     3
 10
 134.0634305791074
 20
 76.241987261626832
 11
 134.96343057910738
 21
 75.722372019426814
  0
LINE
  8
LAYER4
  6
CONTINUOUS
 62
     2
 10
 132.21343057910738
 20
 72.241987261626832
 11
 131.71343057910738
 21
 71.375961857926825
  0
LINE
  8
実線-
  6
CONTINUOUS
 62
     3
 10
 134.96343057910738
 20
 72.241987261626832
 11
 134.96343057910738
 21
 75.722372019426814
  0
LINE
  8
実線-
  6
CONTINUOUS
 62
     3
 10
 132.21343057910738
 20
 72.241987261626832
 11
 132.21343057910738
 21
 75.222372019426814
  0
LINE
  8
LAYER0
  6
CONTINUOUS
 62
     3
 10
 135.33838857910737
 20
 42.241394188826817
 11
 136.33838857910737
 21
 41.241394188826817
  0
ARC
  8
LAYER0
  6
CONTINUOUS
 62
     3
 10
 129.58838857910737
 20
 36.491079265526821
 40
 1.25
 50
-90.00000153523392
 51
 90.000001535234716
  0
LINE
  8
LAYER0
  6
CONTINUOUS
 62
     3
 10
 129.33838857910737
 20
 42.241394188826817
 11
 131.33838857910737
 21
 40.241394188826817
  0
LINE
  8
LAYER0
  6
CONTINUOUS
 62
     3
 10
 129.33838857910737
 20
 42.241394188826817
 11
 128.33838857910737
 21
 42.241394188826817
  0
LINE
  8
LAYER0
  6
CONTINUOUS
 62
     3
 10
 126.33838857910737
 20
 40.241394188826817
 11
 125.33838857910737
 21
 40.241394188826817
  0
LINE
  8
LAYER0
  6
CONTINUOUS
 62
     3
 10
 128.33838857910737
 20
 42.241394188826817
 11
 126.33838857910737
 21
 40.241394188826817
  0
LINE
  8
LAYER0
  6
CONTINUOUS
 62
     3
 10
 135.33838857910737
 20
 42.241394188826817
 11
 134.33838857910737
 21
 42.241394188826817
  0
LINE
  8
LAYER0
  6
CONTINUOUS
 62
     3
 10
 132.33838857910737
 20
 40.241394188826817
 11
 131.33838857910737
 21
 40.241394188826817
  0
ENDBLK
  8
0
  0
BLOCK
  8
0
  2
CADWIN-G8
 70
    0
 10
0.0
 20
0.0
  0
LINE
  8
7A
  6
CONTINUOUS
 62
     3
 10
-181.60604891009797
 20
 21.987087138498083
 11
-185.58415785579797
 21
 20.133537203298062
  0
LINE
  8
LAYER7
  6
CONTINUOUS
 62
     2
 10
-179.10592019949797
 20
 21.987085138498088
 11
-179.10592019949797
 21
 19.987083138498065
  0
LINE
  8
LAYER7
  6
CONTINUOUS
 62
     2
 10
-165.10592019949797
 20
 21.987085138498088
 11
-165.10592019949797
 21
 19.987083138498065
  0
LINE
  8
7A
  6
CONTINUOUS
 62
     3
 10
-176.10593491009797
 20
 48.987085138498088
 11
-168.10593491009797
 21
 48.987085138498088
  0
LINE
  8
7A
  6
CONTINUOUS
 62
     3
 10
-181.60604891009797
 20
 50.987079138498046
 11
-185.58415785579797
 21
 52.84062907359808
  0
LINE
  8
7A
  6
CONTINUOUS
 62
     3
 10
-175.10593491009797
 20
 47.986928138498087
 11
-176.60591991009798
 21
 47.986928138498087
  0
ENDBLK
  8
0
  0
BLOCK
  8
0
  2
CADWIN-G9
 70
    0
 10
0.0
 20
0.0
  0
LINE
  8
7A
  6
CONTINUOUS
 62
     3
 10
-175.10593491009797
 20
 52.987079138498046
 11
-175.10593491009797
 21
 61.670098423398059
  0
LINE
  8
7A
  6
CONTINUOUS
 62
     3
 10
-175.10593491009797
 20
 61.670098423398059
 11
-169.10593491009797
 21
 61.670098423398059
  0
LINE
  8
7A
  6
CONTINUOUS
 62
     3
 10
-169.10593491009797
 20
 61.670098423398059
 11
-169.10593491009797
 21
 52.987079138498046
  0
ENDBLK
  8
0
  0
BLOCK
  8
0
  2
CADWIN-G10
 70
    0
 10
0.0
 20
0.0
  0
LINE
  8
7A
  6
CONTINUOUS
 62
     3
 10
-176.60592019949797
 20
 25.687085138498077
 11
-174.10592019949797
 21
 25.687085138498077
  0
ENDBLK
  8
0
  0
BLOCK
  8
0
  2
CADWIN-G11
 70
    0
 10
0.0
 20
0.0
  0
LINE
  8
7A
  6
CONTINUOUS
 62
     3
 10
-170.10592019949797
 20
 25.687085138498077
 11
-167.60592019949797
 21
 25.687085138498077
  0
ENDBLK
  8
0
  0
BLOCK
  8
0
  2
CADWIN-G12
 70
    0
 10
0.0
 20
0.0
  0
LINE
  8
7A
  6
CONTINUOUS
 62
     3
 10
-169.10593491009797
 20
 48.987085138498088
 11
-169.10593491009797
 21
 38.670098423398059
  0
ENDBLK
  8
0
  0
BLOCK
  8
0
  2
CADWIN-G13
 70
    0
 10
0.0
 20
0.0
  0
LINE
  8
7A
  6
CONTINUOUS
 62
     3
 10
-175.10593491009797
 20
 38.670098423398059
 11
-175.10593491009797
 21
 48.987085138498088
  0
ENDBLK
  8
0
  0
BLOCK
  8
0
  2
CADWIN-G14
 70
    0
 10
0.0
 20
0.0
  0
LINE
  8
7A
  6
CONTINUOUS
 62
     3
 10
-170.10593491009797
 20
 36.670098423398059
 11
-174.10593491009797
 21
 36.670098423398059
  0
ENDBLK
  8
0
  0
BLOCK
  8
0
  2
CADWIN-G15
 70
    0
 10
0.0
 20
0.0
  0
LINE
  8
7A
  6
CONTINUOUS
 62
     3
 10
-167.60591991009798
 20
 47.986928138498087
 11
-169.10593491009797
 21
 47.986928138498087
  0
ENDBLK
  8
0
  0
BLOCK
  8
0
  2
CADWIN-G16
 70
    0
 10
0.0
 20
0.0
  0
LINE
  8
7A
  6
CONTINUOUS
 62
     3
 10
-166.35593491009797
 20
 65.150483181098053
 11
-166.35593491009797
 21
 61.670098423398059
  0
LINE
  8
7A
  6
CONTINUOUS
 62
     3
 10
-166.35593491009797
 20
 61.670098423398059
 11
-177.85593491009797
 21
 61.670098423398059
  0
LINE
  8
7A
  6
CONTINUOUS
 62
     3
 10
-177.85593491009797
 20
 61.670098423398059
 11
-177.85593491009797
 21
 65.150483181098053
  0
ENDBLK
  8
0
  0
BLOCK
  8
0
  2
CADWIN-G17
 70
    0
 10
0.0
 20
0.0
  0
LINE
  8
7A
  6
CONTINUOUS
 62
     3
 10
-176.95593491009797
 20
 65.670098423398059
 11
-173.10593491009797
 21
 65.670098423398059
  0
ENDBLK
  8
0
  0
BLOCK
  8
0
  2
CADWIN-G18
 70
    0
 10
0.0
 20
0.0
  0
LINE
  8
7A
  6
CONTINUOUS
 62
     3
 10
-171.10593491009797
 20
 65.670098423398059
 11
-167.25593491009798
 21
 65.670098423398059
  0
ENDBLK
  8
0
  0
BLOCK
  8
0
  2
CADWIN-G19
 70
    0
 10
0.0
 20
0.0
  0
LINE
  8
7AN
  6
CENTER
 62
     4
 10
-81.056773289197963
 20
-56.456505169701984
 11
-70.771059003497953
 21
-56.456505169701984
  0
CIRCLE
  8
7A
  6
CONTINUOUS
 62
     3
 10
-75.913916146297993
 20
-56.456505169701984
 40
 3
  0
LINE
  8
7A
  6
CONTINUOUS
 62
     3
 10
-76.136416146297961
 20
-54.742185169701941
 11
-76.136416146297961
 21
-56.234000719701896
  0
LINE
  8
7A
  6
CONTINUOUS
 62
     3
 10
-75.691416146297968
 20
-54.742185169701941
 11
-75.691416146297968
 21
-56.234000719701896
  0
LINE
  8
7AN
  6
CENTER
 62
     4
 10
-75.913916146297993
 20
-51.313545169701968
 11
-75.913916146297993
 21
-61.599465169701887
  0
LINE
  8
7A
  6
CONTINUOUS
 62
     3
 10
-75.691416146297968
 20
-58.170825169701914
 11
-76.136416146297961
 21
-58.170825169701914
  0
LINE
  8
7A
  6
CONTINUOUS
 62
     3
 10
-77.628201860597983
 20
-56.234000719701896
 11
-77.628201860597983
 21
-56.679009619701958
  0
LINE
  8
7A
  6
CONTINUOUS
 62
     3
 10
-76.136416146297961
 20
-56.679009619701958
 11
-76.136416146297961
 21
-58.170825169701914
  0
LINE
  8
7A
  6
CONTINUOUS
 62
     3
 10
-77.628201860597983
 20
-56.234000719701896
 11
-76.136416146297961
 21
-56.234000719701896
  0
LINE
  8
7A
  6
CONTINUOUS
 62
     3
 10
-77.628201860597983
 20
-56.679009619701958
 11
-76.136416146297961
 21
-56.679009619701958
  0
LINE
  8
7A
  6
CONTINUOUS
 62
     3
 10
-75.691416146297968
 20
-56.679009619701958
 11
-74.199630432097933
 21
-56.679009619701958
  0
LINE
  8
7A
  6
CONTINUOUS
 62
     3
 10
-75.691416146297968
 20
-56.234000719701896
 11
-74.199630432097933
 21
-56.234000719701896
  0
LINE
  8
7A
  6
CONTINUOUS
 62
     3
 10
-75.691416146297968
 20
-56.679009619701958
 11
-75.691416146297968
 21
-58.170825169701914
  0
LINE
  8
7A
  6
CONTINUOUS
 62
     3
 10
-74.199630432097933
 20
-56.234000719701896
 11
-74.199630432097933
 21
-56.679009619701958
  0
LINE
  8
7A
  6
CONTINUOUS
 62
     3
 10
-75.691416146297968
 20
-54.742185169701941
 11
-76.136416146297961
 21
-54.742185169701941
  0
ENDBLK
  8
0
  0
BLOCK
  8
0
  2
CADWIN-G20
 70
    0
 10
0.0
 20
0.0
  0
LINE
  8
4N
  6
CONTINUOUS
 62
     2
 10
-73.914116146297943
 20
 61.670098423398059
 11
-74.414116146297943
 21
 60.804073019598064
  0
LINE
  8
7A
  6
CONTINUOUS
 62
     3
 10
-73.914116146297943
 20
 60.804073019598064
 11
-79.914116146297943
 21
 60.804073019598064
  0
LINE
  8
7A
  6
CONTINUOUS
 62
     3
 10
-73.914116146297943
 20
 54.987021463498053
 11
-73.914116146297943
 21
 61.670098423398059
  0
LINE
  8
7A
  6
CONTINUOUS
 62
     3
 10
-73.914116146297943
 20
 61.670098423398059
 11
-79.914116146297943
 21
 61.670098423398059
  0
LINE
  8
7A
  6
CONTINUOUS
 62
     3
 10
-79.914116146297943
 20
 61.670098423398059
 11
-79.914116146297943
 21
 54.987021463498053
  0
ENDBLK
  8
0
  0
BLOCK
  8
0
  2
CADWIN-G21
 70
    0
 10
0.0
 20
0.0
  0
LINE
  8
7A
  6
CONTINUOUS
 62
     3
 10
-79.914116146297943
 20
 45.113723193898039
 11
-79.914116146297943
 21
 38.670098423398059
  0
ENDBLK
  8
0
  0
BLOCK
  8
0
  2
CADWIN-G22
 70
    0
 10
0.0
 20
0.0
  0
LINE
  8
7A
  6
CONTINUOUS
 62
     3
 10
-76.714116146297954
 20
 23.986706540098083
 11
-85.714116146297954
 21
 23.986706540098083
  0
ENDBLK
  8
0
  0
BLOCK
  8
0
  2
CADWIN-G23
 70
    0
 10
0.0
 20
0.0
  0
LINE
  8
7A
  6
CONTINUOUS
 62
     3
 10
-76.714116146297954
 20
 20.986706540098083
 11
-85.714116146297954
 21
 20.986706540098083
  0
ENDBLK
  8
0
  0
BLOCK
  8
0
  2
CADWIN-G24
 70
    0
 10
0.0
 20
0.0
  0
LINE
  8
7A
  6
CONTINUOUS
 62
     3
 10
-78.914116146297943
 20
 36.670098423398059
 11
-74.914116146297943
 21
 36.670098423398059
  0
ENDBLK
  8
0
  0
BLOCK
  8
0
  2
CADWIN-G25
 70
    0
 10
0.0
 20
0.0
  0
LINE
  8
7A
  6
CONTINUOUS
 62
     3
 10
-82.664116146297943
 20
 65.150483181098053
 11
-82.664116146297943
 21
 61.670098423398059
  0
LINE
  8
7A
  6
CONTINUOUS
 62
     3
 10
-82.664116146297943
 20
 61.670098423398059
 11
-71.164116146297943
 21
 61.670098423398059
  0
LINE
  8
7A
  6
CONTINUOUS
 62
     3
 10
-71.164116146297943
 20
 61.670098423398059
 11
-71.164116146297943
 21
 65.150483181098053
  0
ENDBLK
  8
0
  0
BLOCK
  8
0
  2
CADWIN-G26
 70
    0
 10
0.0
 20
0.0
  0
LINE
  8
7A
  6
CONTINUOUS
 62
     3
 10
-73.914116146297943
 20
 38.670098423398059
 11
-73.914116146297943
 21
 44.986706540098083
  0
ENDBLK
  8
0
  0
BLOCK
  8
0
  2
CADWIN-G27
 70
    0
 10
0.0
 20
0.0
  0
LINE
  8
7A
  6
CONTINUOUS
 62
     3
 10
-72.064116146297977
 20
 65.670098423398059
 11
-75.914116146297943
 21
 65.670098423398059
  0
ENDBLK
  8
0
  0
BLOCK
  8
0
  2
CADWIN-G28
 70
    0
 10
0.0
 20
0.0
  0
LINE
  8
7A
  6
CONTINUOUS
 62
     3
 10
-77.914116146297943
 20
 65.670098423398059
 11
-81.764116146297965
 21
 65.670098423398059
  0
ENDBLK
  8
0
  0
ENDSEC
  0
SECTION
  2
ENTITIES
  0
LINE
  8
7A
  6
CENTER
 62
     4
 10
 175.83838857910735
 20
-37.201962389773186
 11
 175.83838857910735
 21
-30.351482573773183
  0
CIRCLE
  8
LAYER0
  6
CONTINUOUS
 62
     3
 10
 155.83838857910735
 20
-34.040289989373179
 40
 1.621
  0
ARC
  8
LAYER4
  6
CONTINUOUS
 62
     2
 10
 155.83838857910735
 20
-34.040289989373179
 40
 2
 50
-0.0100000001697808
 51
-0.0200000003403618
  0
LINE
  8
7A
  6
CENTER
 62
     4
 10
 151.33838857910735
 20
-47.062637146273175
 11
 151.33838857910735
 21
-40.051699273773181
  0
LINE
  8
7A
  6
CENTER
 62
     4
 10
 155.83838857910735
 20
-37.877139957873183
 11
 155.83838857910735
 21
-30.351482573773183
  0
LINE
  8
7A
  6
CENTER
 62
     4
 10
 151.55624661500735
 20
-34.040223604573185
 11
 179.70006589210738
 21
-34.041042275073181
  0
ARC
  8
LAYER0
  6
CONTINUOUS
 62
     3
 10
 177.33838857910735
 20
-55.540289989373179
 40
 3
 50
-90.00000153523392
 51
 0
  0
LINE
  8
7A
  6
CENTER
 62
     4
 10
 157.83838857910735
 20
-56.646648918173184
 11
 157.83838857910735
 21
-49.468281239873178
  0
CIRCLE
  8
LAYER0
  6
CONTINUOUS
 62
     3
 10
 157.83838857910735
 20
-53.040289989373179
 40
 1.621
  0
ARC
  8
LAYER4
  6
CONTINUOUS
 62
     2
 10
 157.83838857910735
 20
-53.040289989373179
 40
 2
 50
-0.0100000001697808
 51
-0.0200000003403618
  0
LINE
  8
LAYER0
  6
CONTINUOUS
 62
     3
 10
 180.33838857910735
 20
-31.540289989373179
 11
 180.33838857910735
 21
-55.540289989373179
  0
LINE
  8
4N
  6
CONTINUOUS
 62
     2
 10
 129.26788857910739
 20
 37.391079265526827
 11
 129.26788857910739
 21
 37.741079265526821
  0
LINE
  8
LAYER0
  6
CONTINUOUS
 62
     3
 10
 128.83838857910737
 20
 37.391079265526827
 11
 128.83838857910737
 21
 37.741079265526821
  0
LINE
  8
LAYER0
  6
CONTINUOUS
 62
     3
 10
 124.33838857910737
 20
 37.391079265526827
 11
 124.33838857910737
 21
 35.241079265526821
  0
LINE
  8
LAYER0
  6
CONTINUOUS
 62
     3
 10
 124.33838857910737
 20
 37.391079265526827
 11
 130.4558561578074
 21
 37.391079265526827
  0
LINE
  8
LAYER0
  6
CONTINUOUS
 62
     3
 10
 113.83838857910737
 20
 26.741079265526817
 11
 113.83838857910737
 21
 29.741079265526817
  0
ARC
  8
LAYER0
  6
CONTINUOUS
 62
     3
 10
 41.111589803407369
 20
 59.679691688026821
 40
 0.8062897457
 50
-90.00000153523392
 51
 77.00335308213576
  0
LINE
  8
LAYER0
  6
CONTINUOUS
 62
     3
 10
 39.417879549107383
 20
 37.391079265526827
 11
 39.417879549107383
 21
 38.791079265526818
  0
LINE
  8
4N
  6
CONTINUOUS
 62
     2
 10
 38.988379549107364
 20
 37.391079265526827
 11
 38.988379549107364
 21
 38.791079265526818
  0
ARC
  8
LAYER0
  6
CONTINUOUS
 62
     3
 10
 40.822765351307382
 20
 37.806460380426827
 40
 1.0951141978000001
 50
-22.290573296735488
 51
 90.000001535234716
  0
LINE
  8
LAYER0
  6
CONTINUOUS
 62
     3
 10
 39.417879549107383
 20
 29.741079265526817
 11
 39.417879549107383
 21
 32.891079265526827
  0
LINE
  8
4N
  6
CONTINUOUS
 62
     2
 10
 38.988379549107364
 20
 29.741079265526817
 11
 38.988379549107364
 21
 32.891079265526827
  0
LINE
  8
LAYER0
  6
CONTINUOUS
 62
     3
 10
 52.417879549107383
 20
 26.741079265526817
 11
 52.417879549107383
 21
 29.741079265526817
  0
LINE
  8
LAYER0
  6
CONTINUOUS
 62
     3
 10
 35.417879549107383
 20
 37.391079265526827
 11
 35.417879549107383
 21
 38.791079265526818
  0
LINE
  8
4N
  6
CONTINUOUS
 62
     2
 10
 35.847379549107373
 20
 37.391079265526827
 11
 35.847379549107373
 21
 38.791079265526818
  0
ARC
  8
LAYER0
  6
CONTINUOUS
 62
     3
 10
 34.012993746907384
 20
 37.806460380426827
 40
 1.0951141978000001
 50
 90.000001535234716
 51
-157.70942977373238
  0
LINE
  8
4N
  6
CONTINUOUS
 62
     2
 10
 35.847379549107373
 20
 29.741079265526817
 11
 35.847379549107373
 21
 32.891079265526827
  0
LINE
  8
LAYER0
  6
CONTINUOUS
 62
     3
 10
 35.417879549107383
 20
 29.741079265526817
 11
 35.417879549107383
 21
 32.891079265526827
  0
LINE
  8
LAYER0
  6
CONTINUOUS
 62
     3
 10
 26.167879549107383
 20
 37.391079265526827
 11
 26.167879549107383
 21
 34.891079265526827
  0
LINE
  8
LAYER0
  6
CONTINUOUS
 62
     3
 10
 48.667879549107383
 20
 37.391079265526827
 11
 48.667879549107383
 21
 34.891079265526827
  0
LINE
  8
LAYER0
  6
CONTINUOUS
 62
     3
 10
 35.417879549107383
 20
 38.791079265526818
 11
 39.417879549107383
 21
 38.791079265526818
  0
LINE
  8
LAYER0
  6
CONTINUOUS
 62
     3
 10
 34.012993746907384
 20
 38.901574578226828
 11
 40.822765351307382
 21
 38.901574578226828
  0
LINE
  8
LAYER7
  6
CENTER
 62
     4
 10
 37.417879549107383
 20
 23.741079265526817
 11
 37.417879549107383
 21
 80.741079265526821
  0
LINE
  8
LAYER7
  6
CENTER
 62
     4
 10
 129.21343057910738
 20
 45.297276945026823
 11
 129.21343057910738
 21
 78.638720830626823
  0
LINE
  8
実線-
  6
CONTINUOUS
 62
     3
 10
 42.267879549107377
 20
 76.240947778126809
 11
 43.167879549107383
 21
 75.721332535826832
  0
LINE
  8
実線-
  6
CONTINUOUS
 62
     3
 10
 40.417879549107383
 20
 59.390442155326824
 11
 40.417879549107383
 21
 49.240947778126824
  0
LINE
  8
LAYER4
  6
CONTINUOUS
 62
     2
 10
 39.917879549107383
 20
 59.390442155326824
 11
 39.917879549107383
 21
 48.240947778126824
  0
LINE
  8
実線-
  6
CONTINUOUS
 62
     3
 10
 34.417879549107383
 20
 49.240947778126824
 11
 34.417879549107383
 21
 59.390442155326824
  0
LINE
  8
LAYER4
  6
CONTINUOUS
 62
     2
 10
 34.917879549107383
 20
 59.390442155326824
 11
 34.917879549107383
 21
 48.240947778126824
  0
LINE
  8
実線-
  6
CONTINUOUS
 62
     3
 10
 39.417879549107383
 20
 47.240947778126824
 11
 40.417879549107383
 21
 49.240947778126824
  0
LINE
  8
実線-
  6
CONTINUOUS
 62
     3
 10
 34.417879549107383
 20
 49.240947778126824
 11
 35.417879549107383
 21
 47.240947778126824
  0
LINE
  8
実線-
  6
CONTINUOUS
 62
     3
 10
 35.417879549107383
 20
 47.240947778126824
 11
 39.417879549107383
 21
 47.240947778126824
  0
LINE
  8
実線-
  6
CONTINUOUS
 62
     3
 10
 34.417879549107383
 20
 49.240947778126824
 11
 40.417879549107383
 21
 49.240947778126824
  0
ARC
  8
実線-
  6
CONTINUOUS
 62
     3
 10
 31.417879549107383
 20
 66.820886119126811
 40
 8.9200616589999999
 50
 70.347141568293026
 51
 88.223381999228835
  0
ARC
  8
実線-
  6
CONTINUOUS
 62
     3
 10
 43.417879549107383
 20
 66.820886119126811
 40
 8.9200616589999999
 50
 91.776621071240569
 51
 109.65286150217639
  0
ARC
  8
実線-
  6
CONTINUOUS
 62
     3
 10
 37.417879549107383
 20
 66.820886119126811
 40
 8.9200616589999999
 50
 95.561644708506137
 51
 109.65286150217639
  0
ARC
  8
実線-
  6
CONTINUOUS
 62
     3
 10
 37.417879549107383
 20
 66.820886119126811
 40
 8.9200616589999999
 50
 70.347141568293026
 51
 84.438358361963296
  0
LINE
  8
実線-
  6
CONTINUOUS
 62
     3
 10
 37.917879549107383
 20
 74.240947778126809
 11
 38.417879549107383
 21
 76.240947778126809
  0
LINE
  8
実線-
  6
CONTINUOUS
 62
     3
 10
 36.417879549107383
 20
 76.240947778126809
 11
 36.917879549107383
 21
 74.240947778126809
  0
LINE
  8
実線-
  6
CONTINUOUS
 62
     3
 10
 40.417879549107383
 20
 72.240947778126809
 11
 40.417879549107383
 21
 63.390947778126815
  0
LINE
  8
LAYER4
  6
CONTINUOUS
 62
     2
 10
 39.917879549107383
 20
 71.374922374326815
 11
 39.917879549107383
 21
 63.390947778126815
  0
LINE
  8
実線-
  6
CONTINUOUS
 62
     3
 10
 34.417879549107383
 20
 63.390947778126815
 11
 34.417879549107383
 21
 72.240947778126809
  0
LINE
  8
LAYER4
  6
CONTINUOUS
 62
     2
 10
 34.917879549107383
 20
 71.374922374326815
 11
 34.917879549107383
 21
 63.390947778126815
  0
LINE
  8
LAYER4
  6
CONTINUOUS
 62
     2
 10
 40.417879549107383
 20
 72.240947778126809
 11
 39.917879549107383
 21
 71.374922374326815
  0
LINE
  8
LAYER4
  6
CONTINUOUS
 62
     2
 10
 34.417879549107383
 20
 72.240947778126809
 11
 34.917879549107383
 21
 71.374922374326815
  0
LINE
  8
実線-
  6
CONTINUOUS
 62
     3
 10
 34.417879549107383
 20
 71.374922374326815
 11
 40.417879549107383
 21
 71.374922374326815
  0
LINE
  8
実線-
  6
CONTINUOUS
 62
     3
 10
 34.417879549107383
 20
 72.240947778126809
 11
 40.417879549107383
 21
 72.240947778126809
  0
LINE
  8
実線-
  6
CONTINUOUS
 62
     3
 10
 34.417879549107383
 20
 72.240947778126809
 11
 34.417879549107383
 21
 75.221332535826832
  0
LINE
  8
実線-
  6
CONTINUOUS
 62
     3
 10
 40.417879549107383
 20
 72.240947778126809
 11
 40.417879549107383
 21
 75.221332535826832
  0
LINE
  8
実線-
  6
CONTINUOUS
 62
     3
 10
 36.917879549107383
 20
 74.240947778126809
 11
 37.917879549107383
 21
 74.240947778126809
  0
LINE
  8
LAYER0
  6
CONTINUOUS
 62
     3
 10
 22.41787954920737
 20
 26.741079265526817
 11
 22.41787954920737
 21
 29.741079265526817
  0
LINE
  8
LAYER0
  6
CONTINUOUS
 62
     3
 10
 52.417879549107383
 20
 29.741079265526817
 11
 22.41787954920737
 21
 29.741079265526817
  0
LINE
  8
LAYER0
  6
CONTINUOUS
 62
     3
 10
 22.41787954920737
 20
 26.741079265526817
 11
 52.417879549107383
 21
 26.741079265526817
  0
LINE
  8
LAYER0
  6
CONTINUOUS
 62
     3
 10
 180.33838857910735
 20
 29.741079265526817
 11
 180.33838857910735
 21
 26.741079265526817
  0
ARC
  8
LAYER0
  6
CONTINUOUS
 62
     3
 10
 177.33838857910735
 20
-31.540289989373179
 40
 3
 50
 0.0000000000008142
 51
 90.000001535234716
  0
ARC
  8
LAYER4
  6
CONTINUOUS
 62
     2
 10
 175.83838857910735
 20
-34.040289989373179
 40
 2
 50
-0.0100000001697808
 51
-0.0200000003403618
  0
CIRCLE
  8
LAYER0
  6
CONTINUOUS
 62
     3
 10
 175.83838857910735
 20
-34.040289989373179
 40
 1.621
  0
CIRCLE
  8
LAYER0
  6
CONTINUOUS
 62
     3
 10
 144.83838857910735
 20
-43.540289989373179
 40
 2.25
  0
CIRCLE
  8
LAYER0
  6
CONTINUOUS
 62
     3
 10
 130.83838857910737
 20
-43.540289989373179
 40
 3.25
  0
CIRCLE
  8
LAYER0
  6
CONTINUOUS
 62
     3
 10
 123.83838857910737
 20
-43.540289989373179
 40
 3.25
  0
LINE
  8
7A
  6
CENTER
 62
     4
 10
 137.83838857910737
 20
-56.826722035073175
 11
 137.83838857910737
 21
-49.751298268773184
  0
ARC
  8
LAYER4
  6
CONTINUOUS
 62
     2
 10
 137.83838857910737
 20
-53.040289989373179
 40
 2
 50
-0.0100000001697808
 51
-0.0200000003403618
  0
CIRCLE
  8
LAYER0
  6
CONTINUOUS
 62
     3
 10
 137.83838857910737
 20
-53.040289989373179
 40
 1.621
  0
LINE
  8
7A
  6
CENTER
 62
     4
 10
 123.83838857910737
 20
-38.540289989373179
 11
 123.83838857910737
 21
-48.540289989373179
  0
LINE
  8
7A
  6
CENTER
 62
     4
 10
 144.83838857910735
 20
-38.540289989373179
 11
 144.83838857910735
 21
-48.540289989373179
  0
ARC
  8
LAYER0
  6
CONTINUOUS
 62
     3
 10
 116.83838857910737
 20
-31.540289989373179
 40
 3
 50
 90.000001535234716
 51
-180.00000307046864
  0
ARC
  8
LAYER0
  6
CONTINUOUS
 62
     3
 10
 116.83838857910737
 20
-55.540289989373179
 40
 3
 50
-180.00000307046864
 51
-90.00000153523392
  0
LINE
  8
LAYER0
  6
CONTINUOUS
 62
     3
 10
 113.83838857910737
 20
-55.540289989373179
 11
 113.83838857910737
 21
-31.540289989373179
  0
LINE
  8
LAYER0
  6
CONTINUOUS
 62
     3
 10
 180.33838857910735
 20
 29.741079265526817
 11
 113.83838857910737
 21
 29.741079265526817
  0
LINE
  8
LAYER0
  6
CONTINUOUS
 62
     3
 10
 180.33838857910735
 20
 26.741079265526817
 11
 113.83838857910737
 21
 26.741079265526817
  0
ARC
  8
LAYER4
  6
CONTINUOUS
 62
     2
 10
 151.33838857910735
 20
-43.540289989373179
 40
 2
 50
-0.0100000001697808
 51
-0.0200000003403618
  0
CIRCLE
  8
LAYER0
  6
CONTINUOUS
 62
     3
 10
 151.33838857910735
 20
-43.540289989373179
 40
 1.621
  0
LINE
  8
LAYER0
  6
CONTINUOUS
 62
     3
 10
 177.33838845730736
 20
-28.540289989373179
 11
 116.83838857910737
 21
-28.540289989373179
  0
LINE
  8
LAYER0
  6
CONTINUOUS
 62
     3
 10
 177.33838845730736
 20
-58.540289989373179
 11
 116.83838857910737
 21
-58.540289989373179
  0
LINE
  8
7A
  6
CENTER
 62
     4
 10
 161.61699899210737
 20
-53.040289989373179
 11
 133.84699059430741
 21
-53.040289989373179
  0
LINE
  8
7A
  6
CENTER
 62
     4
 10
 111.72280939030739
 20
-43.540289989373179
 11
 182.78631271330738
 21
-43.540289989373179
  0
LINE
  8
LAYER0
  6
CONTINUOUS
 62
     3
 10
 40.417879549107383
 20
 58.873401942326822
 11
 41.111589803407369
 21
 58.873401942326822
  0
LINE
  8
LAYER0
  6
CONTINUOUS
 62
     3
 10
 33.724169294807368
 20
 58.873401942326822
 11
 34.417879549107383
 21
 58.873401942326822
  0
ARC
  8
LAYER0
  6
CONTINUOUS
 62
     3
 10
 33.724169294807368
 20
 59.679691688026821
 40
 0.8062897457
 50
 122.3340505329942
 51
-90.00000153523392
  0
TEXT
  8
LAYER0
  6
CONTINUOUS
 62
     7
 10
 181.52956118219538
 20
-69.470468083391879
 11
 197.63482418219539
 21
-69.470468083391864
 40
 3.35526312
 41
 0.8
  1
Ｍ４TAP
 50
 0
 72
  5
  0
CIRCLE
  8
LAYER0
  6
CONTINUOUS
 62
     3
 10
 144.83838857910735
 20
-43.540289989373179
 40
 3.25
  0
INSERT
  8
0
  2
CADWIN-G0
 10
0.0
 20
0.0
  0
INSERT
  8
0
  2
CADWIN-G1
 10
0.0
 20
0.0
  0
INSERT
  8
0
  2
CADWIN-G2
 10
0.0
 20
0.0
  0
INSERT
  8
0
  2
CADWIN-G3
 10
0.0
 20
0.0
  0
INSERT
  8
0
  2
CADWIN-G4
 10
0.0
 20
0.0
  0
INSERT
  8
0
  2
CADWIN-G5
 10
0.0
 20
0.0
  0
INSERT
  8
0
  2
CADWIN-G6
 10
0.0
 20
0.0
  0
INSERT
  8
0
  2
CADWIN-G7
 10
0.0
 20
0.0
  0
LINE
  8
LAYER4
  6
CONTINUOUS
 62
     4
 10
 24.067172191107389
 20
 65.190740891326811
 11
 24.067172191107389
 21
 86.114477845520469
  0
LINE
  8
LAYER4
  6
CONTINUOUS
 62
     4
 10
 50.767172167707358
 20
 65.191793041926815
 11
 50.767172167707358
 21
 86.114477845520469
  0
LINE
  8
LAYER4
  6
CONTINUOUS
 62
     4
 10
 24.067172191107389
 20
 85.114477845520469
 11
 50.767172167707358
 21
 85.114477845520469
  0
LINE
  8
LAYER4
  6
CONTINUOUS
 62
     4
 10
 24.067172191107389
 20
 85.114477845520469
 11
 27.001614993308806
 21
 84.490742773067197
  0
LINE
  8
LAYER4
  6
CONTINUOUS
 62
     4
 10
 24.067172191107389
 20
 85.114477845520469
 11
 27.001614993308806
 21
 85.73821291797374
  0
LINE
  8
LAYER4
  6
CONTINUOUS
 62
     4
 10
 50.767172167707358
 20
 85.114477845520469
 11
 47.832729365505941
 21
 85.73821291797374
  0
LINE
  8
LAYER4
  6
CONTINUOUS
 62
     4
 10
 50.767172167707358
 20
 85.114477845520469
 11
 47.832729365505941
 21
 84.490742773067197
  0
TEXT
  8
LAYER4
  6
CONTINUOUS
 62
     7
 10
 32.617172179407376
 20
 86.314477845520472
 11
 42.21717217940737
 21
 86.314477845520472
 40
 3
 41
 0.8
  1
26.7
 50
 0
 72
  5
  0
LINE
  8
LAYER4
  6
CONTINUOUS
 62
     4
 10
 22.41787954920737
 20
 25.741079265526817
 11
 22.41787954920737
 21
 13.72541505410959
  0
LINE
  8
LAYER4
  6
CONTINUOUS
 62
     4
 10
 52.417879549107383
 20
 25.741079265526817
 11
 52.417879549107383
 21
 13.72541505410959
  0
LINE
  8
LAYER4
  6
CONTINUOUS
 62
     4
 10
 22.41787954920737
 20
 14.72541505410959
 11
 52.417879549107383
 21
 14.72541505410959
  0
LINE
  8
LAYER4
  6
CONTINUOUS
 62
     4
 10
 22.41787954920737
 20
 14.72541505410959
 11
 25.352322351408787
 21
 14.101679981656311
  0
LINE
  8
LAYER4
  6
CONTINUOUS
 62
     4
 10
 22.41787954920737
 20
 14.72541505410959
 11
 25.352322351408787
 21
 15.349150126562868
  0
LINE
  8
LAYER4
  6
CONTINUOUS
 62
     4
 10
 52.417879549107383
 20
 14.72541505410959
 11
 49.483436746905966
 21
 15.349150126562868
  0
LINE
  8
LAYER4
  6
CONTINUOUS
 62
     4
 10
 52.417879549107383
 20
 14.72541505410959
 11
 49.483436746905966
 21
 14.101679981656311
  0
TEXT
  8
LAYER4
  6
CONTINUOUS
 62
     7
 10
 35.017879549157378
 20
 15.925415054109589
 11
 39.817879549157375
 21
 15.925415054109589
 40
 3
 41
 0.8
  1
30
 50
 0
 72
  5
  0
LINE
  8
LAYER4
  6
CONTINUOUS
 62
     4
 10
 112.83838857910737
 20
 26.741079265526817
 11
 87.770738345344228
 21
 26.741079265526817
  0
LINE
  8
LAYER4
  6
CONTINUOUS
 62
     4
 10
 118.83838857910737
 20
 66.541481638826809
 11
 87.770738345344228
 21
 66.541481638826809
  0
LINE
  8
LAYER4
  6
CONTINUOUS
 62
     4
 10
 88.770738345344228
 20
 66.541481638826809
 11
 88.770738345344228
 21
 26.741079265526817
  0
LINE
  8
LAYER4
  6
CONTINUOUS
 62
     4
 10
 88.770738345344228
 20
 66.541481638826809
 11
 88.147003272890956
 21
 63.607038836625392
  0
LINE
  8
LAYER4
  6
CONTINUOUS
 62
     4
 10
 88.770738345344228
 20
 66.541481638826809
 11
 89.394473417797499
 21
 63.607038836625392
  0
LINE
  8
LAYER4
  6
CONTINUOUS
 62
     4
 10
 88.770738345344228
 20
 26.741079265526817
 11
 89.394473417797499
 21
 29.675522067728235
  0
LINE
  8
LAYER4
  6
CONTINUOUS
 62
     4
 10
 88.770738345344228
 20
 26.741079265526817
 11
 88.147003272890956
 21
 29.675522067728235
  0
TEXT
  8
LAYER4
  6
CONTINUOUS
 62
     7
 10
 87.570738345344225
 20
 41.841280452176818
 11
 87.570738345344225
 21
 51.441280452176812
 40
 3
 41
 0.8
  1
39.8
 50
 90.000001535234517
 72
  5
  0
LINE
  8
LAYER4
  6
CONTINUOUS
 62
     4
 10
 112.83838857910737
 20
 26.741079265526825
 11
 100.49644461271794
 21
 26.741079265526825
  0
LINE
  8
LAYER4
  6
CONTINUOUS
 62
     4
 10
 115.33838857910737
 20
 42.241394188826817
 11
 100.49644461271794
 21
 42.241394188826817
  0
LINE
  8
LAYER4
  6
CONTINUOUS
 62
     4
 10
 101.49644461271794
 20
 42.241394188826817
 11
 101.49644461271794
 21
 26.741079265526825
  0
LINE
  8
LAYER4
  6
CONTINUOUS
 62
     4
 10
 101.49644461271794
 20
 42.241394188826817
 11
 100.87270954026467
 21
 39.3069513866254
  0
LINE
  8
LAYER4
  6
CONTINUOUS
 62
     4
 10
 101.49644461271794
 20
 42.241394188826817
 11
 102.12017968517121
 21
 39.3069513866254
  0
LINE
  8
LAYER4
  6
CONTINUOUS
 62
     4
 10
 101.49644461271794
 20
 26.741079265526825
 11
 102.12017968517121
 21
 29.675522067728242
  0
LINE
  8
LAYER4
  6
CONTINUOUS
 62
     4
 10
 101.49644461271794
 20
 26.741079265526825
 11
 100.87270954026467
 21
 29.675522067728242
  0
TEXT
  8
LAYER4
  6
CONTINUOUS
 62
     7
 10
 100.29644461271793
 20
 29.691236727176829
 11
 100.29644461271793
 21
 39.291236727176823
 40
 3
 41
 0.8
  1
15.5
 50
 90.000001535234517
 72
  5
  0
LINE
  8
LAYER4
  6
CONTINUOUS
 62
     4
 10
 115.33838857910737
 20
 42.241394188826817
 11
 100.29760545229023
 21
 42.241394188826817
  0
LINE
  8
LAYER4
  6
CONTINUOUS
 62
     4
 10
 121.83838857910737
 20
 56.541166715526828
 11
 100.29760545229023
 21
 56.541166715526828
  0
LINE
  8
LAYER4
  6
CONTINUOUS
 62
     4
 10
 101.29760545229023
 20
 42.241394188826817
 11
 101.29760545229023
 21
 56.541166715526828
  0
LINE
  8
LAYER4
  6
CONTINUOUS
 62
     4
 10
 101.29760545229023
 20
 42.241394188826817
 11
 101.9213405247435
 21
 45.175836991028234
  0
LINE
  8
LAYER4
  6
CONTINUOUS
 62
     4
 10
 101.29760545229023
 20
 42.241394188826817
 11
 100.67387037983696
 21
 45.175836991028234
  0
LINE
  8
LAYER4
  6
CONTINUOUS
 62
     4
 10
 101.29760545229023
 20
 56.541166715526828
 11
 100.67387037983696
 21
 53.606723913325411
  0
LINE
  8
LAYER4
  6
CONTINUOUS
 62
     4
 10
 101.29760545229023
 20
 56.541166715526828
 11
 101.9213405247435
 21
 53.606723913325411
  0
TEXT
  8
LAYER4
  6
CONTINUOUS
 62
     7
 10
 100.09760545229022
 20
 44.591280452176818
 11
 100.09760545229022
 21
 54.191280452176812
 40
 3
 41
 0.8
  1
14.3
 50
 90.000001535234517
 72
  5
  0
LINE
  8
LAYER4
  6
CONTINUOUS
 62
     4
 10
 181.33838857910735
 20
 26.741079265526817
 11
 194.55897589074965
 21
 26.741079265526817
  0
LINE
  8
LAYER4
  6
CONTINUOUS
 62
     4
 10
 181.33838857910735
 20
 29.741079265526817
 11
 194.55897589074965
 21
 29.741079265526817
  0
LINE
  8
LAYER4
  6
CONTINUOUS
 62
     4
 10
 193.55897589074965
 20
 26.741079265526817
 11
 193.55897589074965
 21
 29.741079265526817
  0
TEXT
  8
LAYER4
  6
CONTINUOUS
 62
     7
 10
 192.35897589074966
 20
 36.398883540730452
 11
 192.35897589074966
 21
 41.198883540730463
 40
 3
 41
 0.8
  1
ｔ3
 50
 90.000001535234517
 72
  5
  0
LINE
  8
LAYER4
  6
CONTINUOUS
 62
     4
 10
 193.55897589074965
 20
 42.198883540730449
 11
 193.55897589074965
 21
 29.741079265526817
  0
LINE
  8
LAYER4
  6
CONTINUOUS
 62
     4
 10
 193.55897589074965
 20
 29.741079265526817
 11
 194.18271096320294
 21
 32.675522067728238
  0
LINE
  8
LAYER4
  6
CONTINUOUS
 62
     4
 10
 193.55897589074965
 20
 29.741079265526817
 11
 192.93524081829636
 21
 32.675522067728238
  0
LINE
  8
LAYER4
  6
CONTINUOUS
 62
     4
 10
 193.55897589074965
 20
 21.741079265526817
 11
 193.55897589074965
 21
 26.741079265526817
  0
LINE
  8
LAYER4
  6
CONTINUOUS
 62
     4
 10
 193.55897589074965
 20
 26.741079265526817
 11
 192.93524081829636
 21
 23.8066364633254
  0
LINE
  8
LAYER4
  6
CONTINUOUS
 62
     4
 10
 193.55897589074965
 20
 26.741079265526817
 11
 194.18271096320294
 21
 23.8066364633254
  0
LINE
  8
LAYER4
  6
CONTINUOUS
 62
     4
 10
 113.83838857910737
 20
 25.741079265526817
 11
 113.83838857910737
 21
 13.237288135593223
  0
LINE
  8
LAYER4
  6
CONTINUOUS
 62
     4
 10
 180.33838857910735
 20
 25.741079265526817
 11
 180.33838857910735
 21
 13.237288135593223
  0
LINE
  8
LAYER4
  6
CONTINUOUS
 62
     4
 10
 113.83838857910737
 20
 14.237288135593223
 11
 180.33838857910735
 21
 14.237288135593223
  0
LINE
  8
LAYER4
  6
CONTINUOUS
 62
     4
 10
 113.83838857910737
 20
 14.237288135593223
 11
 116.77283138130879
 21
 13.613553063139946
  0
LINE
  8
LAYER4
  6
CONTINUOUS
 62
     4
 10
 113.83838857910737
 20
 14.237288135593223
 11
 116.77283138130879
 21
 14.8610232080465
  0
LINE
  8
LAYER4
  6
CONTINUOUS
 62
     4
 10
 180.33838857910735
 20
 14.237288135593223
 11
 177.40394577690591
 21
 14.8610232080465
  0
LINE
  8
LAYER4
  6
CONTINUOUS
 62
     4
 10
 180.33838857910735
 20
 14.237288135593223
 11
 177.40394577690591
 21
 13.613553063139946
  0
TEXT
  8
LAYER4
  6
CONTINUOUS
 62
     7
 10
 142.28838857910733
 20
 15.437288135593221
 11
 151.88838857910736
 21
 15.437288135593223
 40
 3
 41
 0.8
  1
66.5
 50
 0
 72
  5
  0
LINE
  8
LAYER4
  6
CONTINUOUS
 62
     4
 10
 162.61699899210737
 20
-53.040289989373179
 11
 195.15549337203282
 21
-53.040289989373179
  0
LINE
  8
LAYER4
  6
CONTINUOUS
 62
     4
 10
 180.70006589210738
 20
-34.041042275073181
 11
 195.15549337203282
 21
-34.041042275073181
  0
LINE
  8
LAYER4
  6
CONTINUOUS
 62
     4
 10
 194.15549337203282
 20
-34.041042275073181
 11
 194.15549337203282
 21
-53.040289989373179
  0
LINE
  8
LAYER4
  6
CONTINUOUS
 62
     4
 10
 194.15549337203282
 20
-34.041042275073181
 11
 193.53175829957954
 21
-36.975485077274598
  0
LINE
  8
LAYER4
  6
CONTINUOUS
 62
     4
 10
 194.15549337203282
 20
-34.041042275073181
 11
 194.77922844448611
 21
-36.975485077274598
  0
LINE
  8
LAYER4
  6
CONTINUOUS
 62
     4
 10
 194.15549337203282
 20
-53.040289989373179
 11
 194.77922844448611
 21
-50.105847187171761
  0
LINE
  8
LAYER4
  6
CONTINUOUS
 62
     4
 10
 194.15549337203282
 20
-53.040289989373179
 11
 193.53175829957954
 21
-50.105847187171761
  0
TEXT
  8
LAYER4
  6
CONTINUOUS
 62
     7
 10
 192.95549337203281
 20
-45.940666132223186
 11
 192.95549337203281
 21
-41.140666132223174
 40
 3
 41
 0.8
  1
19
 50
 90.000001535234517
 72
  5
  0
LINE
  8
LAYER4
  6
CONTINUOUS
 62
     4
 10
 157.83838857910735
 20
-57.646648918173184
 11
 157.83838857910735
 21
-71.775423929807587
  0
LINE
  8
LAYER4
  6
CONTINUOUS
 62
     4
 10
 175.83838857910735
 20
-38.201962389773186
 11
 175.83838857910735
 21
-71.775423929807587
  0
LINE
  8
LAYER4
  6
CONTINUOUS
 62
     4
 10
 157.83838857910735
 20
-70.775423929807587
 11
 175.83838857910735
 21
-70.775423929807587
  0
LINE
  8
LAYER4
  6
CONTINUOUS
 62
     4
 10
 157.83838857910735
 20
-70.775423929807587
 11
 160.77283138130878
 21
-71.399159002260859
  0
LINE
  8
LAYER4
  6
CONTINUOUS
 62
     4
 10
 157.83838857910735
 20
-70.775423929807587
 11
 160.77283138130878
 21
-70.151688857354316
  0
LINE
  8
LAYER4
  6
CONTINUOUS
 62
     4
 10
 175.83838857910735
 20
-70.775423929807587
 11
 172.90394577690591
 21
-70.151688857354316
  0
LINE
  8
LAYER4
  6
CONTINUOUS
 62
     4
 10
 175.83838857910735
 20
-70.775423929807587
 11
 172.90394577690591
 21
-71.399159002260859
  0
TEXT
  8
LAYER4
  6
CONTINUOUS
 62
     7
 10
 164.43838857910734
 20
-69.575423929807584
 11
 169.23838857910735
 21
-69.575423929807584
 40
 3
 41
 0.8
  1
18
 50
 0
 72
  5
  0
LINE
  8
LAYER4
  6
CONTINUOUS
 62
     4
 10
 137.83838857910737
 20
-57.826722035073175
 11
 137.83838857910737
 21
-71.775423929807587
  0
LINE
  8
LAYER4
  6
CONTINUOUS
 62
     4
 10
 157.83838857910735
 20
-57.646648918173184
 11
 157.83838857910735
 21
-71.775423929807587
  0
LINE
  8
LAYER4
  6
CONTINUOUS
 62
     4
 10
 157.83838857910735
 20
-70.775423929807587
 11
 137.83838857910737
 21
-70.775423929807587
  0
LINE
  8
LAYER4
  6
CONTINUOUS
 62
     4
 10
 157.83838857910735
 20
-70.775423929807587
 11
 154.90394577690591
 21
-70.151688857354316
  0
LINE
  8
LAYER4
  6
CONTINUOUS
 62
     4
 10
 157.83838857910735
 20
-70.775423929807587
 11
 154.90394577690591
 21
-71.399159002260859
  0
LINE
  8
LAYER4
  6
CONTINUOUS
 62
     4
 10
 137.83838857910737
 20
-70.775423929807587
 11
 140.77283138130878
 21
-71.399159002260859
  0
LINE
  8
LAYER4
  6
CONTINUOUS
 62
     4
 10
 137.83838857910737
 20
-70.775423929807587
 11
 140.77283138130878
 21
-70.151688857354316
  0
TEXT
  8
LAYER4
  6
CONTINUOUS
 62
     7
 10
 145.43838857910734
 20
-69.575423929807584
 11
 150.23838857910735
 21
-69.575423929807584
 40
 3
 41
 0.8
  1
20
 50
 0
 72
  5
  0
LINE
  8
LAYER4
  6
CONTINUOUS
 62
     4
 10
 130.83838857910737
 20
-37.397329989373176
 11
 130.83838857910737
 21
-17.076081379029571
  0
LINE
  8
LAYER4
  6
CONTINUOUS
 62
     4
 10
 113.83838857910737
 20
-30.540289989373179
 11
 113.83838857910737
 21
-17.076081379029571
  0
LINE
  8
LAYER4
  6
CONTINUOUS
 62
     4
 10
 113.83838857910737
 20
-18.076081379029571
 11
 130.83838857910737
 21
-18.076081379029571
  0
LINE
  8
LAYER4
  6
CONTINUOUS
 62
     4
 10
 113.83838857910737
 20
-18.076081379029571
 11
 116.77283138130879
 21
-18.69981645148285
  0
LINE
  8
LAYER4
  6
CONTINUOUS
 62
     4
 10
 113.83838857910737
 20
-18.076081379029571
 11
 116.77283138130879
 21
-17.452346306576292
  0
LINE
  8
LAYER4
  6
CONTINUOUS
 62
     4
 10
 130.83838857910737
 20
-18.076081379029571
 11
 127.90394577690596
 21
-17.452346306576292
  0
LINE
  8
LAYER4
  6
CONTINUOUS
 62
     4
 10
 130.83838857910737
 20
-18.076081379029571
 11
 127.90394577690596
 21
-18.69981645148285
  0
TEXT
  8
LAYER4
  6
CONTINUOUS
 62
     7
 10
 119.93838857910737
 20
-16.876081379029571
 11
 124.73838857910738
 21
-16.876081379029571
 40
 3
 41
 0.8
  1
17
 50
 0
 72
  5
  0
LINE
  8
LAYER4
  6
CONTINUOUS
 62
     4
 10
 144.83838857910735
 20
-37.540289989373179
 11
 144.83838857910735
 21
-17.076081379029571
  0
LINE
  8
LAYER4
  6
CONTINUOUS
 62
     4
 10
 130.83838857910737
 20
-36.397329989373176
 11
 130.83838857910737
 21
-17.076081379029571
  0
LINE
  8
LAYER4
  6
CONTINUOUS
 62
     4
 10
 130.83838857910737
 20
-18.076081379029571
 11
 144.83838857910735
 21
-18.076081379029571
  0
LINE
  8
LAYER4
  6
CONTINUOUS
 62
     4
 10
 130.83838857910737
 20
-18.076081379029571
 11
 133.77283138130878
 21
-18.69981645148285
  0
LINE
  8
LAYER4
  6
CONTINUOUS
 62
     4
 10
 130.83838857910737
 20
-18.076081379029571
 11
 133.77283138130878
 21
-17.452346306576292
  0
LINE
  8
LAYER4
  6
CONTINUOUS
 62
     4
 10
 144.83838857910735
 20
-18.076081379029571
 11
 141.90394577690591
 21
-17.452346306576292
  0
LINE
  8
LAYER4
  6
CONTINUOUS
 62
     4
 10
 144.83838857910735
 20
-18.076081379029571
 11
 141.90394577690591
 21
-18.69981645148285
  0
TEXT
  8
LAYER4
  6
CONTINUOUS
 62
     7
 10
 135.43838857910737
 20
-16.876081379029571
 11
 140.23838857910738
 21
-16.876081379029571
 40
 3
 41
 0.8
  1
14
 50
 0
 72
  5
  0
LINE
  8
LAYER4
  6
CONTINUOUS
 62
     4
 10
 137.83838857910737
 20
-57.826722035073175
 11
 137.83838857910737
 21
-71.775423929807587
  0
LINE
  8
LAYER4
  6
CONTINUOUS
 62
     4
 10
 113.83838857910737
 20
-56.540289989373179
 11
 113.83838857910737
 21
-71.775423929807587
  0
LINE
  8
LAYER4
  6
CONTINUOUS
 62
     4
 10
 113.83838857910737
 20
-70.775423929807587
 11
 137.83838857910737
 21
-70.775423929807587
  0
LINE
  8
LAYER4
  6
CONTINUOUS
 62
     4
 10
 113.83838857910737
 20
-70.775423929807587
 11
 116.77283138130879
 21
-71.399159002260859
  0
LINE
  8
LAYER4
  6
CONTINUOUS
 62
     4
 10
 113.83838857910737
 20
-70.775423929807587
 11
 116.77283138130879
 21
-70.151688857354316
  0
LINE
  8
LAYER4
  6
CONTINUOUS
 62
     4
 10
 137.83838857910737
 20
-70.775423929807587
 11
 134.90394577690597
 21
-70.151688857354316
  0
LINE
  8
LAYER4
  6
CONTINUOUS
 62
     4
 10
 137.83838857910737
 20
-70.775423929807587
 11
 134.90394577690597
 21
-71.399159002260859
  0
TEXT
  8
LAYER4
  6
CONTINUOUS
 62
     7
 10
 123.43838857910737
 20
-69.575423929807584
 11
 128.23838857910738
 21
-69.575423929807584
 40
 3
 41
 0.8
  1
24
 50
 0
 72
  5
  0
LINE
  8
LAYER4
  6
CONTINUOUS
 62
     4
 10
 151.33838857910735
 20
-39.051699273773181
 11
 151.33838857910735
 21
-8.334123357643854
  0
LINE
  8
LAYER4
  6
CONTINUOUS
 62
     4
 10
 113.83838857910737
 20
-30.540289989373207
 11
 113.83838857910737
 21
-8.334123357643854
  0
LINE
  8
LAYER4
  6
CONTINUOUS
 62
     4
 10
 113.83838857910737
 20
-9.334123357643854
 11
 151.33838857910735
 21
-9.334123357643854
  0
LINE
  8
LAYER4
  6
CONTINUOUS
 62
     4
 10
 113.83838857910737
 20
-9.334123357643854
 11
 116.77283138130879
 21
-9.9578584300971329
  0
LINE
  8
LAYER4
  6
CONTINUOUS
 62
     4
 10
 113.83838857910737
 20
-9.334123357643854
 11
 116.77283138130879
 21
-8.7103882851905752
  0
LINE
  8
LAYER4
  6
CONTINUOUS
 62
     4
 10
 151.33838857910735
 20
-9.334123357643854
 11
 148.40394577690591
 21
-8.7103882851905752
  0
LINE
  8
LAYER4
  6
CONTINUOUS
 62
     4
 10
 151.33838857910735
 20
-9.334123357643854
 11
 148.40394577690591
 21
-9.9578584300971329
  0
TEXT
  8
LAYER4
  6
CONTINUOUS
 62
     7
 10
 127.78838857910738
 20
-8.1341233576438547
 11
 137.38838857910739
 21
-8.1341233576438547
 40
 3
 41
 0.8
  1
37.5
 50
 0
 72
  5
  0
LINE
  8
LAYER4
  6
CONTINUOUS
 62
     4
 10
 151.33838857910735
 20
-39.051699273773181
 11
 151.33838857910735
 21
-8.334123357643854
  0
LINE
  8
LAYER4
  6
CONTINUOUS
 62
     4
 10
 155.83838857910735
 20
-29.351482573773183
 11
 155.83838857910735
 21
-8.334123357643854
  0
LINE
  8
LAYER4
  6
CONTINUOUS
 62
     4
 10
 151.33838857910735
 20
-9.334123357643854
 11
 155.83838857910735
 21
-9.334123357643854
  0
TEXT
  8
LAYER4
  6
CONTINUOUS
 62
     7
 10
 149.98838857910735
 20
-8.1341233576438547
 11
 157.18838857910734
 21
-8.1341233576438547
 40
 3
 41
 0.8
  1
4.5
 50
 0
 72
  5
  0
LINE
  8
LAYER4
  6
CONTINUOUS
 62
     4
 10
 160.83838857910735
 20
-9.334123357643854
 11
 155.83838857910735
 21
-9.334123357643854
  0
LINE
  8
LAYER4
  6
CONTINUOUS
 62
     4
 10
 155.83838857910735
 20
-9.334123357643854
 11
 158.77283138130878
 21
-9.9578584300971329
  0
LINE
  8
LAYER4
  6
CONTINUOUS
 62
     4
 10
 155.83838857910735
 20
-9.334123357643854
 11
 158.77283138130878
 21
-8.7103882851905752
  0
LINE
  8
LAYER4
  6
CONTINUOUS
 62
     4
 10
 146.33838857910735
 20
-9.334123357643854
 11
 151.33838857910735
 21
-9.334123357643854
  0
LINE
  8
LAYER4
  6
CONTINUOUS
 62
     4
 10
 151.33838857910735
 20
-9.334123357643854
 11
 148.40394577690591
 21
-8.7103882851905752
  0
LINE
  8
LAYER4
  6
CONTINUOUS
 62
     4
 10
 151.33838857910735
 20
-9.334123357643854
 11
 148.40394577690591
 21
-9.9578584300971329
  0
LINE
  8
LAYER4
  6
CONTINUOUS
 62
     4
 10
 155.83838857910735
 20
-29.351482573773183
 11
 155.83838857910735
 21
-8.334123357643854
  0
LINE
  8
LAYER4
  6
CONTINUOUS
 62
     4
 10
 175.83838857910735
 20
-29.351482573773183
 11
 175.83838857910735
 21
-8.334123357643854
  0
LINE
  8
LAYER4
  6
CONTINUOUS
 62
     4
 10
 155.83838857910735
 20
-9.334123357643854
 11
 175.83838857910735
 21
-9.334123357643854
  0
LINE
  8
LAYER4
  6
CONTINUOUS
 62
     4
 10
 155.83838857910735
 20
-9.334123357643854
 11
 158.77283138130878
 21
-9.9578584300971329
  0
LINE
  8
LAYER4
  6
CONTINUOUS
 62
     4
 10
 155.83838857910735
 20
-9.334123357643854
 11
 158.77283138130878
 21
-8.7103882851905752
  0
LINE
  8
LAYER4
  6
CONTINUOUS
 62
     4
 10
 175.83838857910735
 20
-9.334123357643854
 11
 172.90394577690591
 21
-8.7103882851905752
  0
LINE
  8
LAYER4
  6
CONTINUOUS
 62
     4
 10
 175.83838857910735
 20
-9.334123357643854
 11
 172.90394577690591
 21
-9.9578584300971329
  0
TEXT
  8
LAYER4
  6
CONTINUOUS
 62
     7
 10
 163.43838857910734
 20
-8.1341233576438547
 11
 168.23838857910735
 21
-8.1341233576438547
 40
 3
 41
 0.8
  1
20
 50
 0
 72
  5
  0
LINE
  8
7A
  6
CONTINUOUS
 62
     3
 10
-26.413916146297993
 20
-44.456505169701984
 11
-26.413916146297993
 21
-68.456505169701984
  0
LINE
  8
7A
  6
CONTINUOUS
 62
     3
 10
-82.413916146297993
 20
 23.986706540098083
 11
-82.413916146297993
 21
 21.986706540098083
  0
LINE
  8
7A
  6
CONTINUOUS
 62
     3
 10
-92.913916146297993
 20
 14.98661909009806
 11
-92.913916146297993
 21
 17.98661909009806
  0
LINE
  8
7A
  6
CONTINUOUS
 62
     3
 10
-157.10591991029798
 20
 14.98661909009806
 11
-157.10591991029798
 21
 17.98661909009806
  0
LINE
  8
7A
  6
CONTINUOUS
 62
     3
 10
-157.10591991019794
 20
 24.487085138498088
 11
-157.10591991019794
 21
 21.987085138498088
  0
LINE
  8
LAYER0
  6
CONTINUOUS
 62
     2
 10
-170.53541991019796
 20
 24.487085138498088
 11
-170.53541991019796
 21
 27.037085138498071
  0
LINE
  8
7A
  6
CONTINUOUS
 62
     3
 10
-170.10591991019797
 20
 24.487085138498088
 11
-170.10591991019797
 21
 27.037085138498071
  0
LINE
  8
7A
  6
CONTINUOUS
 62
     3
 10
-174.10591991019797
 20
 24.487085138498088
 11
-174.10591991019797
 21
 27.037085138498071
  0
LINE
  8
LAYER0
  6
CONTINUOUS
 62
     2
 10
-173.67641991019798
 20
 24.487085138498088
 11
-173.67641991019798
 21
 27.037085138498071
  0
LINE
  8
7A
  6
CONTINUOUS
 62
     3
 10
-174.10591991019797
 20
 27.037085138498071
 11
-170.10591991019797
 21
 27.037085138498071
  0
LINE
  8
LAYER0
  6
CONTINUOUS
 62
     2
 10
-173.67641991019798
 20
 17.98661909009806
 11
-173.67641991019798
 21
 19.987083138498065
  0
LINE
  8
7A
  6
CONTINUOUS
 62
     3
 10
-26.413916146297993
 20
 17.98661909009806
 11
-26.413916146297993
 21
 14.98661909009806
  0
LINE
  8
LAYER4
  6
CENTER
 62
     4
 10
-30.913916146297993
 20
-50.790507887901924
 11
-30.913916146297993
 21
-42.971719374101951
  0
CIRCLE
  8
7A
  6
CONTINUOUS
 62
     3
 10
-30.913916146297993
 20
-46.956505169701984
 40
 1.621
  0
ARC
  8
4N
  6
CONTINUOUS
 62
     2
 10
-30.913916146297993
 20
-46.956505169701984
 40
 2
 50
-0.0100000001697808
 51
-0.0200000003403618
  0
LINE
  8
7A
  6
CONTINUOUS
 62
     3
 10
-157.10591991019794
 20
 21.987085138498088
 11
-187.10591991019797
 21
 21.987085138498088
  0
LINE
  8
7A
  6
CONTINUOUS
 62
     3
 10
-157.10591991029798
 20
 17.98661909009806
 11
-187.10591991009798
 21
 17.98661909009806
  0
LINE
  8
7A
  6
CONTINUOUS
 62
     3
 10
-187.10591991009798
 20
 14.98661909009806
 11
-157.10591991029798
 21
 14.98661909009806
  0
LINE
  8
4N
  6
CONTINUOUS
 62
     2
 10
-174.60593491009797
 20
 60.804073019598064
 11
-174.60593491009797
 21
 52.987079138498046
  0
LINE
  8
4N
  6
CONTINUOUS
 62
     2
 10
-169.60593491009797
 20
 60.804073019598064
 11
-169.60593491009797
 21
 52.987079138498046
  0
LINE
  8
実線-
  6
CENTER
 62
     4
 10
-172.10593491009797
 20
 33.564110841698067
 11
-172.10593491009797
 21
 67.382767830098061
  0
ARC
  8
7A
  6
CONTINUOUS
 62
     3
 10
-186.10593491009797
 20
 51.987547186798082
 40
 1
 50
 58.548472552029395
 51
-179.93867317662247
  0
ARC
  8
7A
  6
CONTINUOUS
 62
     3
 10
-186.10593491009797
 20
 51.987547186798082
 40
 3
 50
 58.548472552029395
 51
-180.00000307046864
  0
ARC
  8
7A
  6
CONTINUOUS
 62
     3
 10
-186.10593491009797
 20
 20.98661909009806
 40
 3
 50
-180.00000307046864
 51
-58.548472552028599
  0
ARC
  8
7A
  6
CONTINUOUS
 62
     3
 10
-186.10593491009797
 20
 20.98661909009806
 40
 1
 50
-180.00000307046864
 51
-58.548472552028599
  0
LINE
  8
7A
  6
CONTINUOUS
 62
     3
 10
-187.10593433729798
 20
 51.986476778498087
 11
-187.10591659339798
 21
 20.980566550498082
  0
LINE
  8
7A
  6
CONTINUOUS
 62
     3
 10
-189.10593491009797
 20
 51.987547186798082
 11
-189.10593491009797
 21
 20.986768215098067
  0
LINE
  8
LAYER7
  6
CONTINUOUS
 62
     2
 10
-189.10593631389796
 20
 21.987083138498065
 11
-187.10591831389797
 21
 21.987083138498065
  0
LINE
  8
LAYER7
  6
CONTINUOUS
 62
     2
 10
-189.10593631389796
 20
 23.987083138498065
 11
-187.10591831389797
 21
 23.987083138498065
  0
LINE
  8
7A
  6
CONTINUOUS
 62
     3
 10
-189.10593860299798
 20
 27.987083138498065
 11
-187.10592060299797
 21
 27.987083138498065
  0
LINE
  8
7A
  6
CONTINUOUS
 62
     3
 10
-189.10593462399797
 20
 44.987083138498093
 11
-187.10591662399796
 21
 44.987083138498093
  0
LINE
  8
7A
  6
CONTINUOUS
 62
     3
 10
-181.60604891009797
 20
 50.987079138498046
 11
-181.60604891009797
 21
 24.487085138498088
  0
LINE
  8
7A
  6
CONTINUOUS
 62
     3
 10
-162.60579091009799
 20
 50.987079138498046
 11
-162.60579091009799
 21
 24.487085138498088
  0
LINE
  8
7A
  6
CONTINUOUS
 62
     3
 10
-157.10595291009793
 20
 51.440043937398087
 11
-157.10595291009793
 21
 21.534122339598071
  0
LINE
  8
7A
  6
CONTINUOUS
 62
     3
 10
-155.10593691009797
 20
 51.984083085998094
 11
-155.10593691009797
 21
 20.972911845698064
  0
ARC
  8
7A
  6
CONTINUOUS
 62
     3
 10
-172.10593491009797
 20
 36.987083138498065
 40
 7
 50
 115.37693549331858
 51
 64.62306757715082
  0
LINE
  8
7A
  6
CONTINUOUS
 62
     3
 10
-181.60605320259796
 20
 21.987085138498088
 11
-162.60578719639796
 21
 21.987085138498088
  0
LINE
  8
7A
  6
CONTINUOUS
 62
     3
 10
-181.60605643599797
 20
 19.987083138498065
 11
-162.60578338429798
 21
 19.987083138498065
  0
LINE
  8
7A
  6
CONTINUOUS
 62
     3
 10
-181.60604891009797
 20
 19.987087138498083
 11
-184.54060374719796
 21
 18.427373429698065
  0
ARC
  8
7A
  6
CONTINUOUS
 62
     3
 10
-166.10593491009797
 20
 56.250036764398061
 40
 8.9200616589999999
 50
 91.776621071240569
 51
 109.65286150217639
  0
ARC
  8
7A
  6
CONTINUOUS
 62
     3
 10
-172.10593491009797
 20
 56.250036764398061
 40
 8.9200616589999999
 50
 70.347141568293026
 51
 84.438358361963296
  0
LINE
  8
7A
  6
CONTINUOUS
 62
     3
 10
-172.60593491009797
 20
 63.670098423398059
 11
-171.60593491009797
 21
 63.670098423398059
  0
ARC
  8
7A
  6
CONTINUOUS
 62
     3
 10
-176.60592019949797
 20
 24.187085138498077
 40
 1.5
 50
 90.000001535234716
 51
 168.46304384087009
  0
ARC
  8
7A
  6
CONTINUOUS
 62
     3
 10
-167.60591991009798
 20
 24.187086006598065
 40
 1.5
 50
 11.536925386998755
 51
 90.000012588234895
  0
LINE
  8
7A
  6
CONTINUOUS
 62
     3
 10
-162.60579091009799
 20
 19.987087138498083
 11
-159.67126607309797
 21
 18.427373429698065
  0
ARC
  8
7A
  6
CONTINUOUS
 62
     3
 10
-158.10593491009797
 20
 20.98661909009806
 40
 3
 50
-121.45153051843923
 51
 0
  0
LINE
  8
LAYER7
  6
CONTINUOUS
 62
     2
 10
-157.10595291009793
 20
 21.987083138498065
 11
-155.10593691009797
 21
 21.987083138498065
  0
LINE
  8
LAYER7
  6
CONTINUOUS
 62
     2
 10
-157.10595291009793
 20
 23.987083138498065
 11
-155.10593691009797
 21
 23.987083138498065
  0
ARC
  8
7A
  6
CONTINUOUS
 62
     3
 10
-158.60595291009793
 20
 21.534122339598071
 40
 1.5
 50
-121.45153051843923
 51
 0
  0
LINE
  8
7A
  6
CONTINUOUS
 62
     3
 10
-162.60579091009799
 20
 21.987087138498083
 11
-159.38861849159798
 21
 20.254499509398073
  0
LINE
  8
7A
  6
CONTINUOUS
 62
     3
 10
-157.10595660299794
 20
 27.987083138498065
 11
-155.10593860299798
 21
 27.987083138498065
  0
LINE
  8
7A
  6
CONTINUOUS
 62
     3
 10
-181.60604891009797
 20
 50.987079138498046
 11
-162.60579091009799
 21
 50.987079138498046
  0
LINE
  8
7A
  6
CONTINUOUS
 62
     3
 10
-181.60604891009797
 20
 52.987079138498046
 11
-162.60579091009799
 21
 52.987079138498046
  0
LINE
  8
4N
  6
CONTINUOUS
 62
     2
 10
-174.60593491009797
 20
 48.987085138498088
 11
-174.60593491009797
 21
 37.670098423398059
  0
LINE
  8
4N
  6
CONTINUOUS
 62
     2
 10
-169.60593491009797
 20
 48.987085138498088
 11
-169.60593491009797
 21
 37.670098423398059
  0
LINE
  8
7A
  6
CONTINUOUS
 62
     3
 10
-175.10593491009797
 20
 38.670098423398059
 11
-169.10593491009797
 21
 38.670098423398059
  0
LINE
  8
7A
  6
CONTINUOUS
 62
     3
 10
-175.10593491009797
 20
 38.670098423398059
 11
-174.10593491009797
 21
 36.670098423398059
  0
LINE
  8
7A
  6
CONTINUOUS
 62
     3
 10
-174.10593491009797
 20
 36.670098423398059
 11
-170.10593491009797
 21
 36.670098423398059
  0
LINE
  8
7A
  6
CONTINUOUS
 62
     3
 10
-170.10593491009797
 20
 36.670098423398059
 11
-169.10593491009797
 21
 38.670098423398059
  0
LINE
  8
7A
  6
CONTINUOUS
 62
     3
 10
-171.60593491009797
 20
 63.670098423398059
 11
-171.10593491009797
 21
 65.670098423398059
  0
LINE
  8
7A
  6
CONTINUOUS
 62
     3
 10
-173.10593491009797
 20
 65.670098423398059
 11
-172.60593491009797
 21
 63.670098423398059
  0
LINE
  8
7A
  6
CONTINUOUS
 62
     3
 10
-167.25593491009798
 20
 65.670098423398059
 11
-166.35593491009797
 21
 65.150483181098053
  0
LINE
  8
7A
  6
CONTINUOUS
 62
     3
 10
-176.10593491009797
 20
 50.987084138498091
 11
-176.10593491009797
 21
 48.987085138498088
  0
ARC
  8
7A
  6
CONTINUOUS
 62
     3
 10
-176.60591991009798
 20
 49.486928138498087
 40
 1.5
 50
 90.000001535234716
 51
-90.00000153523392
  0
LINE
  8
7A
  6
CONTINUOUS
 62
     3
 10
-181.60604891009797
 20
 52.987079138498046
 11
-184.54060374719796
 21
 54.546792847198077
  0
ARC
  8
7A
  6
CONTINUOUS
 62
     3
 10
-167.60591991009798
 20
 49.486928138498087
 40
 1.5
 50
-90.00000153523392
 51
 90.000001535234716
  0
LINE
  8
7A
  6
CONTINUOUS
 62
     3
 10
-168.10593886249796
 20
 50.987082138498039
 11
-168.10593491009797
 21
 48.987085138498088
  0
LINE
  8
7A
  6
CONTINUOUS
 62
     3
 10
-157.10595262399795
 20
 44.987083138498093
 11
-155.105934623998
 21
 44.987083138498093
  0
LINE
  8
7A
  6
CONTINUOUS
 62
     3
 10
-162.60579091009799
 20
 50.987079138498046
 11
-159.38861849159798
 21
 52.719666767598056
  0
ARC
  8
7A
  6
CONTINUOUS
 62
     3
 10
-158.60595291009793
 20
 51.440043937398087
 40
 1.5
 50
 0
 51
 121.45153051844002
  0
ARC
  8
7A
  6
CONTINUOUS
 62
     3
 10
-158.10593491009797
 20
 51.987547186798082
 40
 3
 50
-0.0661594675277562
 51
 121.45153051844002
  0
LINE
  8
7A
  6
CONTINUOUS
 62
     3
 10
-162.60579091009799
 20
 52.987079138498046
 11
-159.67126607309797
 21
 54.546792847198077
  0
LINE
  8
7A
  6
CONTINUOUS
 62
     3
 10
-175.10593491009797
 20
 60.804073019598064
 11
-169.10593491009797
 21
 60.804073019598064
  0
ARC
  8
7A
  6
CONTINUOUS
 62
     3
 10
-172.10593491009797
 20
 56.250036764398061
 40
 8.9200616589999999
 50
 95.561644708506137
 51
 109.65286150217639
  0
LINE
  8
7A
  6
CONTINUOUS
 62
     3
 10
-175.10593491009797
 20
 61.670098423398059
 11
-175.10593491009797
 21
 64.650483181098053
  0
LINE
  8
4N
  6
CONTINUOUS
 62
     2
 10
-175.10593491009797
 20
 61.670098423398059
 11
-174.60593491009797
 21
 60.804073019598064
  0
ARC
  8
7A
  6
CONTINUOUS
 62
     3
 10
-178.10593491009797
 20
 56.250036764398061
 40
 8.9200616589999999
 50
 70.347141568293026
 51
 88.223381999228835
  0
LINE
  8
7A
  6
CONTINUOUS
 62
     3
 10
-176.95593491009797
 20
 65.670098423398059
 11
-177.85593491009797
 21
 65.150483181098053
  0
LINE
  8
7A
  6
CONTINUOUS
 62
     3
 10
-169.10593491009797
 20
 61.670098423398059
 11
-169.10593491009797
 21
 64.650483181098053
  0
LINE
  8
4N
  6
CONTINUOUS
 62
     2
 10
-169.10593491009797
 20
 61.670098423398059
 11
-169.60593491009797
 21
 60.804073019598064
  0
LINE
  8
LAYER4
  6
CENTER
 62
     4
 10
-55.413916146297993
 20
-61.456505169701984
 11
-55.413916146297993
 21
-52.967914454101958
  0
CIRCLE
  8
7A
  6
CONTINUOUS
 62
     3
 10
-61.913916146297993
 20
-56.456505169701984
 40
 3.25
  0
CIRCLE
  8
7A
  6
CONTINUOUS
 62
     3
 10
-61.913916146297993
 20
-56.456505169701984
 40
 2.25
  0
CIRCLE
  8
7A
  6
CONTINUOUS
 62
     3
 10
-68.913916146297993
 20
-65.956505169701984
 40
 1.621
  0
ARC
  8
4N
  6
CONTINUOUS
 62
     2
 10
-68.913916146297993
 20
-65.956505169701984
 40
 2
 50
-0.0100000001697808
 51
-0.0200000003403618
  0
LINE
  8
LAYER4
  6
CENTER
 62
     4
 10
-68.913916146297993
 20
-70.182502713601878
 11
-68.913916146297993
 21
-61.538092332301915
  0
CIRCLE
  8
7A
  6
CONTINUOUS
 62
     3
 10
-82.913916146297993
 20
-56.456505169701984
 40
 3.25
  0
CIRCLE
  8
7A
  6
CONTINUOUS
 62
     3
 10
-75.913916146297993
 20
-56.456505169701984
 40
 3.25
  0
LINE
  8
LAYER4
  6
CENTER
 62
     4
 10
-61.913916146297993
 20
-51.456505169701984
 11
-61.913916146297993
 21
-61.456505169701984
  0
ARC
  8
7A
  6
CONTINUOUS
 62
     3
 10
-29.413916146297993
 20
-44.456505169701984
 40
 3
 50
 0.0000000000008142
 51
 90.000001535234716
  0
ARC
  8
7A
  6
CONTINUOUS
 62
     3
 10
-51.956026795097955
 20
-42.455824038001936
 40
 3
 50
 19.45742378850791
 51
 90.000001535234716
  0
CIRCLE
  8
7A
  6
CONTINUOUS
 62
     3
 10
-50.913916146297993
 20
-46.956505169701984
 40
 1.621
  0
ARC
  8
4N
  6
CONTINUOUS
 62
     2
 10
-50.913916146297993
 20
-46.956505169701984
 40
 2
 50
-0.0100000001697808
 51
-0.0200000003403618
  0
LINE
  8
LAYER4
  6
CENTER
 62
     4
 10
-50.913916146297993
 20
-50.790507887901924
 11
-50.913916146297993
 21
-42.971719374101951
  0
LINE
  8
LAYER4
  6
CENTER
 62
     4
 10
-27.319350450397963
 20
-46.956505169701984
 11
-54.923385804698
 21
-46.956505169701984
  0
ARC
  8
7A
  6
CONTINUOUS
 62
     3
 10
-29.413916146297993
 20
-68.456505169701984
 40
 3
 50
-90.00000153523392
 51
 0
  0
CIRCLE
  8
7A
  6
CONTINUOUS
 62
     3
 10
-48.913916146297993
 20
-65.956505169701984
 40
 1.621
  0
ARC
  8
7A
  6
CONTINUOUS
 62
     3
 10
-51.956026795097955
 20
-70.457186301401919
 40
 3
 50
-90.00000153523392
 51
-19.457423788507114
  0
ARC
  8
4N
  6
CONTINUOUS
 62
     2
 10
-48.913916146297993
 20
-65.956505169701984
 40
 2
 50
-0.0100000001697808
 51
-0.0200000003403618
  0
LINE
  8
LAYER4
  6
CENTER
 62
     4
 10
-48.913916146297993
 20
-70.300924468301957
 11
-48.913916146297993
 21
-61.538092332301915
  0
ARC
  8
7A
  6
CONTINUOUS
 62
     3
 10
-89.913916146297993
 20
-44.456505169701984
 40
 3
 50
 90.000001535234716
 51
-180.00000307046864
  0
LINE
  8
7A
  6
CONTINUOUS
 62
     3
 10
-92.913916146297993
 20
-39.455824038001936
 11
-92.913916146297993
 21
-44.529773137301902
  0
LINE
  8
7A
  6
CONTINUOUS
 62
     3
 10
-92.913916146297993
 20
-73.457186301401919
 11
-92.913916146297993
 21
-68.383237202101952
  0
ARC
  8
7A
  6
CONTINUOUS
 62
     3
 10
-89.913916146297993
 20
-68.456505169701984
 40
 3
 50
-180.00000307046864
 51
-90.00000153523392
  0
LINE
  8
7A
  6
CONTINUOUS
 62
     3
 10
-92.913916146297993
 20
-68.456505169701984
 11
-92.913916146297993
 21
-44.456505169701984
  0
LINE
  8
7A
  6
CONTINUOUS
 62
     3
 10
-26.413916146297993
 20
 17.98661909009806
 11
-92.913916146297993
 21
 17.98661909009806
  0
LINE
  8
7A
  6
CONTINUOUS
 62
     3
 10
-26.413916146297993
 20
 14.98661909009806
 11
-92.913916146297993
 21
 14.98661909009806
  0
LINE
  8
7A
  6
CONTINUOUS
 62
     3
 10
-51.956026795097955
 20
-73.457186301401919
 11
-92.913916146297993
 21
-73.457186301401919
  0
LINE
  8
LAYER4
  6
CENTER
 62
     4
 10
-43.938252514397959
 20
-65.956505169701984
 11
-73.523598852397981
 21
-65.956505169701984
  0
LINE
  8
7A
  6
CONTINUOUS
 62
     3
 10
-29.413916268197966
 20
-71.456505169701984
 11
-89.913916146297993
 21
-71.456505169701984
  0
LINE
  8
7A
  6
CONTINUOUS
 62
     3
 10
-29.413916268197966
 20
-41.456505169701984
 11
-89.913916146297993
 21
-41.456505169701984
  0
CIRCLE
  8
7A
  6
CONTINUOUS
 62
     3
 10
-55.413916146297993
 20
-56.456505169701984
 40
 1.621
  0
ARC
  8
4N
  6
CONTINUOUS
 62
     2
 10
-55.413916146297993
 20
-56.456505169701984
 40
 2
 50
-0.0100000001697808
 51
-0.0200000003403618
  0
LINE
  8
7A
  6
CONTINUOUS
 62
     3
 10
-61.913874191297964
 20
 44.986706540098083
 11
-78.914116146297943
 21
 44.986706540098083
  0
LINE
  8
7A
  6
CONTINUOUS
 62
     3
 10
-63.852014651397951
 20
 54.987021463498053
 11
-82.914116146297943
 21
 54.987021463498053
  0
LINE
  8
7A
  6
CONTINUOUS
 62
     3
 10
-73.914116146297943
 20
 38.670098423398059
 11
-79.914116146297943
 21
 38.670098423398059
  0
LINE
  8
7A
  6
CONTINUOUS
 62
     3
 10
-73.914116146297943
 20
 38.670098423398059
 11
-74.914116146297943
 21
 36.670098423398059
  0
LINE
  8
7A
  6
CONTINUOUS
 62
     3
 10
-74.413916146297993
 20
 27.986706540098083
 11
-72.413916146297993
 21
 25.986706540098083
  0
LINE
  8
7A
  6
CONTINUOUS
 62
     3
 10
-63.196312146297942
 20
 17.98661909009806
 11
-92.913916146297993
 21
 17.98661909009806
  0
LINE
  8
7A
  6
CONTINUOUS
 62
     3
 10
-92.913916146297993
 20
 27.986706540098083
 11
-92.913916146297993
 21
 17.98661909009806
  0
LINE
  8
4N
  6
CONTINUOUS
 62
     2
 10
-79.414116146297943
 20
 45.018079573598044
 11
-79.414116146297943
 21
 37.670098423398059
  0
LINE
  8
4N
  6
CONTINUOUS
 62
     2
 10
-74.414116146297943
 20
 44.986706540098083
 11
-74.414116146297943
 21
 37.670098423398059
  0
LINE
  8
7A
  6
CONTINUOUS
 62
     3
 10
-87.128329708697947
 20
 21.986706540098083
 11
-75.299902583997948
 21
 21.986706540098083
  0
ARC
  8
7A
  6
CONTINUOUS
 62
     3
 10
-85.714116146297954
 20
 22.486706540098083
 40
 1.5
 50
 90.000001535234716
 51
-90.00000153523392
  0
LINE
  8
7A
  6
CONTINUOUS
 62
     3
 10
-86.413916146297993
 20
 27.986706540098083
 11
-84.413916146297993
 21
 25.986706540098083
  0
LINE
  8
7A
  6
CONTINUOUS
 62
     3
 10
-92.413916146297993
 20
 27.986706540098083
 11
-90.413916146297993
 21
 25.986706540098083
  0
LINE
  8
7A
  6
CONTINUOUS
 62
     3
 10
-92.913916146297993
 20
 27.986706540098083
 11
-92.913916146297993
 21
 24.208455506698073
  0
LINE
  8
7A
  6
CONTINUOUS
 62
     3
 10
-87.413916146297993
 20
 27.986706540098083
 11
-89.413916146297993
 21
 25.986706540098083
  0
LINE
  8
7A
  6
CONTINUOUS
 62
     3
 10
-89.413916146297993
 20
 25.986706540098083
 11
-90.413916146297993
 21
 25.986706540098083
  0
LINE
  8
7A
  6
CONTINUOUS
 62
     3
 10
-81.413916146297993
 20
 27.986706540098083
 11
-83.413916146297993
 21
 25.986706540098083
  0
LINE
  8
7A
  6
CONTINUOUS
 62
     3
 10
-75.413916146297993
 20
 27.986706540098083
 11
-77.413916146297993
 21
 25.986706540098083
  0
LINE
  8
7A
  6
CONTINUOUS
 62
     3
 10
-80.413916146297993
 20
 27.986706540098083
 11
-78.413916146297993
 21
 25.986706540098083
  0
LINE
  8
7A
  6
CONTINUOUS
 62
     3
 10
-83.413916146297993
 20
 25.986706540098083
 11
-84.413916146297993
 21
 25.986706540098083
  0
LINE
  8
7A
  6
CONTINUOUS
 62
     3
 10
-77.604666425597998
 20
 25.986706540098083
 11
-78.223166146297956
 21
 25.986706540098083
  0
LINE
  8
7A
  6
CONTINUOUS
 62
     3
 10
-77.413916146297993
 20
 25.986706540098083
 11
-78.413916146297993
 21
 25.986706540098083
  0
ARC
  8
7A
  6
CONTINUOUS
 62
     3
 10
-76.714116146297954
 20
 22.486706540098083
 40
 1.5
 50
-90.00000153523392
 51
 90.000001535234716
  0
LINE
  8
7A
  6
CONTINUOUS
 62
     3
 10
-80.413916146297993
 20
 27.986706540098083
 11
-81.413916146297993
 21
 27.986706540098083
  0
LINE
  8
7A
  6
CONTINUOUS
 62
     3
 10
-77.913916146297993
 20
 27.036619090098071
 11
-76.364003596297948
 21
 27.036619090098071
  0
LINE
  8
7A
  6
CONTINUOUS
 62
     3
 10
-74.413916146297993
 20
 27.986706540098083
 11
-75.413916146297993
 21
 27.986706540098083
  0
LINE
  8
7A
  6
CONTINUOUS
 62
     3
 10
-78.914116146297943
 20
 36.670098423398059
 11
-79.914116146297943
 21
 38.670098423398059
  0
LINE
  8
7A
  6
CONTINUOUS
 62
     3
 10
-74.914116146297943
 20
 36.670098423398059
 11
-78.914116146297943
 21
 36.670098423398059
  0
LINE
  8
7A
  6
CONTINUOUS
 62
     3
 10
-82.914116146297943
 20
 54.987021463498053
 11
-82.914116146297943
 21
 48.986706540098083
  0
ARC
  8
7A
  6
CONTINUOUS
 62
     3
 10
-78.914116146297943
 20
 48.986706540098083
 40
 4
 50
-180.00000307046864
 51
-90.00000153523392
  0
LINE
  8
4N
  6
CONTINUOUS
 62
     2
 10
-79.414116146297943
 20
 60.804073019598064
 11
-79.414116146297943
 21
 54.987021463498053
  0
LINE
  8
4N
  6
CONTINUOUS
 62
     2
 10
-74.414116146297943
 20
 60.804073019598064
 11
-74.414116146297943
 21
 54.987021463498053
  0
LINE
  8
7A
  6
CONTINUOUS
 62
     3
 10
-76.414116146297943
 20
 63.670098423398059
 11
-77.414116146297943
 21
 63.670098423398059
  0
LINE
  8
7A
  6
CONTINUOUS
 62
     3
 10
-79.914116146297943
 20
 61.670098423398059
 11
-79.914116146297943
 21
 64.650483181098053
  0
LINE
  8
7A
  6
CONTINUOUS
 62
     3
 10
-73.914116146297943
 20
 61.670098423398059
 11
-73.914116146297943
 21
 64.650483181098053
  0
LINE
  8
7A
  6
CONTINUOUS
 62
     3
 10
-75.914116146297943
 20
 65.670098423398059
 11
-76.414116146297943
 21
 63.670098423398059
  0
LINE
  8
7A
  6
CONTINUOUS
 62
     3
 10
-77.414116146297943
 20
 63.670098423398059
 11
-77.914116146297943
 21
 65.670098423398059
  0
LINE
  8
4N
  6
CONTINUOUS
 62
     2
 10
-79.914116146297943
 20
 61.670098423398059
 11
-79.414116146297943
 21
 60.804073019598064
  0
ARC
  8
7A
  6
CONTINUOUS
 62
     3
 10
-64.244813139097971
 20
 32.270737333298058
 40
 14.322548248
 50
-85.801833035220895
 51
-11.88907688420502
  0
ARC
  8
7A
  6
CONTINUOUS
 62
     3
 10
-68.089376112397986
 20
 36.486706540098083
 40
 10.5065134073
 50
-54.000484315148299
 51
 54.000484315149066
  0
ARC
  8
7A
  6
CONTINUOUS
 62
     3
 10
-71.914116146297943
 20
 36.986706540098083
 40
 23
 50
-19.471220966642523
 51
 26.390038488465578
  0
ARC
  8
7A
  6
CONTINUOUS
 62
     3
 10
-64.780213127997968
 20
 31.417746851898073
 40
 4.4707870134999999
 50
-82.040337510456666
 51
-50.124147971925147
  0
LINE
  8
7A
  6
CONTINUOUS
 62
     3
 10
-69.413916146297993
 20
 27.986706540098083
 11
-71.413916146297993
 21
 25.986706540098083
  0
LINE
  8
7A
  6
CONTINUOUS
 62
     3
 10
-71.413916146297993
 20
 25.986706540098083
 11
-72.413916146297993
 21
 25.986706540098083
  0
LINE
  8
7A
  6
CONTINUOUS
 62
     3
 10
-68.413916146297993
 20
 27.986706540098083
 11
-67.417241896697988
 21
 26.990032290498078
  0
LINE
  8
7A
  6
CONTINUOUS
 62
     3
 10
-68.413916146297993
 20
 27.986706540098083
 11
-69.413916146297993
 21
 27.986706540098083
  0
LINE
  8
7A
  6
CONTINUOUS
 62
     3
 10
-67.417241896697988
 20
 26.990032290498078
 11
-64.161116783897967
 21
 26.990032290498078
  0
ARC
  8
7A
  6
CONTINUOUS
 62
     3
 10
-63.852014651397951
 20
 40.987021463498053
 40
 14
 50
 26.390038488465578
 51
 90.000001535234716
  0
ARC
  8
7A
  6
CONTINUOUS
 62
     3
 10
-76.914116146297943
 20
 56.250036764398061
 40
 8.9200616589999999
 50
 70.347141568293026
 51
 84.438358361963296
  0
ARC
  8
7A
  6
CONTINUOUS
 62
     3
 10
-76.914116146297943
 20
 56.250036764398061
 40
 8.9200616589999999
 50
 95.561644708506137
 51
 109.65286150217639
  0
ARC
  8
7A
  6
CONTINUOUS
 62
     3
 10
-82.914116146297943
 20
 56.250036764398061
 40
 8.9200616589999999
 50
 70.347141568293026
 51
 88.223381999228835
  0
LINE
  8
7A
  6
CONTINUOUS
 62
     3
 10
-81.764116146297965
 20
 65.670098423398059
 11
-82.664116146297943
 21
 65.150483181098053
  0
LINE
  8
7A
  6
CONTINUOUS
 62
     3
 10
-72.064116146297977
 20
 65.670098423398059
 11
-71.164116146297943
 21
 65.150483181098053
  0
ARC
  8
7A
  6
CONTINUOUS
 62
     3
 10
-70.914116146297943
 20
 56.250036764398061
 40
 8.9200616589999999
 50
 91.776621071240569
 51
 109.65286150217639
  0
LINE
  8
7A
  6
CONTINUOUS
 62
     3
 10
-92.413916146297993
 20
 27.986706540098083
 11
-92.913916146297993
 21
 27.986706540098083
  0
LINE
  8
7A
  6
CONTINUOUS
 62
     3
 10
-86.413916146297993
 20
 27.986706540098083
 11
-87.413916146297993
 21
 27.986706540098083
  0
LINE
  8
7A
  6
CONTINUOUS
 62
     3
 10
-86.413916146297993
 20
 27.986706540098083
 11
-87.413916146297993
 21
 27.986706540098083
  0
LINE
  8
LAYER0
  6
CONTINUOUS
 62
     2
 10
-77.484416146297974
 20
 25.986706540098083
 11
-77.484416146297974
 21
 27.036619090098071
  0
LINE
  8
7A
  6
CONTINUOUS
 62
     3
 10
-77.913916146297993
 20
 25.986706540098083
 11
-77.913916146297993
 21
 27.036619090098071
  0
LINE
  8
実線-
  6
CENTER
 62
     4
 10
-95.026353777597933
 20
-56.456505169701984
 11
-22.467407904097968
 21
-56.456505169701984
  0
LINE
  8
7A
  6
CONTINUOUS
 62
     3
 10
-51.956026795097955
 20
-39.455824038001936
 11
-92.913916146297993
 21
-39.455824038001936
  0
LINE
  8
7A
  6
CONTINUOUS
 62
     3
 10
-174.10591991019797
 20
 17.98661909009806
 11
-174.10591991019797
 21
 19.987083138498065
  0
LINE
  8
LAYER0
  6
CONTINUOUS
 62
     2
 10
-170.53541991019796
 20
 17.98661909009806
 11
-170.53541991019796
 21
 19.987083138498065
  0
LINE
  8
7A
  6
CONTINUOUS
 62
     3
 10
-170.10591991019797
 20
 17.98661909009806
 11
-170.10591991019797
 21
 19.987083138498065
  0
LINE
  8
実線-
  6
CENTER
 62
     4
 10
-172.10591991019797
 20
 11.814581998798019
 11
-172.10591991019797
 21
 33.242671568498082
  0
LINE
  8
実線-
  6
CENTER
 62
     4
 10
-76.913916146297993
 20
 34.370916141098064
 11
-76.913916146297993
 21
 68.766065862298063
  0
LINE
  8
7A
  6
CONTINUOUS
 62
     3
 10
-187.10591991009798
 20
 14.98661909009806
 11
-187.10591991009798
 21
 17.98661909009806
  0
LINE
  8
7A
  6
CONTINUOUS
 62
     3
 10
-187.10591991019797
 20
 24.487085138498088
 11
-187.10591991019797
 21
 21.987085138498088
  0
LINE
  8
実線-
  6
CENTER
 62
     4
 10
-192.35591991019797
 20
 37.98661909009806
 11
-151.85591991019794
 21
 37.98661909009806
  0
LINE
  8
7A
  6
CONTINUOUS
 62
     3
 10
-157.10591991019794
 20
 24.487085138498088
 11
-187.10591991019797
 21
 24.487085138498088
  0
LINE
  8
LAYER4
  6
CENTER
 62
     4
 10
-75.913916146297993
 20
-51.456505169701984
 11
-75.913916146297993
 21
-61.456505169701984
  0
LINE
  8
LAYER4
  6
CENTER
 62
     4
 10
-82.913916146297993
 20
-51.456505169701984
 11
-82.913916146297993
 21
-61.456505169701984
  0
INSERT
  8
0
  2
CADWIN-G8
 10
0.0
 20
0.0
  0
INSERT
  8
0
  2
CADWIN-G9
 10
0.0
 20
0.0
  0
INSERT
  8
0
  2
CADWIN-G10
 10
0.0
 20
0.0
  0
INSERT
  8
0
  2
CADWIN-G11
 10
0.0
 20
0.0
  0
INSERT
  8
0
  2
CADWIN-G12
 10
0.0
 20
0.0
  0
INSERT
  8
0
  2
CADWIN-G13
 10
0.0
 20
0.0
  0
INSERT
  8
0
  2
CADWIN-G14
 10
0.0
 20
0.0
  0
INSERT
  8
0
  2
CADWIN-G15
 10
0.0
 20
0.0
  0
INSERT
  8
0
  2
CADWIN-G16
 10
0.0
 20
0.0
  0
INSERT
  8
0
  2
CADWIN-G17
 10
0.0
 20
0.0
  0
INSERT
  8
0
  2
CADWIN-G18
 10
0.0
 20
0.0
  0
INSERT
  8
0
  2
CADWIN-G19
 10
0.0
 20
0.0
  0
INSERT
  8
0
  2
CADWIN-G20
 10
0.0
 20
0.0
  0
INSERT
  8
0
  2
CADWIN-G21
 10
0.0
 20
0.0
  0
INSERT
  8
0
  2
CADWIN-G22
 10
0.0
 20
0.0
  0
INSERT
  8
0
  2
CADWIN-G23
 10
0.0
 20
0.0
  0
INSERT
  8
0
  2
CADWIN-G24
 10
0.0
 20
0.0
  0
INSERT
  8
0
  2
CADWIN-G25
 10
0.0
 20
0.0
  0
INSERT
  8
0
  2
CADWIN-G26
 10
0.0
 20
0.0
  0
INSERT
  8
0
  2
CADWIN-G27
 10
0.0
 20
0.0
  0
INSERT
  8
0
  2
CADWIN-G28
 10
0.0
 20
0.0
  0
LINE
  8
LAYER4
  6
CONTINUOUS
 62
     4
 10
-61.913916146298021
 20
-50.456505169701984
 11
-61.913916146298021
 21
-29.992296559358376
  0
LINE
  8
LAYER4
  6
CONTINUOUS
 62
     4
 10
-75.913916146297993
 20
-49.313545169701982
 11
-75.913916146297993
 21
-29.992296559358376
  0
LINE
  8
LAYER4
  6
CONTINUOUS
 62
     4
 10
-75.913916146297993
 20
-30.992296559358376
 11
-61.913916146298021
 21
-30.992296559358376
  0
LINE
  8
LAYER4
  6
CONTINUOUS
 62
     4
 10
-75.913916146297993
 20
-30.992296559358376
 11
-72.979473344096576
 21
-31.616031631811655
  0
LINE
  8
LAYER4
  6
CONTINUOUS
 62
     4
 10
-75.913916146297993
 20
-30.992296559358376
 11
-72.979473344096576
 21
-30.368561486905097
  0
LINE
  8
LAYER4
  6
CONTINUOUS
 62
     4
 10
-61.913916146298021
 20
-30.992296559358376
 11
-64.848358948499438
 21
-30.368561486905097
  0
LINE
  8
LAYER4
  6
CONTINUOUS
 62
     4
 10
-61.913916146298021
 20
-30.992296559358376
 11
-64.848358948499438
 21
-31.616031631811655
  0
TEXT
  8
LAYER4
  6
CONTINUOUS
 62
     7
 10
-71.313916146297998
 20
-29.792296559358377
 11
-66.513916146297987
 21
-29.792296559358377
 40
 3
 41
 0.8
  1
14
 50
 0
 72
  5
  0
LINE
  8
LAYER4
  6
CONTINUOUS
 62
     4
 10
-75.913916146297993
 20
-50.313545169701982
 11
-75.913916146297993
 21
-29.992296559358376
  0
LINE
  8
LAYER4
  6
CONTINUOUS
 62
     4
 10
-92.913916146297993
 20
-43.456505169701984
 11
-92.913916146297993
 21
-29.992296559358376
  0
LINE
  8
LAYER4
  6
CONTINUOUS
 62
     4
 10
-92.913916146297993
 20
-30.992296559358376
 11
-75.913916146297993
 21
-30.992296559358376
  0
LINE
  8
LAYER4
  6
CONTINUOUS
 62
     4
 10
-92.913916146297993
 20
-30.992296559358376
 11
-89.979473344096576
 21
-31.616031631811655
  0
LINE
  8
LAYER4
  6
CONTINUOUS
 62
     4
 10
-92.913916146297993
 20
-30.992296559358376
 11
-89.979473344096576
 21
-30.368561486905097
  0
LINE
  8
LAYER4
  6
CONTINUOUS
 62
     4
 10
-75.913916146297993
 20
-30.992296559358376
 11
-78.84835894849941
 21
-30.368561486905097
  0
LINE
  8
LAYER4
  6
CONTINUOUS
 62
     4
 10
-75.913916146297993
 20
-30.992296559358376
 11
-78.84835894849941
 21
-31.616031631811655
  0
TEXT
  8
LAYER4
  6
CONTINUOUS
 62
     7
 10
-86.813916146297998
 20
-29.792296559358377
 11
-82.013916146297987
 21
-29.792296559358377
 40
 3
 41
 0.8
  1
17
 50
 0
 72
  5
  0
LINE
  8
LAYER4
  6
CONTINUOUS
 62
     4
 10
-55.413916146298021
 20
-51.967914454101987
 11
-55.413916146298021
 21
-21.250338537972659
  0
LINE
  8
LAYER4
  6
CONTINUOUS
 62
     4
 10
-92.913916146297993
 20
-43.456505169702012
 11
-92.913916146297993
 21
-21.250338537972659
  0
LINE
  8
LAYER4
  6
CONTINUOUS
 62
     4
 10
-92.913916146297993
 20
-22.250338537972659
 11
-55.413916146298021
 21
-22.250338537972659
  0
LINE
  8
LAYER4
  6
CONTINUOUS
 62
     4
 10
-92.913916146297993
 20
-22.250338537972659
 11
-89.979473344096576
 21
-22.874073610425938
  0
LINE
  8
LAYER4
  6
CONTINUOUS
 62
     4
 10
-92.913916146297993
 20
-22.250338537972659
 11
-89.979473344096576
 21
-21.626603465519381
  0
LINE
  8
LAYER4
  6
CONTINUOUS
 62
     4
 10
-55.413916146298021
 20
-22.250338537972659
 11
-58.348358948499438
 21
-21.626603465519381
  0
LINE
  8
LAYER4
  6
CONTINUOUS
 62
     4
 10
-55.413916146298021
 20
-22.250338537972659
 11
-58.348358948499438
 21
-22.874073610425938
  0
TEXT
  8
LAYER4
  6
CONTINUOUS
 62
     7
 10
-78.96391614629799
 20
-21.05033853797266
 11
-69.363916146297996
 21
-21.05033853797266
 40
 3
 41
 0.8
  1
37.5
 50
 0
 72
  5
  0
LINE
  8
LAYER4
  6
CONTINUOUS
 62
     4
 10
-55.413916146298021
 20
-51.967914454101987
 11
-55.413916146298021
 21
-21.250338537972659
  0
LINE
  8
LAYER4
  6
CONTINUOUS
 62
     4
 10
-50.913916146298021
 20
-42.267697754101988
 11
-50.913916146298021
 21
-21.250338537972659
  0
LINE
  8
LAYER4
  6
CONTINUOUS
 62
     4
 10
-55.413916146298021
 20
-22.250338537972659
 11
-50.913916146298021
 21
-22.250338537972659
  0
TEXT
  8
LAYER4
  6
CONTINUOUS
 62
     7
 10
-56.763916146298023
 20
-21.05033853797266
 11
-49.56391614629802
 21
-21.05033853797266
 40
 3
 41
 0.8
  1
4.5
 50
 0
 72
  5
  0
LINE
  8
LAYER4
  6
CONTINUOUS
 62
     4
 10
-45.913916146298021
 20
-22.250338537972659
 11
-50.913916146298021
 21
-22.250338537972659
  0
LINE
  8
LAYER4
  6
CONTINUOUS
 62
     4
 10
-50.913916146298021
 20
-22.250338537972659
 11
-47.979473344096604
 21
-22.874073610425938
  0
LINE
  8
LAYER4
  6
CONTINUOUS
 62
     4
 10
-50.913916146298021
 20
-22.250338537972659
 11
-47.979473344096604
 21
-21.626603465519381
  0
LINE
  8
LAYER4
  6
CONTINUOUS
 62
     4
 10
-60.413916146298021
 20
-22.250338537972659
 11
-55.413916146298021
 21
-22.250338537972659
  0
LINE
  8
LAYER4
  6
CONTINUOUS
 62
     4
 10
-55.413916146298021
 20
-22.250338537972659
 11
-58.348358948499438
 21
-21.626603465519381
  0
LINE
  8
LAYER4
  6
CONTINUOUS
 62
     4
 10
-55.413916146298021
 20
-22.250338537972659
 11
-58.348358948499438
 21
-22.874073610425938
  0
LINE
  8
LAYER4
  6
CONTINUOUS
 62
     4
 10
-50.913916146298021
 20
-42.267697754101988
 11
-50.913916146298021
 21
-21.250338537972659
  0
LINE
  8
LAYER4
  6
CONTINUOUS
 62
     4
 10
-30.913916146298021
 20
-42.267697754101988
 11
-30.913916146298021
 21
-21.250338537972659
  0
LINE
  8
LAYER4
  6
CONTINUOUS
 62
     4
 10
-50.913916146298021
 20
-22.250338537972659
 11
-30.913916146298021
 21
-22.250338537972659
  0
LINE
  8
LAYER4
  6
CONTINUOUS
 62
     4
 10
-50.913916146298021
 20
-22.250338537972659
 11
-47.979473344096604
 21
-22.874073610425938
  0
LINE
  8
LAYER4
  6
CONTINUOUS
 62
     4
 10
-50.913916146298021
 20
-22.250338537972659
 11
-47.979473344096604
 21
-21.626603465519381
  0
LINE
  8
LAYER4
  6
CONTINUOUS
 62
     4
 10
-30.913916146298021
 20
-22.250338537972659
 11
-33.848358948499438
 21
-21.626603465519381
  0
LINE
  8
LAYER4
  6
CONTINUOUS
 62
     4
 10
-30.913916146298021
 20
-22.250338537972659
 11
-33.848358948499438
 21
-22.874073610425938
  0
TEXT
  8
LAYER4
  6
CONTINUOUS
 62
     7
 10
-43.31391614629802
 20
-21.05033853797266
 11
-38.513916146298023
 21
-21.05033853797266
 40
 3
 41
 0.8
  1
20
 50
 0
 72
  5
  0
LINE
  8
LAYER4
  6
CONTINUOUS
 62
     4
 10
-44.135305733297997
 20
-65.956505169701984
 11
-11.596811353372544
 21
-65.956505169701984
  0
LINE
  8
LAYER4
  6
CONTINUOUS
 62
     4
 10
-26.052238833297992
 20
-46.957257455401987
 11
-11.596811353372544
 21
-46.957257455401987
  0
LINE
  8
LAYER4
  6
CONTINUOUS
 62
     4
 10
-12.596811353372544
 20
-46.957257455401987
 11
-12.596811353372544
 21
-65.956505169701984
  0
LINE
  8
LAYER4
  6
CONTINUOUS
 62
     4
 10
-12.596811353372544
 20
-46.957257455401987
 11
-13.220546425825823
 21
-49.891700257603404
  0
LINE
  8
LAYER4
  6
CONTINUOUS
 62
     4
 10
-12.596811353372544
 20
-46.957257455401987
 11
-11.973076280919265
 21
-49.891700257603404
  0
LINE
  8
LAYER4
  6
CONTINUOUS
 62
     4
 10
-12.596811353372544
 20
-65.956505169701984
 11
-11.973076280919265
 21
-63.022062367500567
  0
LINE
  8
LAYER4
  6
CONTINUOUS
 62
     4
 10
-12.596811353372544
 20
-65.956505169701984
 11
-13.220546425825823
 21
-63.022062367500567
  0
TEXT
  8
LAYER4
  6
CONTINUOUS
 62
     7
 10
-13.796811353372561
 20
-58.856881312551984
 11
-13.796811353372561
 21
-54.056881312551987
 40
 3
 41
 0.8
  1
19
 50
 90.000001535234517
 72
  5
  0
LINE
  8
LAYER4
  6
CONTINUOUS
 62
     4
 10
-48.913916146298021
 20
-70.56286409850199
 11
-48.913916146298021
 21
-84.691639110136393
  0
LINE
  8
LAYER4
  6
CONTINUOUS
 62
     4
 10
-30.913916146298021
 20
-51.118177570101992
 11
-30.913916146298021
 21
-84.691639110136393
  0
LINE
  8
LAYER4
  6
CONTINUOUS
 62
     4
 10
-48.913916146298021
 20
-83.691639110136393
 11
-30.913916146298021
 21
-83.691639110136393
  0
LINE
  8
LAYER4
  6
CONTINUOUS
 62
     4
 10
-48.913916146298021
 20
-83.691639110136393
 11
-45.979473344096604
 21
-84.315374182589665
  0
LINE
  8
LAYER4
  6
CONTINUOUS
 62
     4
 10
-48.913916146298021
 20
-83.691639110136393
 11
-45.979473344096604
 21
-83.067904037683121
  0
LINE
  8
LAYER4
  6
CONTINUOUS
 62
     4
 10
-30.913916146298021
 20
-83.691639110136393
 11
-33.848358948499438
 21
-83.067904037683121
  0
LINE
  8
LAYER4
  6
CONTINUOUS
 62
     4
 10
-30.913916146298021
 20
-83.691639110136393
 11
-33.848358948499438
 21
-84.315374182589665
  0
TEXT
  8
LAYER4
  6
CONTINUOUS
 62
     7
 10
-42.31391614629802
 20
-82.49163911013639
 11
-37.513916146298023
 21
-82.49163911013639
 40
 3
 41
 0.8
  1
18
 50
 0
 72
  5
  0
LINE
  8
LAYER4
  6
CONTINUOUS
 62
     4
 10
-68.913916146297993
 20
-70.74293721540198
 11
-68.913916146297993
 21
-84.691639110136393
  0
LINE
  8
LAYER4
  6
CONTINUOUS
 62
     4
 10
-48.913916146298021
 20
-70.56286409850199
 11
-48.913916146298021
 21
-84.691639110136393
  0
LINE
  8
LAYER4
  6
CONTINUOUS
 62
     4
 10
-48.913916146298021
 20
-83.691639110136393
 11
-68.913916146297993
 21
-83.691639110136393
  0
LINE
  8
LAYER4
  6
CONTINUOUS
 62
     4
 10
-48.913916146298021
 20
-83.691639110136393
 11
-51.848358948499438
 21
-83.067904037683121
  0
LINE
  8
LAYER4
  6
CONTINUOUS
 62
     4
 10
-48.913916146298021
 20
-83.691639110136393
 11
-51.848358948499438
 21
-84.315374182589665
  0
LINE
  8
LAYER4
  6
CONTINUOUS
 62
     4
 10
-68.913916146297993
 20
-83.691639110136393
 11
-65.979473344096576
 21
-84.315374182589665
  0
LINE
  8
LAYER4
  6
CONTINUOUS
 62
     4
 10
-68.913916146297993
 20
-83.691639110136393
 11
-65.979473344096576
 21
-83.067904037683121
  0
TEXT
  8
LAYER4
  6
CONTINUOUS
 62
     7
 10
-61.31391614629802
 20
-82.49163911013639
 11
-56.513916146298023
 21
-82.49163911013639
 40
 3
 41
 0.8
  1
20
 50
 0
 72
  5
  0
LINE
  8
LAYER4
  6
CONTINUOUS
 62
     4
 10
-68.913916146297993
 20
-70.74293721540198
 11
-68.913916146297993
 21
-84.691639110136393
  0
LINE
  8
LAYER4
  6
CONTINUOUS
 62
     4
 10
-92.913916146297993
 20
-69.456505169701984
 11
-92.913916146297993
 21
-84.691639110136393
  0
LINE
  8
LAYER4
  6
CONTINUOUS
 62
     4
 10
-92.913916146297993
 20
-83.691639110136393
 11
-68.913916146297993
 21
-83.691639110136393
  0
LINE
  8
LAYER4
  6
CONTINUOUS
 62
     4
 10
-92.913916146297993
 20
-83.691639110136393
 11
-89.979473344096576
 21
-84.315374182589665
  0
LINE
  8
LAYER4
  6
CONTINUOUS
 62
     4
 10
-92.913916146297993
 20
-83.691639110136393
 11
-89.979473344096576
 21
-83.067904037683121
  0
LINE
  8
LAYER4
  6
CONTINUOUS
 62
     4
 10
-68.913916146297993
 20
-83.691639110136393
 11
-71.84835894849941
 21
-83.067904037683121
  0
LINE
  8
LAYER4
  6
CONTINUOUS
 62
     4
 10
-68.913916146297993
 20
-83.691639110136393
 11
-71.84835894849941
 21
-84.315374182589665
  0
TEXT
  8
LAYER4
  6
CONTINUOUS
 62
     7
 10
-83.313916146297998
 20
-82.49163911013639
 11
-78.513916146297987
 21
-82.49163911013639
 40
 3
 41
 0.8
  1
24
 50
 0
 72
  5
  0
TEXT
  8
LAYER0
  6
CONTINUOUS
 62
     7
 10
-24.384032099025863
 20
-82.60537464652991
 11
-8.2787690990258618
 21
-82.605374646529896
 40
 3.35526312
 41
 0.8
  1
Ｍ４TAP
 50
 0
 72
  5
  0
LINE
  8
LAYER4
  6
CONTINUOUS
 62
     4
 10
-25.413916146297993
 20
 17.98661909009806
 11
-12.541010076284193
 21
 17.98661909009806
  0
LINE
  8
LAYER4
  6
CONTINUOUS
 62
     4
 10
-25.413916146297993
 20
 14.98661909009806
 11
-12.541010076284193
 21
 14.98661909009806
  0
LINE
  8
LAYER4
  6
CONTINUOUS
 62
     4
 10
-13.541010076284193
 20
 17.98661909009806
 11
-13.541010076284193
 21
 14.98661909009806
  0
TEXT
  8
LAYER4
  6
CONTINUOUS
 62
     7
 10
-14.741010076284191
 20
 21.98661909009806
 11
-14.741010076284192
 21
 26.786619090098061
 40
 3
 41
 0.8
  1
ｔ3
 50
 90.000001535234517
 72
  5
  0
LINE
  8
LAYER4
  6
CONTINUOUS
 62
     4
 10
-13.541010076284193
 20
 27.786619090098061
 11
-13.541010076284193
 21
 17.98661909009806
  0
LINE
  8
LAYER4
  6
CONTINUOUS
 62
     4
 10
-13.541010076284193
 20
 17.98661909009806
 11
-12.917275003830916
 21
 20.921061892299477
  0
LINE
  8
LAYER4
  6
CONTINUOUS
 62
     4
 10
-13.541010076284193
 20
 17.98661909009806
 11
-14.16474514873747
 21
 20.921061892299477
  0
LINE
  8
LAYER4
  6
CONTINUOUS
 62
     4
 10
-13.541010076284193
 20
 9.9866190900980598
 11
-13.541010076284193
 21
 14.98661909009806
  0
LINE
  8
LAYER4
  6
CONTINUOUS
 62
     4
 10
-13.541010076284193
 20
 14.98661909009806
 11
-14.16474514873747
 21
 12.052176287896643
  0
LINE
  8
LAYER4
  6
CONTINUOUS
 62
     4
 10
-13.541010076284193
 20
 14.98661909009806
 11
-12.917275003830916
 21
 12.052176287896643
  0
LINE
  8
LAYER4
  6
CONTINUOUS
 62
     4
 10
-26.413916146297993
 20
 13.98661909009806
 11
-26.413916146297993
 21
 1.6226583407671704
  0
LINE
  8
LAYER4
  6
CONTINUOUS
 62
     4
 10
-92.913916146297993
 20
 13.98661909009806
 11
-92.913916146297993
 21
 1.6226583407671704
  0
LINE
  8
LAYER4
  6
CONTINUOUS
 62
     4
 10
-26.413916146297993
 20
 2.6226583407671704
 11
-92.913916146297993
 21
 2.6226583407671704
  0
LINE
  8
LAYER4
  6
CONTINUOUS
 62
     4
 10
-26.413916146297993
 20
 2.6226583407671704
 11
-29.34835894849941
 21
 3.2463934132204484
  0
LINE
  8
LAYER4
  6
CONTINUOUS
 62
     4
 10
-26.413916146297993
 20
 2.6226583407671704
 11
-29.34835894849941
 21
 1.9989232683138924
  0
LINE
  8
LAYER4
  6
CONTINUOUS
 62
     4
 10
-92.913916146297993
 20
 2.6226583407671704
 11
-89.979473344096576
 21
 1.9989232683138924
  0
LINE
  8
LAYER4
  6
CONTINUOUS
 62
     4
 10
-92.913916146297993
 20
 2.6226583407671704
 11
-89.979473344096576
 21
 3.2463934132204484
  0
TEXT
  8
LAYER4
  6
CONTINUOUS
 62
     7
 10
-64.46391614629799
 20
 3.8226583407671706
 11
-54.863916146297996
 21
 3.8226583407671706
 40
 3
 41
 0.8
  1
66.5
 50
 0
 72
  5
  0
LINE
  8
LAYER4
  6
CONTINUOUS
 62
     4
 10
-93.913916146297993
 20
 14.986619090098067
 11
-109.13447127949127
 21
 14.986619090098067
  0
LINE
  8
LAYER4
  6
CONTINUOUS
 62
     4
 10
-93.413916146297993
 20
 27.986706540098083
 11
-109.13447127949127
 21
 27.986706540098083
  0
LINE
  8
LAYER4
  6
CONTINUOUS
 62
     4
 10
-108.13447127949127
 20
 27.986706540098083
 11
-108.13447127949127
 21
 14.986619090098067
  0
LINE
  8
LAYER4
  6
CONTINUOUS
 62
     4
 10
-108.13447127949127
 20
 27.986706540098083
 11
-108.75820635194454
 21
 25.052263737896666
  0
LINE
  8
LAYER4
  6
CONTINUOUS
 62
     4
 10
-108.13447127949127
 20
 27.986706540098083
 11
-107.51073620703799
 21
 25.052263737896666
  0
LINE
  8
LAYER4
  6
CONTINUOUS
 62
     4
 10
-108.13447127949127
 20
 14.986619090098067
 11
-107.51073620703799
 21
 17.921061892299484
  0
LINE
  8
LAYER4
  6
CONTINUOUS
 62
     4
 10
-108.13447127949127
 20
 14.986619090098067
 11
-108.75820635194454
 21
 17.921061892299484
  0
TEXT
  8
LAYER4
  6
CONTINUOUS
 62
     7
 10
-109.33447127949127
 20
 19.08666281509807
 11
-109.33447127949127
 21
 23.886662815098081
 40
 3
 41
 0.8
  1
13
 50
 90.000001535234517
 72
  5
  0
LINE
  8
LAYER4
  6
CONTINUOUS
 62
     4
 10
-93.413916146297993
 20
 27.986706540098083
 11
-109.01056088935138
 21
 27.986706540098083
  0
LINE
  8
LAYER4
  6
CONTINUOUS
 62
     4
 10
-79.9141161462979
 20
 44.986706540098083
 11
-109.01056088935138
 21
 44.986706540098083
  0
LINE
  8
LAYER4
  6
CONTINUOUS
 62
     4
 10
-108.01056088935138
 20
 27.986706540098083
 11
-108.01056088935138
 21
 44.986706540098083
  0
LINE
  8
LAYER4
  6
CONTINUOUS
 62
     4
 10
-108.01056088935138
 20
 27.986706540098083
 11
-107.38682581689811
 21
 30.921149342299501
  0
LINE
  8
LAYER4
  6
CONTINUOUS
 62
     4
 10
-108.01056088935138
 20
 27.986706540098083
 11
-108.63429596180465
 21
 30.921149342299501
  0
LINE
  8
LAYER4
  6
CONTINUOUS
 62
     4
 10
-108.01056088935138
 20
 44.986706540098083
 11
-108.63429596180465
 21
 42.052263737896666
  0
LINE
  8
LAYER4
  6
CONTINUOUS
 62
     4
 10
-108.01056088935138
 20
 44.986706540098083
 11
-107.38682581689811
 21
 42.052263737896666
  0
TEXT
  8
LAYER4
  6
CONTINUOUS
 62
     7
 10
-109.21056088935138
 20
 34.086706540098078
 11
-109.21056088935138
 21
 38.886706540098089
 40
 3
 41
 0.8
  1
17
 50
 90.000001535234517
 72
  5
  0
LINE
  8
LAYER4
  6
CONTINUOUS
 62
     4
 10
-93.913916146297993
 20
 14.986619090098067
 11
-118.13156600189711
 21
 14.986619090098067
  0
LINE
  8
LAYER4
  6
CONTINUOUS
 62
     4
 10
-83.914116146297943
 20
 54.987021463498053
 11
-118.13156600189711
 21
 54.987021463498053
  0
LINE
  8
LAYER4
  6
CONTINUOUS
 62
     4
 10
-117.13156600189711
 20
 14.986619090098067
 11
-117.13156600189711
 21
 54.987021463498053
  0
LINE
  8
LAYER4
  6
CONTINUOUS
 62
     4
 10
-117.13156600189711
 20
 14.986619090098067
 11
-116.50783092944384
 21
 17.921061892299484
  0
LINE
  8
LAYER4
  6
CONTINUOUS
 62
     4
 10
-117.13156600189711
 20
 14.986619090098067
 11
-117.75530107435038
 21
 17.921061892299484
  0
LINE
  8
LAYER4
  6
CONTINUOUS
 62
     4
 10
-117.13156600189711
 20
 54.987021463498053
 11
-117.75530107435038
 21
 52.052578661296636
  0
LINE
  8
LAYER4
  6
CONTINUOUS
 62
     4
 10
-117.13156600189711
 20
 54.987021463498053
 11
-116.50783092944384
 21
 52.052578661296636
  0
TEXT
  8
LAYER4
  6
CONTINUOUS
 62
     7
 10
-118.33156600189712
 20
 32.586820276798051
 11
-118.33156600189712
 21
 37.386820276798062
 40
 3
 41
 0.8
  1
40
 50
 90.000001535234517
 72
  5
  0
LINE
  8
LAYER4
  6
CONTINUOUS
 62
     4
 10
-157.10591991029798
 20
 13.98661909009806
 11
-157.10591991029798
 21
 1.6226583407671722
  0
LINE
  8
LAYER4
  6
CONTINUOUS
 62
     4
 10
-187.10591991009798
 20
 13.98661909009806
 11
-187.10591991009798
 21
 1.6226583407671722
  0
LINE
  8
LAYER4
  6
CONTINUOUS
 62
     4
 10
-157.10591991029798
 20
 2.6226583407671722
 11
-187.10591991009798
 21
 2.6226583407671722
  0
LINE
  8
LAYER4
  6
CONTINUOUS
 62
     4
 10
-157.10591991029798
 20
 2.6226583407671722
 11
-160.04036271249942
 21
 3.2463934132204502
  0
LINE
  8
LAYER4
  6
CONTINUOUS
 62
     4
 10
-157.10591991029798
 20
 2.6226583407671722
 11
-160.04036271249942
 21
 1.9989232683138942
  0
LINE
  8
LAYER4
  6
CONTINUOUS
 62
     4
 10
-187.10591991009798
 20
 2.6226583407671722
 11
-184.17147710789658
 21
 1.9989232683138942
  0
LINE
  8
LAYER4
  6
CONTINUOUS
 62
     4
 10
-187.10591991009798
 20
 2.6226583407671722
 11
-184.17147710789658
 21
 3.2463934132204502
  0
TEXT
  8
LAYER4
  6
CONTINUOUS
 62
     7
 10
-174.505919910198
 20
 3.8226583407671724
 11
-169.70591991019799
 21
 3.8226583407671724
 40
 3
 41
 0.8
  1
30
 50
 0
 72
  5
  0
LINE
  8
LAYER4
  6
CONTINUOUS
 62
     4
 10
-189.10593491009797
 20
 52.987547186798082
 11
-189.10593491009797
 21
 77.057091882248002
  0
LINE
  8
LAYER4
  6
CONTINUOUS
 62
     4
 10
-155.10593491009797
 20
 52.987547186798082
 11
-155.10593491009797
 21
 77.057091882248002
  0
LINE
  8
LAYER4
  6
CONTINUOUS
 62
     4
 10
-189.10593491009797
 20
 76.057091882248002
 11
-155.10593491009797
 21
 76.057091882248002
  0
LINE
  8
LAYER4
  6
CONTINUOUS
 62
     4
 10
-189.10593491009797
 20
 76.057091882248002
 11
-186.17149210789654
 21
 75.433356809794731
  0
LINE
  8
LAYER4
  6
CONTINUOUS
 62
     4
 10
-189.10593491009797
 20
 76.057091882248002
 11
-186.17149210789654
 21
 76.680826954701274
  0
LINE
  8
LAYER4
  6
CONTINUOUS
 62
     4
 10
-155.10593491009797
 20
 76.057091882248002
 11
-158.0403777122994
 21
 76.680826954701274
  0
LINE
  8
LAYER4
  6
CONTINUOUS
 62
     4
 10
-155.10593491009797
 20
 76.057091882248002
 11
-158.0403777122994
 21
 75.433356809794731
  0
TEXT
  8
LAYER4
  6
CONTINUOUS
 62
     7
 10
-174.50593491009798
 20
 77.257091882248005
 11
-169.70593491009797
 21
 77.257091882248005
 40
 3
 41
 0.8
  1
34
 50
 0
 72
  5
  0
ENDSEC
  0
EOF
