  0
SECTION
  2
HEADER
  9
$ACADVER
  1
AC1015
  9
$ACADMAINTVER
 70
         6
  9
$DWGCODEPAGE
  3
ANSI_932
  9
$INSBASE
 10
0.0
 20
0.0
 30
0.0
  9
$EXTMIN
 10
1.0000000000E+20
 20
1.0000000000E+20
 30
1.0000000000E+20
  9
$EXTMAX
 10
-1.0000000000E+20
 20
-1.0000000000E+20
 30
-1.0000000000E+20
  9
$LIMMIN
 10
0.0
 20
0.0
  9
$LIMMAX
 10
0.0
 20
0.0
  9
$ORTHOMODE
 70
         0
  9
$REGENMODE
 70
         1
  9
$FILLMODE
 70
         1
  9
$QTEXTMODE
 70
         0
  9
$MIRRTEXT
 70
         1
  9
$LTSCALE
 40
1.0
  9
$ATTMODE
 70
         1
  9
$TEXTSIZE
 40
0.2
  9
$TRACEWID
 40
0.05
  9
$TEXTSTYLE
  7
Standard
  9
$CLAYER
  8
0
  9
$CELTYPE
  6
Continuous
  9
$CECOLOR
 62
       256
  9
$CELTSCALE
 40
1.0
  9
$DISPSILH
 70
         0
  9
$DIMSCALE
 40
1.0
  9
$DIMASZ
 40
0.18
  9
$DIMEXO
 40
0.0625
  9
$DIMDLI
 40
0.38
  9
$DIMRND
 40
0.0
  9
$DIMDLE
 40
0.0
  9
$DIMEXE
 40
0.18
  9
$DIMTP
 40
0.0
  9
$DIMTM
 40
0.0
  9
$DIMTXT
 40
0.18
  9
$DIMCEN
 40
0.09
  9
$DIMTSZ
 40
0.0
  9
$DIMTOL
 70
         0
  9
$DIMLIM
 70
         0
  9
$DIMTIH
 70
         1
  9
$DIMTOH
 70
         1
  9
$DIMSE1
 70
         0
  9
$DIMSE2
 70
         0
  9
$DIMTAD
 70
         0
  9
$DIMZIN
 70
         0
  9
$DIMBLK
  1

  9
$DIMASO
 70
         1
  9
$DIMSHO
 70
         1
  9
$DIMPOST
  1

  9
$DIMAPOST
  1

  9
$DIMALT
 70
         0
  9
$DIMALTD
 70
         2
  9
$DIMALTF
 40
25.4
  9
$DIMLFAC
 40
1.0
  9
$DIMTOFL
 70
         0
  9
$DIMTVP
 40
0.0
  9
$DIMTIX
 70
         0
  9
$DIMSOXD
 70
         0
  9
$DIMSAH
 70
         0
  9
$DIMBLK1
  1

  9
$DIMBLK2
  1

  9
$DIMSTYLE
  2
Standard
  9
$DIMCLRD
 70
         0
  9
$DIMCLRE
 70
         0
  9
$DIMCLRT
 70
         0
  9
$DIMTFAC
 40
1.0
  9
$DIMGAP
 40
0.09
  9
$DIMJUST
 70
         0
  9
$DIMSD1
 70
         0
  9
$DIMSD2
 70
         0
  9
$DIMTOLJ
 70
         1
  9
$DIMTZIN
 70
         0
  9
$DIMALTZ
 70
         0
  9
$DIMALTTZ
 70
         0
  9
$DIMUPT
 70
         0
  9
$DIMDEC
 70
         4
  9
$DIMTDEC
 70
         4
  9
$DIMALTU
 70
         2
  9
$DIMALTTD
 70
         2
  9
$DIMTXSTY
  7
Standard
  9
$DIMAUNIT
 70
         0
  9
$DIMADEC
 70
         0
  9
$DIMALTRND
 40
0.0
  9
$DIMAZIN
 70
         0
  9
$DIMDSEP
 70
         0
  9
$DIMATFIT
 70
         3
  9
$DIMFRAC
 70
         0
  9
$DIMLDRBLK
  1

  9
$DIMLUNIT
 70
         2
  9
$DIMLWD
 70
         0
  9
$DIMLWE
 70
         0
  9
$DIMTMOVE
 70
         0
  9
$LUNITS
 70
         2
  9
$LUPREC
 70
         4
  9
$SKETCHINC
 40
0.1
  9
$FILLETRAD
 40
0.0
  9
$AUNITS
 70
         0
  9
$AUPREC
 70
         0
  9
$MENU
  1
acad
  9
$ELEVATION
 40
0.0
  9
$PELEVATION
 40
0.0
  9
$THICKNESS
 40
0.0
  9
$LIMCHECK
 70
         0
  9
$CHAMFERA
 40
0.0
  9
$CHAMFERB
 40
0.0
  9
$CHAMFERC
 40
0.0
  9
$CHAMFERD
 40
0.0
  9
$SKPOLY
 70
         0
  9
$TDCREATE
 40
0.000000000
  9
$TDUCREATE
 40
0.000000000
  9
$TDUPDATE
 40
0.000000000
  9
$TDUUPDATE
 40
0.000000000
  9
$TDINDWG
 40
0.0000000000
  9
$TDUSRTIMER
 40
0.0000000000
  9
$USRTIMER
 70
         1
  9
$ANGBASE
 50
0.0
  9
$ANGDIR
 70
         0
  9
$PDMODE
 70
         3
  9
$PDSIZE
 40
-1.0
  9
$PLINEWID
 40
0.0
  9
$SPLFRAME
 70
         0
  9
$SPLINETYPE
 70
         6
  9
$SPLINESEGS
 70
         8
  9
$HANDSEED
  5
62B
  9
$SURFTAB1
 70
         6
  9
$SURFTAB2
 70
         6
  9
$SURFTYPE
 70
         6
  9
$SURFU
 70
         6
  9
$SURFV
 70
         6
  9
$UCSBASE
  2

  9
$UCSNAME
  2

  9
$UCSORG
 10
0.0
 20
0.0
 30
0.0
  9
$UCSXDIR
 10
1.0
 20
0.0
 30
0.0
  9
$UCSYDIR
 10
0.0
 20
1.0
 30
0.0
  9
$UCSORTHOREF
  2

  9
$UCSORTHOVIEW
 70
         0
  9
$UCSORGTOP
 10
0.0
 20
0.0
 30
0.0
  9
$UCSORGBOTTOM
 10
0.0
 20
0.0
 30
0.0
  9
$UCSORGLEFT
 10
0.0
 20
0.0
 30
0.0
  9
$UCSORGRIGHT
 10
0.0
 20
0.0
 30
0.0
  9
$UCSORGFRONT
 10
0.0
 20
0.0
 30
0.0
  9
$UCSORGBACK
 10
0.0
 20
0.0
 30
0.0
  9
$PUCSBASE
  2

  9
$PUCSNAME
  2

  9
$PUCSORG
 10
0.0
 20
0.0
 30
0.0
  9
$PUCSXDIR
 10
1.0
 20
0.0
 30
0.0
  9
$PUCSYDIR
 10
0.0
 20
1.0
 30
0.0
  9
$PUCSORTHOREF
  2

  9
$PUCSORTHOVIEW
 70
         0
  9
$PUCSORGTOP
 10
0.0
 20
0.0
 30
0.0
  9
$PUCSORGBOTTOM
 10
0.0
 20
0.0
 30
0.0
  9
$PUCSORGLEFT
 10
0.0
 20
0.0
 30
0.0
  9
$PUCSORGRIGHT
 10
0.0
 20
0.0
 30
0.0
  9
$PUCSORGFRONT
 10
0.0
 20
0.0
 30
0.0
  9
$PUCSORGBACK
 10
0.0
 20
0.0
 30
0.0
  9
$USERI1
 70
         0
  9
$USERI2
 70
         0
  9
$USERI3
 70
         0
  9
$USERI4
 70
         0
  9
$USERI5
 70
         0
  9
$USERR1
 40
0.0
  9
$USERR2
 40
0.0
  9
$USERR3
 40
0.0
  9
$USERR4
 40
0.0
  9
$USERR5
 40
0.0
  9
$WORLDVIEW
 70
         1
  9
$SHADEDGE
 70
         3
  9
$SHADEDIF
 70
        70
  9
$TILEMODE
 70
         1
  9
$MAXACTVP
 70
        16
  9
$PINSBASE
 10
0.0
 20
0.0
 30
0.0
  9
$PLIMCHECK
 70
         0
  9
$PEXTMIN
 10
1.0000000000E+20
 20
1.0000000000E+20
 30
1.0000000000E+20
  9
$PEXTMAX
 10
-1.0000000000E+20
 20
-1.0000000000E+20
 30
-1.0000000000E+20
  9
$PLIMMIN
 10
0.0
 20
0.0
  9
$PLIMMAX
 10
12.0
 20
9.0
  9
$UNITMODE
 70
         0
  9
$VISRETAIN
 70
         0
  9
$PLINEGEN
 70
         1
  9
$PSLTSCALE
 70
         0
  9
$TREEDEPTH
 70
      3020
  9
$CMLSTYLE
  2
Standard
  9
$CMLJUST
 70
         0
  9
$CMLSCALE
 40
1.0
  9
$PROXYGRAPHICS
 70
         0
  9
$MEASUREMENT
 70
         0
  9
$CELWEIGHT
370
         0
  9
$ENDCAPS
280
         0
  9
$JOINSTYLE
280
         0
  9
$LWDISPLAY
290
         0
  9
$INSUNITS
 70
         0
  9
$HYPERLINKBASE
  1

  9
$XEDIT
290
         1
  9
$CEPSNTYPE
380
         0
  9
$PSTYLEMODE
290
         0
  9
$FINGERPRINTGUID
  2

  9
$VERSIONGUID
  2

  9
$EXTNAMES
290
         1
  9
$PSVPSCALE
 40
0.0
  0
ENDSEC
  0
SECTION
  2
CLASSES
  0
CLASS
  1
LWPOLYLINE
  2
AcDbPolyline
  3
"AutoCAD"
 90
        0
280
         0
281
         1
  0
CLASS
  1
IMAGE
  2
AcDbRasterImage
  3
ISM
 90
      127
280
         0
281
         1
  0
CLASS
  1
OLE2FRAME
  2
AcDbOle2Frame
  3
""
 90
        0
280
         0
281
         1
  0
CLASS
  1
HATCH
  2
AcDbHatch
  3
"ACAD_SEDONA"
 90
        0
280
         0
281
         1
  0
CLASS
  1
DICTIONARYVAR
  2
AcDbDictionaryVar
  3
"AutoCAD"
 90
        0
280
         0
281
         0
  0
CLASS
  1
RASTERVARIABLES
  2
AcDbRasterVariables
  3
ISM
 90
        0
280
         0
281
         0
  0
CLASS
  1
IMAGEDEF
  2
AcDbRasterImageDef
  3
ISM
 90
        0
280
         0
281
         0
  0
CLASS
  1
IMAGEDEF_REACTOR
  2
AcDbRasterImageDefReactor
  3
ISM
 90
        1
280
         0
281
         0
  0
CLASS
  1
IDBUFFER
  2
AcDbIdBuffer
  3
"Acad"
 90
        0
280
         0
281
         0
  0
CLASS
  1
SPATIAL_FILTER
  2
AcDbSpatialFilter
  3
"Acad"
 90
        0
280
         0
281
         0
  0
CLASS
  1
XRECORD
  2
AcDbXrecord
  3
"<Built In>"
 90
        0
280
         0
281
         0
  0
CLASS
  1
SORTENTSTABLE
  2
AcDbSortentsTable
  3
"AutoCAD"
 90
        0
280
         0
281
         0
  0
CLASS
  1
LAYER_INDEX
  2
AcDbLayerIndex
  3
"Acad"
 90
        0
280
         0
281
         0
  0
CLASS
  1
SPATIAL_INDEX
  2
AcDbSpatialIndex
  3
"Acad"
 90
        0
280
         0
281
         0
  0
CLASS
  1
OBJECT_PTR
  2
CAseDLPNTableRecord
  3
"ASE-LPNTableRecord"
 90
        1
280
         0
281
         0
  0
CLASS
  1
LAYOUT
  2
AcDbLayout
  3
"AutoCAD 2000"
 90
        1
280
         0
281
         0
  0
CLASS
  1
PLOTSETTINGS
  2
AcDbPlotSettings
  3
"AutoCAD 2000"
 90
        1
280
         0
281
         0
  0
CLASS
  1
ACDBDICTIONARYWDFLT
  2
AcDbDictionaryWithDefault
  3
"AutoCAD 2000"
 90
        1
280
         0
281
         0
  0
CLASS
  1
ACDBPLACEHOLDER
  2
AcDbPlaceHolder
  3
"AutoCAD 2000"
 90
        1
280
         0
281
         0
  0
CLASS
  1
VBA_PROJECT
  2
AcDbVbaProject
  3
"acadvba"
 90
        1
280
         0
281
         0
  0
CLASS
  1
WIPEOUT
  2
AcDbWipeout
  3
WipeOut|AutoCAD Express Tool|expresstools@autodesk.com
 90
      127
280
         0
281
         1
  0
CLASS
  1
WIPEOUTVARIABLES
  2
AcDbWipeoutVariables
  3
WipeOut|AutoCAD Express Tool|expresstools@autodesk.com
 90
        0
280
         0
281
         0
  0
CLASS
  1
RTEXT
  2
RText
  3
RText|AutoCAD Express Tool|expresstools@autodesk.com
 90
        0
280
         0
281
         1
  0
CLASS
  1
ARCALIGNEDTEXT
  2
AcDbArcAlignedText
  3
ATEXT|AutoCAD Express Tool|expresstools@autodesk.com
 90
        0
280
         0
281
         1
  0
ENDSEC
  0
SECTION
  2
TABLES
  0
TABLE
  2
VPORT
  5
7
100
AcDbSymbolTable
 70
         1
  0
VPORT
  5
15
100
AcDbSymbolTableRecord
100
AcDbViewportTableRecord
  2
*ACTIVE
 70
         0
 10
0.0
 20
0.0
 11
1.0
 21
1.0
 12
6.591288
 22
4.579184
 13
0.0
 23
0.0
 14
1.0
 24
1.0
 15
0.0
 25
0.0
 16
0.0
 26
0.0
 36
1.0
 17
0.0
 27
0.0
 37
0.0
 40
9.158369
 41
0.688564
 42
50.0
 43
0.0
 44
0.0
 50
0.0
 51
0.0
 71
         0
 72
       100
 73
         1
 74
         1
 75
         0
 76
         0
 77
         0
 78
         0
281
         0
 65
         0
110
0.0
120
0.0
130
0.0
111
1.0
121
0.0
131
0.0
112
0.0
122
1.0
132
0.0
345
0
346
0
 79
         0
146
0.0
  0
ENDTAB
  0
TABLE
  2
LTYPE
  5
4
100
AcDbSymbolTable
 70
        13
  0
LTYPE
  5
11
100
AcDbSymbolTableRecord
100
AcDbLinetypeTableRecord
  2
ByBlock
 70
        64
  3

 72
        65
 73
         0
 40
0.0
  0
LTYPE
  5
12
100
AcDbSymbolTableRecord
100
AcDbLinetypeTableRecord
  2
ByLayer
 70
        64
  3

 72
        65
 73
         0
 40
0.0
  0
LTYPE
  5
13
100
AcDbSymbolTableRecord
100
AcDbLinetypeTableRecord
  2
Continuous
 70
        64
  3
Solid line
 72
        65
 73
         0
 40
0.0
  0
LTYPE
  5
24
100
AcDbSymbolTableRecord
100
AcDbLinetypeTableRecord
  2
DOT
 70
        64
  3
. . . . . . . . 
 72
        65
 73
         2
 40
1.0
 49
0.0
 74
         0
 49
-1.0
 74
         0
  0
LTYPE
  5
25
100
AcDbSymbolTableRecord
100
AcDbLinetypeTableRecord
  2
DASHED
 70
        64
  3
___  ___  ___  ___  
 72
        65
 73
         2
 40
4.0
 49
3.0
 74
         0
 49
-1.0
 74
         0
  0
LTYPE
  5
26
100
AcDbSymbolTableRecord
100
AcDbLinetypeTableRecord
  2
HIDDEN
 70
        64
  3
__ __ __ __ 
 72
        65
 73
         2
 40
3.0
 49
2.0
 74
         0
 49
-1.0
 74
         0
  0
LTYPE
  5
27
100
AcDbSymbolTableRecord
100
AcDbLinetypeTableRecord
  2
STITCH
 70
        64
  3
_ _ _ _ 
 72
        65
 73
         2
 40
2.0
 49
1.0
 74
         0
 49
-1.0
 74
         0
  0
LTYPE
  5
28
100
AcDbSymbolTableRecord
100
AcDbLinetypeTableRecord
  2
CENTER
 70
        64
  3
______  __  ______  __  
 72
        65
 73
         4
 40
43.0
 49
40.0
 74
         0
 49
-1.0
 74
         0
 49
1.0
 74
         0
 49
-1.0
 74
         0
  0
LTYPE
  5
29
100
AcDbSymbolTableRecord
100
AcDbLinetypeTableRecord
  2
DASHDOT
 70
        64
  3
____ . ____ . 
 72
        65
 73
         4
 40
32.0
 49
30.0
 74
         0
 49
-1.0
 74
         0
 49
0.0
 74
         0
 49
-1.0
 74
         0
  0
LTYPE
  5
2A
100
AcDbSymbolTableRecord
100
AcDbLinetypeTableRecord
  2
BORDER
 70
        64
  3
__ . __ . 
 72
        65
 73
         4
 40
22.0
 49
20.0
 74
         0
 49
-1.0
 74
         0
 49
0.0
 74
         0
 49
-1.0
 74
         0
  0
LTYPE
  5
2B
100
AcDbSymbolTableRecord
100
AcDbLinetypeTableRecord
  2
CUTTING
 70
        64
  3
________   ___   ___   
 72
        65
 73
         6
 40
45.0
 49
40.0
 74
         0
 49
-1.0
 74
         0
 49
1.0
 74
         0
 49
-1.0
 74
         0
 49
1.0
 74
         0
 49
-1.0
 74
         0
  0
LTYPE
  5
2C
100
AcDbSymbolTableRecord
100
AcDbLinetypeTableRecord
  2
PHANTOM
 70
        64
  3
______  __  __  
 72
        65
 73
         6
 40
35.0
 49
30.0
 74
         0
 49
-1.0
 74
         0
 49
1.0
 74
         0
 49
-1.0
 74
         0
 49
1.0
 74
         0
 49
-1.0
 74
         0
  0
LTYPE
  5
2D
100
AcDbSymbolTableRecord
100
AcDbLinetypeTableRecord
  2
DIVIDE
 70
        64
  3
____ . . ____ . . 
 72
        65
 73
         6
 40
23.0
 49
20.0
 74
         0
 49
-1.0
 74
         0
 49
0.0
 74
         0
 49
-1.0
 74
         0
 49
0.0
 74
         0
 49
-1.0
 74
         0
  0
ENDTAB
  0
TABLE
  2
LAYER
  5
2
100
AcDbSymbolTable
 70
         4
  0
LAYER
  5
14
100
AcDbSymbolTableRecord
100
AcDbLayerTableRecord
  2
0
 70
         0
 62
         7
  6
Continuous
290
         1
370
        -3
390
1D
  0
LAYER
  5
34
100
AcDbSymbolTableRecord
100
AcDbLayerTableRecord
  2
LAYER0
 70
         0
 62
         7
  6
Continuous
290
         1
370
        -3
390
1F
  0
LAYER
  5
AD
100
AcDbSymbolTableRecord
100
AcDbLayerTableRecord
  2
LAYER3
 70
         0
 62
         7
  6
Continuous
290
         1
370
        -3
390
1F
  0
LAYER
  5
BE
100
AcDbSymbolTableRecord
100
AcDbLayerTableRecord
  2
LAYER1
 70
         0
 62
         7
  6
Continuous
290
         1
370
        -3
390
1F
  0
ENDTAB
  0
TABLE
  2
STYLE
  5
3
100
AcDbSymbolTable
 70
         1
  0
STYLE
  5
17
100
AcDbSymbolTableRecord
100
AcDbTextStyleTableRecord
  2
Standard
 70
         0
 40
0.0
 41
1.0
 50
0.0
 71
         0
 42
0.0
  3
txt
  4
extfont
  0
ENDTAB
  0
TABLE
  2
VIEW
  5
5
100
AcDbSymbolTable
 70
         0
  0
ENDTAB
  0
TABLE
  2
UCS
  5
6
100
AcDbSymbolTable
 70
         0
  0
ENDTAB
  0
TABLE
  2
APPID
  5
8
100
AcDbSymbolTable
 70
         1
  0
APPID
  5
16
100
AcDbSymbolTableRecord
100
AcDbRegAppTableRecord
  2
ACAD
 70
         0
  0
ENDTAB
  0
TABLE
  2
DIMSTYLE
  5
9
100
AcDbSymbolTable
 70
         1
100
AcDbDimStyleTable
 71
         0
  0
DIMSTYLE
105
18
100
AcDbSymbolTableRecord
100
AcDbDimStyleTableRecord
  2
Standard
 70
         0
  3

  4

 40
1.0
 41
0.18
 42
0.0625
 43
0.38
 44
0.18
 45
0.0
 46
0.0
 47
0.0
 48
0.0
 71
         0
 72
         0
 73
         1
 74
         1
 75
         0
 76
         0
 77
         0
 78
         0
 79
         0
140
0.18
141
0.09
142
0.0
143
25.4
144
1.0
145
0.0
146
1.0
147
0.09
148
0.0
170
         0
171
         2
172
         0
173
         0
174
         0
175
         0
176
         0
177
         0
178
         0
179
         0
271
         4
272
         4
273
         2
274
         2
275
         0
276
         0
277
         2
278
        46
279
         0
280
         0
281
         0
282
         0
283
         1
284
         0
285
         0
286
         0
288
         0
340
17
341
0
342
0
343
0
344
0
371
        -2
372
        -2
  0
ENDTAB
  0
TABLE
  2
BLOCK_RECORD
  5
1
100
AcDbSymbolTable
 70
       130
  0
BLOCK_RECORD
  5
A
100
AcDbSymbolTableRecord
100
AcDbBlockTableRecord
  2
*MODEL_SPACE
340
20
  0
BLOCK_RECORD
  5
B
100
AcDbSymbolTableRecord
100
AcDbBlockTableRecord
  2
*PAPER_SPACE
340
21
  0
BLOCK_RECORD
  5
2E
100
AcDbSymbolTableRecord
100
AcDbBlockTableRecord
  2
CLUMP0
340
0
  0
BLOCK_RECORD
  5
31
100
AcDbSymbolTableRecord
100
AcDbBlockTableRecord
  2
CLUMP1
340
0
  0
BLOCK_RECORD
  5
5D
100
AcDbSymbolTableRecord
100
AcDbBlockTableRecord
  2
CLUMP2
340
0
  0
BLOCK_RECORD
  5
60
100
AcDbSymbolTableRecord
100
AcDbBlockTableRecord
  2
CLUMP3
340
0
  0
BLOCK_RECORD
  5
8C
100
AcDbSymbolTableRecord
100
AcDbBlockTableRecord
  2
CLUMP4
340
0
  0
BLOCK_RECORD
  5
8F
100
AcDbSymbolTableRecord
100
AcDbBlockTableRecord
  2
CLUMP5
340
0
  0
BLOCK_RECORD
  5
9C
100
AcDbSymbolTableRecord
100
AcDbBlockTableRecord
  2
CLUMP6
340
0
  0
BLOCK_RECORD
  5
9F
100
AcDbSymbolTableRecord
100
AcDbBlockTableRecord
  2
CLUMP7
340
0
  0
BLOCK_RECORD
  5
C6
100
AcDbSymbolTableRecord
100
AcDbBlockTableRecord
  2
CLUMP8
340
0
  0
BLOCK_RECORD
  5
C9
100
AcDbSymbolTableRecord
100
AcDbBlockTableRecord
  2
CLUMP9
340
0
  0
BLOCK_RECORD
  5
D2
100
AcDbSymbolTableRecord
100
AcDbBlockTableRecord
  2
CLUMP10
340
0
  0
BLOCK_RECORD
  5
D5
100
AcDbSymbolTableRecord
100
AcDbBlockTableRecord
  2
CLUMP11
340
0
  0
BLOCK_RECORD
  5
EC
100
AcDbSymbolTableRecord
100
AcDbBlockTableRecord
  2
CLUMP12
340
0
  0
BLOCK_RECORD
  5
EF
100
AcDbSymbolTableRecord
100
AcDbBlockTableRecord
  2
CLUMP13
340
0
  0
BLOCK_RECORD
  5
F8
100
AcDbSymbolTableRecord
100
AcDbBlockTableRecord
  2
CLUMP14
340
0
  0
BLOCK_RECORD
  5
FB
100
AcDbSymbolTableRecord
100
AcDbBlockTableRecord
  2
CLUMP15
340
0
  0
BLOCK_RECORD
  5
104
100
AcDbSymbolTableRecord
100
AcDbBlockTableRecord
  2
CLUMP16
340
0
  0
BLOCK_RECORD
  5
107
100
AcDbSymbolTableRecord
100
AcDbBlockTableRecord
  2
CLUMP17
340
0
  0
BLOCK_RECORD
  5
11A
100
AcDbSymbolTableRecord
100
AcDbBlockTableRecord
  2
CLUMP18
340
0
  0
BLOCK_RECORD
  5
11D
100
AcDbSymbolTableRecord
100
AcDbBlockTableRecord
  2
CLUMP19
340
0
  0
BLOCK_RECORD
  5
12F
100
AcDbSymbolTableRecord
100
AcDbBlockTableRecord
  2
CLUMP20
340
0
  0
BLOCK_RECORD
  5
132
100
AcDbSymbolTableRecord
100
AcDbBlockTableRecord
  2
CLUMP21
340
0
  0
BLOCK_RECORD
  5
140
100
AcDbSymbolTableRecord
100
AcDbBlockTableRecord
  2
CLUMP22
340
0
  0
BLOCK_RECORD
  5
143
100
AcDbSymbolTableRecord
100
AcDbBlockTableRecord
  2
CLUMP23
340
0
  0
BLOCK_RECORD
  5
16F
100
AcDbSymbolTableRecord
100
AcDbBlockTableRecord
  2
CLUMP24
340
0
  0
BLOCK_RECORD
  5
172
100
AcDbSymbolTableRecord
100
AcDbBlockTableRecord
  2
CLUMP25
340
0
  0
BLOCK_RECORD
  5
180
100
AcDbSymbolTableRecord
100
AcDbBlockTableRecord
  2
CLUMP26
340
0
  0
BLOCK_RECORD
  5
183
100
AcDbSymbolTableRecord
100
AcDbBlockTableRecord
  2
CLUMP27
340
0
  0
BLOCK_RECORD
  5
191
100
AcDbSymbolTableRecord
100
AcDbBlockTableRecord
  2
CLUMP28
340
0
  0
BLOCK_RECORD
  5
194
100
AcDbSymbolTableRecord
100
AcDbBlockTableRecord
  2
CLUMP29
340
0
  0
BLOCK_RECORD
  5
1A2
100
AcDbSymbolTableRecord
100
AcDbBlockTableRecord
  2
CLUMP30
340
0
  0
BLOCK_RECORD
  5
1A5
100
AcDbSymbolTableRecord
100
AcDbBlockTableRecord
  2
CLUMP31
340
0
  0
BLOCK_RECORD
  5
1AF
100
AcDbSymbolTableRecord
100
AcDbBlockTableRecord
  2
CLUMP32
340
0
  0
BLOCK_RECORD
  5
1B2
100
AcDbSymbolTableRecord
100
AcDbBlockTableRecord
  2
CLUMP33
340
0
  0
BLOCK_RECORD
  5
1BB
100
AcDbSymbolTableRecord
100
AcDbBlockTableRecord
  2
CLUMP34
340
0
  0
BLOCK_RECORD
  5
1BE
100
AcDbSymbolTableRecord
100
AcDbBlockTableRecord
  2
CLUMP35
340
0
  0
BLOCK_RECORD
  5
1C7
100
AcDbSymbolTableRecord
100
AcDbBlockTableRecord
  2
CLUMP36
340
0
  0
BLOCK_RECORD
  5
1CA
100
AcDbSymbolTableRecord
100
AcDbBlockTableRecord
  2
CLUMP37
340
0
  0
BLOCK_RECORD
  5
1D6
100
AcDbSymbolTableRecord
100
AcDbBlockTableRecord
  2
CLUMP38
340
0
  0
BLOCK_RECORD
  5
1D9
100
AcDbSymbolTableRecord
100
AcDbBlockTableRecord
  2
CLUMP39
340
0
  0
BLOCK_RECORD
  5
1E7
100
AcDbSymbolTableRecord
100
AcDbBlockTableRecord
  2
CLUMP40
340
0
  0
BLOCK_RECORD
  5
1EA
100
AcDbSymbolTableRecord
100
AcDbBlockTableRecord
  2
CLUMP41
340
0
  0
BLOCK_RECORD
  5
1F3
100
AcDbSymbolTableRecord
100
AcDbBlockTableRecord
  2
CLUMP42
340
0
  0
BLOCK_RECORD
  5
1F6
100
AcDbSymbolTableRecord
100
AcDbBlockTableRecord
  2
CLUMP43
340
0
  0
BLOCK_RECORD
  5
28F
100
AcDbSymbolTableRecord
100
AcDbBlockTableRecord
  2
CLUMP44
340
0
  0
BLOCK_RECORD
  5
292
100
AcDbSymbolTableRecord
100
AcDbBlockTableRecord
  2
CLUMP45
340
0
  0
BLOCK_RECORD
  5
29F
100
AcDbSymbolTableRecord
100
AcDbBlockTableRecord
  2
CLUMP46
340
0
  0
BLOCK_RECORD
  5
2A2
100
AcDbSymbolTableRecord
100
AcDbBlockTableRecord
  2
CLUMP47
340
0
  0
BLOCK_RECORD
  5
2B3
100
AcDbSymbolTableRecord
100
AcDbBlockTableRecord
  2
CLUMP48
340
0
  0
BLOCK_RECORD
  5
2B6
100
AcDbSymbolTableRecord
100
AcDbBlockTableRecord
  2
CLUMP49
340
0
  0
BLOCK_RECORD
  5
2C6
100
AcDbSymbolTableRecord
100
AcDbBlockTableRecord
  2
CLUMP50
340
0
  0
BLOCK_RECORD
  5
2C9
100
AcDbSymbolTableRecord
100
AcDbBlockTableRecord
  2
CLUMP51
340
0
  0
BLOCK_RECORD
  5
2D4
100
AcDbSymbolTableRecord
100
AcDbBlockTableRecord
  2
CLUMP52
340
0
  0
BLOCK_RECORD
  5
2D7
100
AcDbSymbolTableRecord
100
AcDbBlockTableRecord
  2
CLUMP53
340
0
  0
BLOCK_RECORD
  5
2E4
100
AcDbSymbolTableRecord
100
AcDbBlockTableRecord
  2
CLUMP54
340
0
  0
BLOCK_RECORD
  5
2E7
100
AcDbSymbolTableRecord
100
AcDbBlockTableRecord
  2
CLUMP55
340
0
  0
BLOCK_RECORD
  5
2F8
100
AcDbSymbolTableRecord
100
AcDbBlockTableRecord
  2
CLUMP56
340
0
  0
BLOCK_RECORD
  5
2FB
100
AcDbSymbolTableRecord
100
AcDbBlockTableRecord
  2
CLUMP57
340
0
  0
BLOCK_RECORD
  5
313
100
AcDbSymbolTableRecord
100
AcDbBlockTableRecord
  2
CLUMP58
340
0
  0
BLOCK_RECORD
  5
316
100
AcDbSymbolTableRecord
100
AcDbBlockTableRecord
  2
CLUMP59
340
0
  0
BLOCK_RECORD
  5
328
100
AcDbSymbolTableRecord
100
AcDbBlockTableRecord
  2
CLUMP60
340
0
  0
BLOCK_RECORD
  5
32B
100
AcDbSymbolTableRecord
100
AcDbBlockTableRecord
  2
CLUMP61
340
0
  0
BLOCK_RECORD
  5
344
100
AcDbSymbolTableRecord
100
AcDbBlockTableRecord
  2
CLUMP62
340
0
  0
BLOCK_RECORD
  5
347
100
AcDbSymbolTableRecord
100
AcDbBlockTableRecord
  2
CLUMP63
340
0
  0
BLOCK_RECORD
  5
35B
100
AcDbSymbolTableRecord
100
AcDbBlockTableRecord
  2
CLUMP64
340
0
  0
BLOCK_RECORD
  5
35E
100
AcDbSymbolTableRecord
100
AcDbBlockTableRecord
  2
CLUMP65
340
0
  0
BLOCK_RECORD
  5
370
100
AcDbSymbolTableRecord
100
AcDbBlockTableRecord
  2
CLUMP66
340
0
  0
BLOCK_RECORD
  5
373
100
AcDbSymbolTableRecord
100
AcDbBlockTableRecord
  2
CLUMP67
340
0
  0
BLOCK_RECORD
  5
37C
100
AcDbSymbolTableRecord
100
AcDbBlockTableRecord
  2
CLUMP68
340
0
  0
BLOCK_RECORD
  5
37F
100
AcDbSymbolTableRecord
100
AcDbBlockTableRecord
  2
CLUMP69
340
0
  0
BLOCK_RECORD
  5
388
100
AcDbSymbolTableRecord
100
AcDbBlockTableRecord
  2
CLUMP70
340
0
  0
BLOCK_RECORD
  5
38B
100
AcDbSymbolTableRecord
100
AcDbBlockTableRecord
  2
CLUMP71
340
0
  0
BLOCK_RECORD
  5
398
100
AcDbSymbolTableRecord
100
AcDbBlockTableRecord
  2
CLUMP72
340
0
  0
BLOCK_RECORD
  5
39B
100
AcDbSymbolTableRecord
100
AcDbBlockTableRecord
  2
CLUMP73
340
0
  0
BLOCK_RECORD
  5
3A8
100
AcDbSymbolTableRecord
100
AcDbBlockTableRecord
  2
CLUMP74
340
0
  0
BLOCK_RECORD
  5
3AB
100
AcDbSymbolTableRecord
100
AcDbBlockTableRecord
  2
CLUMP75
340
0
  0
BLOCK_RECORD
  5
3C8
100
AcDbSymbolTableRecord
100
AcDbBlockTableRecord
  2
CLUMP76
340
0
  0
BLOCK_RECORD
  5
3CB
100
AcDbSymbolTableRecord
100
AcDbBlockTableRecord
  2
CLUMP77
340
0
  0
BLOCK_RECORD
  5
3E4
100
AcDbSymbolTableRecord
100
AcDbBlockTableRecord
  2
CLUMP78
340
0
  0
BLOCK_RECORD
  5
3E7
100
AcDbSymbolTableRecord
100
AcDbBlockTableRecord
  2
CLUMP79
340
0
  0
BLOCK_RECORD
  5
3F5
100
AcDbSymbolTableRecord
100
AcDbBlockTableRecord
  2
CLUMP80
340
0
  0
BLOCK_RECORD
  5
3F8
100
AcDbSymbolTableRecord
100
AcDbBlockTableRecord
  2
CLUMP81
340
0
  0
BLOCK_RECORD
  5
406
100
AcDbSymbolTableRecord
100
AcDbBlockTableRecord
  2
CLUMP82
340
0
  0
BLOCK_RECORD
  5
409
100
AcDbSymbolTableRecord
100
AcDbBlockTableRecord
  2
CLUMP83
340
0
  0
BLOCK_RECORD
  5
412
100
AcDbSymbolTableRecord
100
AcDbBlockTableRecord
  2
CLUMP84
340
0
  0
BLOCK_RECORD
  5
415
100
AcDbSymbolTableRecord
100
AcDbBlockTableRecord
  2
CLUMP85
340
0
  0
BLOCK_RECORD
  5
41E
100
AcDbSymbolTableRecord
100
AcDbBlockTableRecord
  2
CLUMP86
340
0
  0
BLOCK_RECORD
  5
421
100
AcDbSymbolTableRecord
100
AcDbBlockTableRecord
  2
CLUMP87
340
0
  0
BLOCK_RECORD
  5
432
100
AcDbSymbolTableRecord
100
AcDbBlockTableRecord
  2
CLUMP88
340
0
  0
BLOCK_RECORD
  5
435
100
AcDbSymbolTableRecord
100
AcDbBlockTableRecord
  2
CLUMP89
340
0
  0
BLOCK_RECORD
  5
443
100
AcDbSymbolTableRecord
100
AcDbBlockTableRecord
  2
CLUMP90
340
0
  0
BLOCK_RECORD
  5
446
100
AcDbSymbolTableRecord
100
AcDbBlockTableRecord
  2
CLUMP91
340
0
  0
BLOCK_RECORD
  5
453
100
AcDbSymbolTableRecord
100
AcDbBlockTableRecord
  2
CLUMP92
340
0
  0
BLOCK_RECORD
  5
456
100
AcDbSymbolTableRecord
100
AcDbBlockTableRecord
  2
CLUMP93
340
0
  0
BLOCK_RECORD
  5
463
100
AcDbSymbolTableRecord
100
AcDbBlockTableRecord
  2
CLUMP94
340
0
  0
BLOCK_RECORD
  5
466
100
AcDbSymbolTableRecord
100
AcDbBlockTableRecord
  2
CLUMP95
340
0
  0
BLOCK_RECORD
  5
474
100
AcDbSymbolTableRecord
100
AcDbBlockTableRecord
  2
CLUMP96
340
0
  0
BLOCK_RECORD
  5
477
100
AcDbSymbolTableRecord
100
AcDbBlockTableRecord
  2
CLUMP97
340
0
  0
BLOCK_RECORD
  5
485
100
AcDbSymbolTableRecord
100
AcDbBlockTableRecord
  2
CLUMP98
340
0
  0
BLOCK_RECORD
  5
488
100
AcDbSymbolTableRecord
100
AcDbBlockTableRecord
  2
CLUMP99
340
0
  0
BLOCK_RECORD
  5
495
100
AcDbSymbolTableRecord
100
AcDbBlockTableRecord
  2
CLUMP100
340
0
  0
BLOCK_RECORD
  5
498
100
AcDbSymbolTableRecord
100
AcDbBlockTableRecord
  2
CLUMP101
340
0
  0
BLOCK_RECORD
  5
4A5
100
AcDbSymbolTableRecord
100
AcDbBlockTableRecord
  2
CLUMP102
340
0
  0
BLOCK_RECORD
  5
4A8
100
AcDbSymbolTableRecord
100
AcDbBlockTableRecord
  2
CLUMP103
340
0
  0
BLOCK_RECORD
  5
4BF
100
AcDbSymbolTableRecord
100
AcDbBlockTableRecord
  2
CLUMP104
340
0
  0
BLOCK_RECORD
  5
4C2
100
AcDbSymbolTableRecord
100
AcDbBlockTableRecord
  2
CLUMP105
340
0
  0
BLOCK_RECORD
  5
4DA
100
AcDbSymbolTableRecord
100
AcDbBlockTableRecord
  2
CLUMP106
340
0
  0
BLOCK_RECORD
  5
4DD
100
AcDbSymbolTableRecord
100
AcDbBlockTableRecord
  2
CLUMP107
340
0
  0
BLOCK_RECORD
  5
4E4
100
AcDbSymbolTableRecord
100
AcDbBlockTableRecord
  2
CLUMP108
340
0
  0
BLOCK_RECORD
  5
4E7
100
AcDbSymbolTableRecord
100
AcDbBlockTableRecord
  2
CLUMP109
340
0
  0
BLOCK_RECORD
  5
4EE
100
AcDbSymbolTableRecord
100
AcDbBlockTableRecord
  2
CLUMP110
340
0
  0
BLOCK_RECORD
  5
4F1
100
AcDbSymbolTableRecord
100
AcDbBlockTableRecord
  2
CLUMP111
340
0
  0
BLOCK_RECORD
  5
500
100
AcDbSymbolTableRecord
100
AcDbBlockTableRecord
  2
CLUMP112
340
0
  0
BLOCK_RECORD
  5
503
100
AcDbSymbolTableRecord
100
AcDbBlockTableRecord
  2
CLUMP113
340
0
  0
BLOCK_RECORD
  5
510
100
AcDbSymbolTableRecord
100
AcDbBlockTableRecord
  2
CLUMP114
340
0
  0
BLOCK_RECORD
  5
513
100
AcDbSymbolTableRecord
100
AcDbBlockTableRecord
  2
CLUMP115
340
0
  0
BLOCK_RECORD
  5
51C
100
AcDbSymbolTableRecord
100
AcDbBlockTableRecord
  2
CLUMP116
340
0
  0
BLOCK_RECORD
  5
51F
100
AcDbSymbolTableRecord
100
AcDbBlockTableRecord
  2
CLUMP117
340
0
  0
BLOCK_RECORD
  5
52C
100
AcDbSymbolTableRecord
100
AcDbBlockTableRecord
  2
CLUMP118
340
0
  0
BLOCK_RECORD
  5
52F
100
AcDbSymbolTableRecord
100
AcDbBlockTableRecord
  2
CLUMP119
340
0
  0
BLOCK_RECORD
  5
538
100
AcDbSymbolTableRecord
100
AcDbBlockTableRecord
  2
CLUMP120
340
0
  0
BLOCK_RECORD
  5
53B
100
AcDbSymbolTableRecord
100
AcDbBlockTableRecord
  2
CLUMP121
340
0
  0
BLOCK_RECORD
  5
551
100
AcDbSymbolTableRecord
100
AcDbBlockTableRecord
  2
CLUMP122
340
0
  0
BLOCK_RECORD
  5
554
100
AcDbSymbolTableRecord
100
AcDbBlockTableRecord
  2
CLUMP123
340
0
  0
BLOCK_RECORD
  5
564
100
AcDbSymbolTableRecord
100
AcDbBlockTableRecord
  2
CLUMP124
340
0
  0
BLOCK_RECORD
  5
567
100
AcDbSymbolTableRecord
100
AcDbBlockTableRecord
  2
CLUMP125
340
0
  0
BLOCK_RECORD
  5
591
100
AcDbSymbolTableRecord
100
AcDbBlockTableRecord
  2
CLUMP126
340
0
  0
BLOCK_RECORD
  5
594
100
AcDbSymbolTableRecord
100
AcDbBlockTableRecord
  2
CLUMP127
340
0
  0
BLOCK_RECORD
  5
60E
100
AcDbSymbolTableRecord
100
AcDbBlockTableRecord
  2
CLUMP128
340
0
  0
BLOCK_RECORD
  5
611
100
AcDbSymbolTableRecord
100
AcDbBlockTableRecord
  2
CLUMP129
340
0
  0
ENDTAB
  0
ENDSEC
  0
SECTION
  2
BLOCKS
  0
BLOCK
  5
D
100
AcDbEntity
  8
0
100
AcDbBlockBegin
  2
*MODEL_SPACE
 70
         0
 10
0.0
 20
0.0
 30
0.0
  3
*MODEL_SPACE
  1

  0
ENDBLK
  5
E
100
AcDbEntity
  8
0
100
AcDbBlockEnd
  0
BLOCK
  5
F
100
AcDbEntity
 67
         1
  8
0
100
AcDbBlockBegin
  2
*PAPER_SPACE
 70
         0
 10
0.0
 20
0.0
 30
0.0
  3
*PAPER_SPACE
  1

  0
ENDBLK
  5
10
100
AcDbEntity
 67
         1
  8
0
100
AcDbBlockEnd
  0
BLOCK
  5
30
100
AcDbEntity
  8
0
100
AcDbBlockBegin
  2
CLUMP0
 70
         0
 10
0.0
 20
0.0
 30
0.0
  3

  1

  0
INSERT
  5
32
100
AcDbEntity
  8
0
100
AcDbBlockReference
  2
CLUMP1
 10
0.0
 20
0.0
 30
0.0
  0
ENDBLK
  5
5C
100
AcDbEntity
  8
0
100
AcDbBlockEnd
  0
BLOCK
  5
33
100
AcDbEntity
  8
0
100
AcDbBlockBegin
  2
CLUMP1
 70
         0
 10
0.0
 20
0.0
 30
0.0
  3

  1

  0
LINE
  5
35
100
AcDbEntity
  8
LAYER0
 62
         3
100
AcDbLine
 10
20.7269578299
 20
33.4147305562
 30
0.0
 11
20.7209467771
 21
33.4242273536
 31
0.0
  0
LINE
  5
36
100
AcDbEntity
  8
LAYER0
 62
         3
100
AcDbLine
 10
20.7209467771
 20
33.4242273536
 30
0.0
 11
20.7133118612
 21
33.4326320392
 31
0.0
  0
LINE
  5
37
100
AcDbEntity
  8
LAYER0
 62
         3
100
AcDbLine
 10
20.7133118612
 20
33.4326320392
 30
0.0
 11
20.7043347763
 21
33.4395904508
 31
0.0
  0
LINE
  5
38
100
AcDbEntity
  8
LAYER0
 62
         3
100
AcDbLine
 10
20.7043347763
 20
33.4395904508
 30
0.0
 11
20.6942170359
 21
33.4449045149
 31
0.0
  0
LINE
  5
39
100
AcDbEntity
  8
LAYER0
 62
         3
100
AcDbLine
 10
20.6942170359
 20
33.4449045149
 30
0.0
 11
20.6833436968
 21
33.4483746853
 31
0.0
  0
LINE
  5
3A
100
AcDbEntity
  8
LAYER0
 62
         3
100
AcDbLine
 10
20.6833436968
 20
33.4483746853
 30
0.0
 11
20.676298913
 21
33.4495523358
 31
0.0
  0
LINE
  5
3B
100
AcDbEntity
  8
LAYER0
 62
         3
100
AcDbLine
 10
20.676298913
 20
33.4495523358
 30
0.0
 11
20.6691671045
 21
33.4499430325
 31
0.0
  0
LINE
  5
3C
100
AcDbEntity
  8
LAYER0
 62
         3
100
AcDbLine
 10
20.6691671045
 20
33.4499430325
 30
0.0
 11
20.6578207907
 21
33.4489356182
 31
0.0
  0
LINE
  5
3D
100
AcDbEntity
  8
LAYER0
 62
         3
100
AcDbLine
 10
20.6578207907
 20
33.4489356182
 30
0.0
 11
20.6468079122
 21
33.4459681477
 31
0.0
  0
LINE
  5
3E
100
AcDbEntity
  8
LAYER0
 62
         3
100
AcDbLine
 10
20.6468079122
 20
33.4459681477
 30
0.0
 11
20.6365521249
 21
33.441152722
 31
0.0
  0
LINE
  5
3F
100
AcDbEntity
  8
LAYER0
 62
         3
100
AcDbLine
 10
20.6365521249
 20
33.441152722
 30
0.0
 11
20.6272883223
 21
33.4346358147
 31
0.0
  0
LINE
  5
40
100
AcDbEntity
  8
LAYER0
 62
         3
100
AcDbLine
 10
20.6272883223
 20
33.4346358147
 30
0.0
 11
20.6193555228
 21
33.4266840977
 31
0.0
  0
LINE
  5
41
100
AcDbEntity
  8
LAYER0
 62
         3
100
AcDbLine
 10
20.6193555228
 20
33.4266840977
 30
0.0
 11
20.6128947319
 21
33.417495754
 31
0.0
  0
LINE
  5
42
100
AcDbEntity
  8
LAYER0
 62
         3
100
AcDbLine
 10
20.6128947319
 20
33.417495754
 30
0.0
 11
20.6081373575
 21
33.4074380512
 31
0.0
  0
LINE
  5
43
100
AcDbEntity
  8
LAYER0
 62
         3
100
AcDbLine
 10
20.6081373575
 20
33.4074380512
 30
0.0
 11
20.6051414715
 21
33.3967235353
 31
0.0
  0
LINE
  5
44
100
AcDbEntity
  8
LAYER0
 62
         3
100
AcDbLine
 10
20.6051414715
 20
33.3967235353
 30
0.0
 11
20.6040016706
 21
33.3857592785
 31
0.0
  0
LINE
  5
45
100
AcDbEntity
  8
LAYER0
 62
         3
100
AcDbLine
 10
20.6040016706
 20
33.3857592785
 30
0.0
 11
20.6047046812
 21
33.3747592237
 31
0.0
  0
LINE
  5
46
100
AcDbEntity
  8
LAYER0
 62
         3
100
AcDbLine
 10
20.6047046812
 20
33.3747592237
 30
0.0
 11
20.6072061759
 21
33.3641350906
 31
0.0
  0
LINE
  5
47
100
AcDbEntity
  8
LAYER0
 62
         3
100
AcDbLine
 10
20.6072061759
 20
33.3641350906
 30
0.0
 11
20.6114288302
 21
33.3540689614
 31
0.0
  0
LINE
  5
48
100
AcDbEntity
  8
LAYER0
 62
         3
100
AcDbLine
 10
20.6114288302
 20
33.3540689614
 30
0.0
 11
20.6172046341
 21
33.3449236916
 31
0.0
  0
LINE
  5
49
100
AcDbEntity
  8
LAYER0
 62
         3
100
AcDbLine
 10
20.6172046341
 20
33.3449236916
 30
0.0
 11
20.6244021537
 21
33.3368581202
 31
0.0
  0
LINE
  5
4A
100
AcDbEntity
  8
LAYER0
 62
         3
100
AcDbLine
 10
20.6244021537
 20
33.3368581202
 30
0.0
 11
20.6327518888
 21
33.3301584382
 31
0.0
  0
LINE
  5
4B
100
AcDbEntity
  8
LAYER0
 62
         3
100
AcDbLine
 10
20.6327518888
 20
33.3301584382
 30
0.0
 11
20.6420916947
 21
33.3248924878
 31
0.0
  0
LINE
  5
4C
100
AcDbEntity
  8
LAYER0
 62
         3
100
AcDbLine
 10
20.6420916947
 20
33.3248924878
 30
0.0
 11
20.6521010516
 21
33.3212243182
 31
0.0
  0
LINE
  5
4D
100
AcDbEntity
  8
LAYER0
 62
         3
100
AcDbLine
 10
20.6521010516
 20
33.3212243182
 30
0.0
 11
20.6625472637
 21
33.3193157282
 31
0.0
  0
LINE
  5
4E
100
AcDbEntity
  8
LAYER0
 62
         3
100
AcDbLine
 10
20.6625472637
 20
33.3193157282
 30
0.0
 11
20.6691671045
 21
33.3189767268
 31
0.0
  0
LINE
  5
4F
100
AcDbEntity
  8
LAYER0
 62
         3
100
AcDbLine
 10
20.6691671045
 20
33.3189767268
 30
0.0
 11
20.6836277502
 21
33.3206084039
 31
0.0
  0
LINE
  5
50
100
AcDbEntity
  8
LAYER0
 62
         3
100
AcDbLine
 10
20.6836277502
 20
33.3206084039
 30
0.0
 11
20.6937315747
 21
33.3237390719
 31
0.0
  0
LINE
  5
51
100
AcDbEntity
  8
LAYER0
 62
         3
100
AcDbLine
 10
20.6937315747
 20
33.3237390719
 30
0.0
 11
20.7031920435
 21
33.3286066022
 31
0.0
  0
LINE
  5
52
100
AcDbEntity
  8
LAYER0
 62
         3
100
AcDbLine
 10
20.7031920435
 20
33.3286066022
 30
0.0
 11
20.7117911193
 21
33.3349370248
 31
0.0
  0
LINE
  5
53
100
AcDbEntity
  8
LAYER0
 62
         3
100
AcDbLine
 10
20.7117911193
 20
33.3349370248
 30
0.0
 11
20.7192480447
 21
33.3425429132
 31
0.0
  0
LINE
  5
54
100
AcDbEntity
  8
LAYER0
 62
         3
100
AcDbLine
 10
20.7192480447
 20
33.3425429132
 30
0.0
 11
20.7254201061
 21
33.3513736032
 31
0.0
  0
LINE
  5
55
100
AcDbEntity
  8
LAYER0
 62
         3
100
AcDbLine
 10
20.7254201061
 20
33.3513736032
 30
0.0
 11
20.7300644251
 21
33.3611060347
 31
0.0
  0
LINE
  5
56
100
AcDbEntity
  8
LAYER0
 62
         3
100
AcDbLine
 10
20.7300644251
 20
33.3611060347
 30
0.0
 11
20.7330793323
 21
33.3716105935
 31
0.0
  0
LINE
  5
57
100
AcDbEntity
  8
LAYER0
 62
         3
100
AcDbLine
 10
20.7330793323
 20
33.3716105935
 30
0.0
 11
20.7343168439
 21
33.3824668493
 31
0.0
  0
LINE
  5
58
100
AcDbEntity
  8
LAYER0
 62
         3
100
AcDbLine
 10
20.7343168439
 20
33.3824668493
 30
0.0
 11
20.733714184
 21
33.393536051
 31
0.0
  0
LINE
  5
59
100
AcDbEntity
  8
LAYER0
 62
         3
100
AcDbLine
 10
20.733714184
 20
33.393536051
 30
0.0
 11
20.7312648999
 21
33.4043492045
 31
0.0
  0
LINE
  5
5A
100
AcDbEntity
  8
LAYER0
 62
         3
100
AcDbLine
 10
20.7312648999
 20
33.4043492045
 30
0.0
 11
20.7269578299
 21
33.4147305562
 31
0.0
  0
ENDBLK
  5
5B
100
AcDbEntity
  8
0
100
AcDbBlockEnd
  0
BLOCK
  5
5F
100
AcDbEntity
  8
0
100
AcDbBlockBegin
  2
CLUMP2
 70
         0
 10
0.0
 20
0.0
 30
0.0
  3

  1

  0
INSERT
  5
61
100
AcDbEntity
  8
0
100
AcDbBlockReference
  2
CLUMP3
 10
0.0
 20
0.0
 30
0.0
  0
ENDBLK
  5
8B
100
AcDbEntity
  8
0
100
AcDbBlockEnd
  0
BLOCK
  5
62
100
AcDbEntity
  8
0
100
AcDbBlockBegin
  2
CLUMP3
 70
         0
 10
0.0
 20
0.0
 30
0.0
  3

  1

  0
LINE
  5
63
100
AcDbEntity
  8
LAYER0
 62
         3
100
AcDbLine
 10
20.6046391683
 20
53.3752228706
 30
0.0
 11
20.6070721032
 21
53.3645440307
 31
0.0
  0
LINE
  5
64
100
AcDbEntity
  8
LAYER0
 62
         3
100
AcDbLine
 10
20.6070721032
 20
53.3645440307
 30
0.0
 11
20.6111807406
 21
53.3545528139
 31
0.0
  0
LINE
  5
65
100
AcDbEntity
  8
LAYER0
 62
         3
100
AcDbLine
 10
20.6111807406
 20
53.3545528139
 30
0.0
 11
20.6168696167
 21
53.3453699615
 31
0.0
  0
LINE
  5
66
100
AcDbEntity
  8
LAYER0
 62
         3
100
AcDbLine
 10
20.6168696167
 20
53.3453699615
 30
0.0
 11
20.6239078596
 21
53.3373343422
 31
0.0
  0
LINE
  5
67
100
AcDbEntity
  8
LAYER0
 62
         3
100
AcDbLine
 10
20.6239078596
 20
53.3373343422
 30
0.0
 11
20.6321600707
 21
53.3305507567
 31
0.0
  0
LINE
  5
68
100
AcDbEntity
  8
LAYER0
 62
         3
100
AcDbLine
 10
20.6321600707
 20
53.3305507567
 30
0.0
 11
20.6413479359
 21
53.3252402731
 31
0.0
  0
LINE
  5
69
100
AcDbEntity
  8
LAYER0
 62
         3
100
AcDbLine
 10
20.6413479359
 20
53.3252402731
 30
0.0
 11
20.6512717413
 21
53.3214908507
 31
0.0
  0
LINE
  5
6A
100
AcDbEntity
  8
LAYER0
 62
         3
100
AcDbLine
 10
20.6512717413
 20
53.3214908507
 30
0.0
 11
20.6601343278
 21
53.3196087523
 31
0.0
  0
LINE
  5
6B
100
AcDbEntity
  8
LAYER0
 62
         3
100
AcDbLine
 10
20.6601343278
 20
53.3196087523
 30
0.0
 11
20.6691671045
 21
53.3189762797
 31
0.0
  0
LINE
  5
6C
100
AcDbEntity
  8
LAYER0
 62
         3
100
AcDbLine
 10
20.6691671045
 20
53.3189762797
 30
0.0
 11
20.6773150652
 21
53.3194886733
 31
0.0
  0
LINE
  5
6D
100
AcDbEntity
  8
LAYER0
 62
         3
100
AcDbLine
 10
20.6773150652
 20
53.3194886733
 30
0.0
 11
20.6853367271
 21
53.3210214641
 31
0.0
  0
LINE
  5
6E
100
AcDbEntity
  8
LAYER0
 62
         3
100
AcDbLine
 10
20.6853367271
 20
53.3210214641
 30
0.0
 11
20.6954114778
 21
53.3245217182
 31
0.0
  0
LINE
  5
6F
100
AcDbEntity
  8
LAYER0
 62
         3
100
AcDbLine
 10
20.6954114778
 20
53.3245217182
 30
0.0
 11
20.7047883304
 21
53.3296194341
 31
0.0
  0
LINE
  5
70
100
AcDbEntity
  8
LAYER0
 62
         3
100
AcDbLine
 10
20.7047883304
 20
53.3296194341
 30
0.0
 11
20.7132671811
 21
53.3362397535
 31
0.0
  0
LINE
  5
71
100
AcDbEntity
  8
LAYER0
 62
         3
100
AcDbLine
 10
20.7132671811
 20
53.3362397535
 30
0.0
 11
20.720545377
 21
53.3441592421
 31
0.0
  0
LINE
  5
72
100
AcDbEntity
  8
LAYER0
 62
         3
100
AcDbLine
 10
20.720545377
 20
53.3441592421
 30
0.0
 11
20.7264735033
 21
53.3532582538
 31
0.0
  0
LINE
  5
73
100
AcDbEntity
  8
LAYER0
 62
         3
100
AcDbLine
 10
20.7264735033
 20
53.3532582538
 30
0.0
 11
20.7308225216
 21
53.3632103767
 31
0.0
  0
LINE
  5
74
100
AcDbEntity
  8
LAYER0
 62
         3
100
AcDbLine
 10
20.7308225216
 20
53.3632103767
 30
0.0
 11
20.7334849142
 21
53.3738481376
 31
0.0
  0
LINE
  5
75
100
AcDbEntity
  8
LAYER0
 62
         3
100
AcDbLine
 10
20.7334849142
 20
53.3738481376
 30
0.0
 11
20.7343466463
 21
53.3847798076
 31
0.0
  0
LINE
  5
76
100
AcDbEntity
  8
LAYER0
 62
         3
100
AcDbLine
 10
20.7343466463
 20
53.3847798076
 30
0.0
 11
20.7333583545
 21
53.3958035571
 31
0.0
  0
LINE
  5
77
100
AcDbEntity
  8
LAYER0
 62
         3
100
AcDbLine
 10
20.7333583545
 20
53.3958035571
 30
0.0
 11
20.7305384682
 21
53.4065094259
 31
0.0
  0
LINE
  5
78
100
AcDbEntity
  8
LAYER0
 62
         3
100
AcDbLine
 10
20.7305384682
 20
53.4065094259
 30
0.0
 11
20.7259053384
 21
53.4166824587
 31
0.0
  0
LINE
  5
79
100
AcDbEntity
  8
LAYER0
 62
         3
100
AcDbLine
 10
20.7259053384
 20
53.4166824587
 30
0.0
 11
20.7196177797
 21
53.425914463
 31
0.0
  0
LINE
  5
7A
100
AcDbEntity
  8
LAYER0
 62
         3
100
AcDbLine
 10
20.7196177797
 20
53.425914463
 30
0.0
 11
20.7117705341
 21
53.4339926013
 31
0.0
  0
LINE
  5
7B
100
AcDbEntity
  8
LAYER0
 62
         3
100
AcDbLine
 10
20.7117705341
 20
53.4339926013
 30
0.0
 11
20.7026453571
 21
53.4406405356
 31
0.0
  0
LINE
  5
7C
100
AcDbEntity
  8
LAYER0
 62
         3
100
AcDbLine
 10
20.7026453571
 20
53.4406405356
 30
0.0
 11
20.6924225422
 21
53.4456942874
 31
0.0
  0
LINE
  5
7D
100
AcDbEntity
  8
LAYER0
 62
         3
100
AcDbLine
 10
20.6924225422
 20
53.4456942874
 30
0.0
 11
20.681505266
 21
53.4487579431
 31
0.0
  0
LINE
  5
7E
100
AcDbEntity
  8
LAYER0
 62
         3
100
AcDbLine
 10
20.681505266
 20
53.4487579431
 30
0.0
 11
20.6691577913
 21
53.4499425855
 31
0.0
  0
LINE
  5
7F
100
AcDbEntity
  8
LAYER0
 62
         3
100
AcDbLine
 10
20.6691577913
 20
53.4499425855
 30
0.0
 11
20.6587521242
 21
53.4491006699
 31
0.0
  0
LINE
  5
80
100
AcDbEntity
  8
LAYER0
 62
         3
100
AcDbLine
 10
20.6587521242
 20
53.4491006699
 30
0.0
 11
20.6481198819
 21
53.4464712397
 31
0.0
  0
LINE
  5
81
100
AcDbEntity
  8
LAYER0
 62
         3
100
AcDbLine
 10
20.6481198819
 20
53.4464712397
 30
0.0
 11
20.6380972521
 21
53.4420226183
 31
0.0
  0
LINE
  5
82
100
AcDbEntity
  8
LAYER0
 62
         3
100
AcDbLine
 10
20.6380972521
 20
53.4420226183
 30
0.0
 11
20.6372702377
 21
53.4415644076
 31
0.0
  0
LINE
  5
83
100
AcDbEntity
  8
LAYER0
 62
         3
100
AcDbLine
 10
20.6372702377
 20
53.4415644076
 30
0.0
 11
20.6279070818
 21
53.4351421683
 31
0.0
  0
LINE
  5
84
100
AcDbEntity
  8
LAYER0
 62
         3
100
AcDbLine
 10
20.6279070818
 20
53.4351421683
 30
0.0
 11
20.6197688239
 21
53.4271736112
 31
0.0
  0
LINE
  5
85
100
AcDbEntity
  8
LAYER0
 62
         3
100
AcDbLine
 10
20.6197688239
 20
53.4271736112
 30
0.0
 11
20.6132027061
 21
53.418018765
 31
0.0
  0
LINE
  5
86
100
AcDbEntity
  8
LAYER0
 62
         3
100
AcDbLine
 10
20.6132027061
 20
53.418018765
 30
0.0
 11
20.6083033117
 21
53.407884058
 31
0.0
  0
LINE
  5
87
100
AcDbEntity
  8
LAYER0
 62
         3
100
AcDbLine
 10
20.6083033117
 20
53.407884058
 30
0.0
 11
20.6052379874
 21
53.3972031616
 31
0.0
  0
LINE
  5
88
100
AcDbEntity
  8
LAYER0
 62
         3
100
AcDbLine
 10
20.6052379874
 20
53.3972031616
 30
0.0
 11
20.6040089833
 21
53.386158165
 31
0.0
  0
LINE
  5
89
100
AcDbEntity
  8
LAYER0
 62
         3
100
AcDbLine
 10
20.6040089833
 20
53.386158165
 30
0.0
 11
20.6046391683
 21
53.3752228706
 31
0.0
  0
ENDBLK
  5
8A
100
AcDbEntity
  8
0
100
AcDbBlockEnd
  0
BLOCK
  5
8E
100
AcDbEntity
  8
0
100
AcDbBlockBegin
  2
CLUMP4
 70
         0
 10
0.0
 20
0.0
 30
0.0
  3

  1

  0
INSERT
  5
90
100
AcDbEntity
  8
0
100
AcDbBlockReference
  2
CLUMP5
 10
0.0
 20
0.0
 30
0.0
  0
ENDBLK
  5
9B
100
AcDbEntity
  8
0
100
AcDbBlockEnd
  0
BLOCK
  5
91
100
AcDbEntity
  8
0
100
AcDbBlockBegin
  2
CLUMP5
 70
         0
 10
0.0
 20
0.0
 30
0.0
  3

  1

  0
LINE
  5
92
100
AcDbEntity
  8
LAYER0
 62
         3
100
AcDbLine
 10
17.4191661062
 20
36.5762550797
 30
0.0
 11
17.4160202591
 21
36.726890925
 31
0.0
  0
LINE
  5
93
100
AcDbEntity
  8
LAYER0
 62
         3
100
AcDbLine
 10
17.4160202591
 20
36.726890925
 30
0.0
 11
17.4102607997
 21
36.8725460436
 31
0.0
  0
LINE
  5
94
100
AcDbEntity
  8
LAYER0
 62
         3
100
AcDbLine
 10
17.4102607997
 20
36.8725460436
 30
0.0
 11
17.4055317264
 21
36.9436020576
 31
0.0
  0
LINE
  5
95
100
AcDbEntity
  8
LAYER0
 62
         3
100
AcDbLine
 10
17.4055317264
 20
36.9436020576
 30
0.0
 11
17.399559451
 21
37.0114189379
 31
0.0
  0
LINE
  5
96
100
AcDbEntity
  8
LAYER0
 62
         3
100
AcDbLine
 10
17.399559451
 20
37.0114189379
 30
0.0
 11
17.3924716773
 21
37.0753700682
 31
0.0
  0
LINE
  5
97
100
AcDbEntity
  8
LAYER0
 62
         3
100
AcDbLine
 10
17.3924716773
 20
37.0753700682
 30
0.0
 11
17.3843961092
 21
37.1348288324
 31
0.0
  0
LINE
  5
98
100
AcDbEntity
  8
LAYER0
 62
         3
100
AcDbLine
 10
17.3843961092
 20
37.1348288324
 30
0.0
 11
17.3715246186
 21
37.2116903461
 31
0.0
  0
LINE
  5
99
100
AcDbEntity
  8
LAYER0
 62
         3
100
AcDbLine
 10
17.3715246186
 20
37.2116903461
 30
0.0
 11
17.3577807726
 21
37.2833598819
 31
0.0
  0
ENDBLK
  5
9A
100
AcDbEntity
  8
0
100
AcDbBlockEnd
  0
BLOCK
  5
9E
100
AcDbEntity
  8
0
100
AcDbBlockBegin
  2
CLUMP6
 70
         0
 10
0.0
 20
0.0
 30
0.0
  3

  1

  0
INSERT
  5
A0
100
AcDbEntity
  8
0
100
AcDbBlockReference
  2
CLUMP7
 10
0.0
 20
0.0
 30
0.0
  0
ENDBLK
  5
AC
100
AcDbEntity
  8
0
100
AcDbBlockEnd
  0
BLOCK
  5
A1
100
AcDbEntity
  8
0
100
AcDbBlockBegin
  2
CLUMP7
 70
         0
 10
0.0
 20
0.0
 30
0.0
  3

  1

  0
LINE
  5
A2
100
AcDbEntity
  8
LAYER0
 62
         3
100
AcDbLine
 10
18.1691668235
 20
57.3991698542
 30
0.0
 11
18.1787741833
 21
57.3422199061
 31
0.0
  0
LINE
  5
A3
100
AcDbEntity
  8
LAYER0
 62
         3
100
AcDbLine
 10
18.1787741833
 20
57.3422199061
 30
0.0
 11
18.2072270572
 21
57.2874585126
 31
0.0
  0
LINE
  5
A4
100
AcDbEntity
  8
LAYER0
 62
         3
100
AcDbLine
 10
18.2072270572
 20
57.2874585126
 30
0.0
 11
18.2534320173
 21
57.2369901232
 31
0.0
  0
LINE
  5
A5
100
AcDbEntity
  8
LAYER0
 62
         3
100
AcDbLine
 10
18.2534320173
 20
57.2369901232
 30
0.0
 11
18.3156134329
 21
57.19275421
 31
0.0
  0
LINE
  5
A6
100
AcDbEntity
  8
LAYER0
 62
         3
100
AcDbLine
 10
18.3156134329
 20
57.19275421
 30
0.0
 11
18.391381707
 21
57.1564507342
 31
0.0
  0
LINE
  5
A7
100
AcDbEntity
  8
LAYER0
 62
         3
100
AcDbLine
 10
18.391381707
 20
57.1564507342
 30
0.0
 11
18.4778251073
 21
57.1294748181
 31
0.0
  0
LINE
  5
A8
100
AcDbEntity
  8
LAYER0
 62
         3
100
AcDbLine
 10
18.4778251073
 20
57.1294748181
 30
0.0
 11
18.5716216625
 21
57.112863131
 31
0.0
  0
LINE
  5
A9
100
AcDbEntity
  8
LAYER0
 62
         3
100
AcDbLine
 10
18.5716216625
 20
57.112863131
 30
0.0
 11
18.6691668235
 21
57.1072540507
 31
0.0
  0
LINE
  5
AA
100
AcDbEntity
  8
LAYER0
 62
         3
100
AcDbLine
 10
18.6691668235
 20
57.1072540507
 30
0.0
 11
18.1691668235
 21
57.3991698542
 31
0.0
  0
ENDBLK
  5
AB
100
AcDbEntity
  8
0
100
AcDbBlockEnd
  0
BLOCK
  5
C8
100
AcDbEntity
  8
0
100
AcDbBlockBegin
  2
CLUMP8
 70
         0
 10
0.0
 20
0.0
 30
0.0
  3

  1

  0
INSERT
  5
CA
100
AcDbEntity
  8
0
100
AcDbBlockReference
  2
CLUMP9
 10
0.0
 20
0.0
 30
0.0
  0
ENDBLK
  5
D1
100
AcDbEntity
  8
0
100
AcDbBlockEnd
  0
BLOCK
  5
CB
100
AcDbEntity
  8
0
100
AcDbBlockBegin
  2
CLUMP9
 70
         0
 10
0.0
 20
0.0
 30
0.0
  3

  1

  0
LINE
  5
CC
100
AcDbEntity
  8
LAYER0
 62
         3
100
AcDbLine
 10
17.3577807726
 20
37.2833598819
 30
0.0
 11
17.3861097427
 21
38.1400648918
 31
0.0
  0
LINE
  5
CD
100
AcDbEntity
  8
LAYER0
 62
         3
100
AcDbLine
 10
17.3861097427
 20
38.1400648918
 30
0.0
 11
17.4029970927
 21
38.5570557997
 31
0.0
  0
LINE
  5
CE
100
AcDbEntity
  8
LAYER0
 62
         3
100
AcDbLine
 10
17.4029970927
 20
38.5570557997
 30
0.0
 11
17.4223419162
 21
38.9563356008
 31
0.0
  0
LINE
  5
CF
100
AcDbEntity
  8
LAYER0
 62
         3
100
AcDbLine
 10
17.4223419162
 20
38.9563356008
 30
0.0
 11
17.4569424124
 21
39.5440187719
 31
0.0
  0
ENDBLK
  5
D0
100
AcDbEntity
  8
0
100
AcDbBlockEnd
  0
BLOCK
  5
D4
100
AcDbEntity
  8
0
100
AcDbBlockBegin
  2
CLUMP10
 70
         0
 10
0.0
 20
0.0
 30
0.0
  3

  1

  0
INSERT
  5
D6
100
AcDbEntity
  8
0
100
AcDbBlockReference
  2
CLUMP11
 10
0.0
 20
0.0
 30
0.0
  0
ENDBLK
  5
EB
100
AcDbEntity
  8
0
100
AcDbBlockEnd
  0
BLOCK
  5
D7
100
AcDbEntity
  8
0
100
AcDbBlockBegin
  2
CLUMP11
 70
         0
 10
0.0
 20
0.0
 30
0.0
  3

  1

  0
LINE
  5
D8
100
AcDbEntity
  8
LAYER0
 62
         3
100
AcDbLine
 10
17.5761442514
 20
47.0904659893
 30
0.0
 11
17.5758667173
 21
47.2042214539
 31
0.0
  0
LINE
  5
D9
100
AcDbEntity
  8
LAYER0
 62
         3
100
AcDbLine
 10
17.5758667173
 20
47.2042214539
 30
0.0
 11
17.5739857661
 21
47.4080053595
 31
0.0
  0
LINE
  5
DA
100
AcDbEntity
  8
LAYER0
 62
         3
100
AcDbLine
 10
17.5739857661
 20
47.4080053595
 30
0.0
 11
17.5703886779
 21
47.6010319259
 31
0.0
  0
LINE
  5
DB
100
AcDbEntity
  8
LAYER0
 62
         3
100
AcDbLine
 10
17.5703886779
 20
47.6010319259
 30
0.0
 11
17.56922825
 21
47.6481233206
 31
0.0
  0
LINE
  5
DC
100
AcDbEntity
  8
LAYER0
 62
         3
100
AcDbLine
 10
17.56922825
 20
47.6481233206
 30
0.0
 11
17.5630322391
 21
47.8436043915
 31
0.0
  0
LINE
  5
DD
100
AcDbEntity
  8
LAYER0
 62
         3
100
AcDbLine
 10
17.5630322391
 20
47.8436043915
 30
0.0
 11
17.5594113092
 21
47.9321953342
 31
0.0
  0
LINE
  5
DE
100
AcDbEntity
  8
LAYER0
 62
         3
100
AcDbLine
 10
17.5594113092
 20
47.9321953342
 30
0.0
 11
17.5555303575
 21
48.0141889717
 31
0.0
  0
LINE
  5
DF
100
AcDbEntity
  8
LAYER0
 62
         3
100
AcDbLine
 10
17.5555303575
 20
48.0141889717
 30
0.0
 11
17.5505004068
 21
48.1056316167
 31
0.0
  0
LINE
  5
E0
100
AcDbEntity
  8
LAYER0
 62
         3
100
AcDbLine
 10
17.5505004068
 20
48.1056316167
 30
0.0
 11
17.5453152545
 21
48.1869470278
 31
0.0
  0
LINE
  5
E1
100
AcDbEntity
  8
LAYER0
 62
         3
100
AcDbLine
 10
17.5453152545
 20
48.1869470278
 30
0.0
 11
17.5401125857
 21
48.2585545419
 31
0.0
  0
LINE
  5
E2
100
AcDbEntity
  8
LAYER0
 62
         3
100
AcDbLine
 10
17.5401125857
 20
48.2585545419
 30
0.0
 11
17.535030085
 21
48.3208734956
 31
0.0
  0
LINE
  5
E3
100
AcDbEntity
  8
LAYER0
 62
         3
100
AcDbLine
 10
17.535030085
 20
48.3208734956
 30
0.0
 11
17.5306602579
 21
48.3694336709
 31
0.0
  0
LINE
  5
E4
100
AcDbEntity
  8
LAYER0
 62
         3
100
AcDbLine
 10
17.5306602579
 20
48.3694336709
 30
0.0
 11
17.5265271102
 21
48.4115233832
 31
0.0
  0
LINE
  5
E5
100
AcDbEntity
  8
LAYER0
 62
         3
100
AcDbLine
 10
17.5265271102
 20
48.4115233832
 30
0.0
 11
17.5190821173
 21
48.4791461792
 31
0.0
  0
LINE
  5
E6
100
AcDbEntity
  8
LAYER0
 62
         3
100
AcDbLine
 10
17.5190821173
 20
48.4791461792
 30
0.0
 11
17.5129833854
 21
48.5284676079
 31
0.0
  0
LINE
  5
E7
100
AcDbEntity
  8
LAYER0
 62
         3
100
AcDbLine
 10
17.5129833854
 20
48.5284676079
 30
0.0
 11
17.5109936741
 21
48.5435469743
 31
0.0
  0
LINE
  5
E8
100
AcDbEntity
  8
LAYER0
 62
         3
100
AcDbLine
 10
17.5109936741
 20
48.5435469743
 30
0.0
 11
17.5100017222
 21
48.5508319404
 31
0.0
  0
LINE
  5
E9
100
AcDbEntity
  8
LAYER0
 62
         3
100
AcDbLine
 10
17.5100017222
 20
48.5508319404
 30
0.0
 11
17.5103686633
 21
48.5481273796
 31
0.0
  0
ENDBLK
  5
EA
100
AcDbEntity
  8
0
100
AcDbBlockEnd
  0
BLOCK
  5
EE
100
AcDbEntity
  8
0
100
AcDbBlockBegin
  2
CLUMP12
 70
         0
 10
0.0
 20
0.0
 30
0.0
  3

  1

  0
INSERT
  5
F0
100
AcDbEntity
  8
0
100
AcDbBlockReference
  2
CLUMP13
 10
0.0
 20
0.0
 30
0.0
  0
ENDBLK
  5
F7
100
AcDbEntity
  8
0
100
AcDbBlockEnd
  0
BLOCK
  5
F1
100
AcDbEntity
  8
0
100
AcDbBlockBegin
  2
CLUMP13
 70
         0
 10
0.0
 20
0.0
 30
0.0
  3

  1

  0
LINE
  5
F2
100
AcDbEntity
  8
LAYER1
 62
         3
100
AcDbLine
 10
16.2965759518
 20
7.0138618764
 30
0.0
 11
16.4382077636
 21
6.9845419791
 31
0.0
  0
LINE
  5
F3
100
AcDbEntity
  8
LAYER1
 62
         3
100
AcDbLine
 10
16.4382077636
 20
6.9845419791
 30
0.0
 11
16.5411412599
 21
6.9632333186
 31
0.0
  0
LINE
  5
F4
100
AcDbEntity
  8
LAYER1
 62
         3
100
AcDbLine
 10
16.5411412599
 20
6.9632333186
 30
0.0
 11
16.6036143782
 21
6.950300042
 31
0.0
  0
LINE
  5
F5
100
AcDbEntity
  8
LAYER1
 62
         3
100
AcDbLine
 10
16.6036143782
 20
6.950300042
 30
0.0
 11
16.6245579602
 21
6.9459647354
 31
0.0
  0
ENDBLK
  5
F6
100
AcDbEntity
  8
0
100
AcDbBlockEnd
  0
BLOCK
  5
FA
100
AcDbEntity
  8
0
100
AcDbBlockBegin
  2
CLUMP14
 70
         0
 10
0.0
 20
0.0
 30
0.0
  3

  1

  0
INSERT
  5
FC
100
AcDbEntity
  8
0
100
AcDbBlockReference
  2
CLUMP15
 10
0.0
 20
0.0
 30
0.0
  0
ENDBLK
  5
103
100
AcDbEntity
  8
0
100
AcDbBlockEnd
  0
BLOCK
  5
FD
100
AcDbEntity
  8
0
100
AcDbBlockBegin
  2
CLUMP15
 70
         0
 10
0.0
 20
0.0
 30
0.0
  3

  1

  0
LINE
  5
FE
100
AcDbEntity
  8
LAYER1
 62
         3
100
AcDbLine
 10
11.7283698054
 20
7.9595435824
 30
0.0
 11
11.7493133875
 21
7.9552082758
 31
0.0
  0
LINE
  5
FF
100
AcDbEntity
  8
LAYER1
 62
         3
100
AcDbLine
 10
11.7493133875
 20
7.9552082758
 30
0.0
 11
11.8117865058
 21
7.9422759306
 31
0.0
  0
LINE
  5
100
100
AcDbEntity
  8
LAYER1
 62
         3
100
AcDbLine
 10
11.8117865058
 20
7.9422759306
 30
0.0
 11
11.914720002
 21
7.9209672701
 31
0.0
  0
LINE
  5
101
100
AcDbEntity
  8
LAYER1
 62
         3
100
AcDbLine
 10
11.914720002
 20
7.9209672701
 30
0.0
 11
12.0563518139
 21
7.8916473728
 31
0.0
  0
ENDBLK
  5
102
100
AcDbEntity
  8
0
100
AcDbBlockEnd
  0
BLOCK
  5
106
100
AcDbEntity
  8
0
100
AcDbBlockBegin
  2
CLUMP16
 70
         0
 10
0.0
 20
0.0
 30
0.0
  3

  1

  0
INSERT
  5
108
100
AcDbEntity
  8
0
100
AcDbBlockReference
  2
CLUMP17
 10
0.0
 20
0.0
 30
0.0
  0
ENDBLK
  5
119
100
AcDbEntity
  8
0
100
AcDbBlockEnd
  0
BLOCK
  5
109
100
AcDbEntity
  8
0
100
AcDbBlockBegin
  2
CLUMP17
 70
         0
 10
0.0
 20
0.0
 30
0.0
  3

  1

  0
LINE
  5
10A
100
AcDbEntity
  8
LAYER0
 62
         3
100
AcDbLine
 10
13.0854707094
 20
12.8628991958
 30
0.0
 11
13.3495882036
 21
13.024990302
 31
0.0
  0
LINE
  5
10B
100
AcDbEntity
  8
LAYER0
 62
         3
100
AcDbLine
 10
13.3495882036
 20
13.024990302
 30
0.0
 11
13.6998753877
 21
13.18726581
 31
0.0
  0
LINE
  5
10C
100
AcDbEntity
  8
LAYER0
 62
         3
100
AcDbLine
 10
13.6998753877
 20
13.18726581
 30
0.0
 11
14.1051255049
 21
13.3125044819
 31
0.0
  0
LINE
  5
10D
100
AcDbEntity
  8
LAYER0
 62
         3
100
AcDbLine
 10
14.1051255049
 20
13.3125044819
 30
0.0
 11
14.4367899628
 21
13.3700695302
 31
0.0
  0
LINE
  5
10E
100
AcDbEntity
  8
LAYER0
 62
         3
100
AcDbLine
 10
14.4367899628
 20
13.3700695302
 30
0.0
 11
14.7888056817
 21
13.390463632
 31
0.0
  0
LINE
  5
10F
100
AcDbEntity
  8
LAYER0
 62
         3
100
AcDbLine
 10
14.7888056817
 20
13.390463632
 30
0.0
 11
15.0902119331
 21
13.374772104
 31
0.0
  0
LINE
  5
110
100
AcDbEntity
  8
LAYER0
 62
         3
100
AcDbLine
 10
15.0902119331
 20
13.374772104
 30
0.0
 11
15.3927590581
 21
13.3281805035
 31
0.0
  0
LINE
  5
111
100
AcDbEntity
  8
LAYER0
 62
         3
100
AcDbLine
 10
15.3927590581
 20
13.3281805035
 30
0.0
 11
15.7353944959
 21
13.2355474349
 31
0.0
  0
LINE
  5
112
100
AcDbEntity
  8
LAYER0
 62
         3
100
AcDbLine
 10
15.7353944959
 20
13.2355474349
 30
0.0
 11
16.0588819416
 21
13.1063897576
 31
0.0
  0
LINE
  5
113
100
AcDbEntity
  8
LAYER0
 62
         3
100
AcDbLine
 10
16.0588819416
 20
13.1063897576
 30
0.0
 11
16.3528135838
 21
12.9479331217
 31
0.0
  0
LINE
  5
114
100
AcDbEntity
  8
LAYER0
 62
         3
100
AcDbLine
 10
16.3528135838
 20
12.9479331217
 30
0.0
 11
16.6152018936
 21
12.7672160458
 31
0.0
  0
LINE
  5
115
100
AcDbEntity
  8
LAYER0
 62
         3
100
AcDbLine
 10
16.6152018936
 20
12.7672160458
 30
0.0
 11
16.9199548544
 21
12.4974128272
 31
0.0
  0
LINE
  5
116
100
AcDbEntity
  8
LAYER0
 62
         3
100
AcDbLine
 10
16.9199548544
 20
12.4974128272
 30
0.0
 11
17.1636782469
 21
12.2180439945
 31
0.0
  0
LINE
  5
117
100
AcDbEntity
  8
LAYER0
 62
         3
100
AcDbLine
 10
17.1636782469
 20
12.2180439945
 30
0.0
 11
17.3256948473
 21
11.9851136994
 31
0.0
  0
ENDBLK
  5
118
100
AcDbEntity
  8
0
100
AcDbBlockEnd
  0
BLOCK
  5
11C
100
AcDbEntity
  8
0
100
AcDbBlockBegin
  2
CLUMP18
 70
         0
 10
0.0
 20
0.0
 30
0.0
  3

  1

  0
INSERT
  5
11E
100
AcDbEntity
  8
0
100
AcDbBlockReference
  2
CLUMP19
 10
0.0
 20
0.0
 30
0.0
  0
ENDBLK
  5
12E
100
AcDbEntity
  8
0
100
AcDbBlockEnd
  0
BLOCK
  5
11F
100
AcDbEntity
  8
0
100
AcDbBlockBegin
  2
CLUMP19
 70
         0
 10
0.0
 20
0.0
 30
0.0
  3

  1

  0
LINE
  5
120
100
AcDbEntity
  8
LAYER1
 62
         3
100
AcDbLine
 10
12.9731867345
 20
13.4429846373
 30
0.0
 11
13.1994366528
 21
13.4490549978
 31
0.0
  0
LINE
  5
121
100
AcDbEntity
  8
LAYER1
 62
         3
100
AcDbLine
 10
13.1994366528
 20
13.4490549978
 30
0.0
 11
13.478855777
 21
13.4565502819
 31
0.0
  0
LINE
  5
122
100
AcDbEntity
  8
LAYER1
 62
         3
100
AcDbLine
 10
13.478855777
 20
13.4565502819
 30
0.0
 11
13.8038929434
 21
13.4652711865
 31
0.0
  0
LINE
  5
123
100
AcDbEntity
  8
LAYER1
 62
         3
100
AcDbLine
 10
13.8038929434
 20
13.4652711865
 30
0.0
 11
14.1657546045
 21
13.474979293
 31
0.0
  0
LINE
  5
124
100
AcDbEntity
  8
LAYER1
 62
         3
100
AcDbLine
 10
14.1657546045
 20
13.474979293
 30
0.0
 11
14.5546562852
 21
13.4854138311
 31
0.0
  0
LINE
  5
125
100
AcDbEntity
  8
LAYER1
 62
         3
100
AcDbLine
 10
14.5546562852
 20
13.4854138311
 30
0.0
 11
14.9600796284
 21
13.4962898161
 31
0.0
  0
LINE
  5
126
100
AcDbEntity
  8
LAYER1
 62
         3
100
AcDbLine
 10
14.9600796284
 20
13.4962898161
 30
0.0
 11
15.3710592421
 21
13.5073166754
 31
0.0
  0
LINE
  5
127
100
AcDbEntity
  8
LAYER1
 62
         3
100
AcDbLine
 10
15.3710592421
 20
13.5073166754
 30
0.0
 11
15.7764825853
 21
13.5181926604
 31
0.0
  0
LINE
  5
128
100
AcDbEntity
  8
LAYER1
 62
         3
100
AcDbLine
 10
15.7764825853
 20
13.5181926604
 30
0.0
 11
16.165384266
 21
13.5286271986
 31
0.0
  0
LINE
  5
129
100
AcDbEntity
  8
LAYER1
 62
         3
100
AcDbLine
 10
16.165384266
 20
13.5286271986
 30
0.0
 11
16.527245927
 21
13.5383353051
 31
0.0
  0
LINE
  5
12A
100
AcDbEntity
  8
LAYER1
 62
         3
100
AcDbLine
 10
16.527245927
 20
13.5383353051
 30
0.0
 11
16.8522830935
 21
13.5470562097
 31
0.0
  0
LINE
  5
12B
100
AcDbEntity
  8
LAYER1
 62
         3
100
AcDbLine
 10
16.8522830935
 20
13.5470562097
 30
0.0
 11
17.1317040803
 21
13.5545514938
 31
0.0
  0
LINE
  5
12C
100
AcDbEntity
  8
LAYER1
 62
         3
100
AcDbLine
 10
17.1317040803
 20
13.5545514938
 30
0.0
 11
17.357952136
 21
13.5606218543
 31
0.0
  0
ENDBLK
  5
12D
100
AcDbEntity
  8
0
100
AcDbBlockEnd
  0
BLOCK
  5
131
100
AcDbEntity
  8
0
100
AcDbBlockBegin
  2
CLUMP20
 70
         0
 10
0.0
 20
0.0
 30
0.0
  3

  1

  0
INSERT
  5
133
100
AcDbEntity
  8
0
100
AcDbBlockReference
  2
CLUMP21
 10
0.0
 20
0.0
 30
0.0
  0
ENDBLK
  5
13F
100
AcDbEntity
  8
0
100
AcDbBlockEnd
  0
BLOCK
  5
134
100
AcDbEntity
  8
0
100
AcDbBlockBegin
  2
CLUMP21
 70
         0
 10
0.0
 20
0.0
 30
0.0
  3

  1

  0
LINE
  5
135
100
AcDbEntity
  8
LAYER0
 62
         3
100
AcDbLine
 10
22.6691668235
 20
56.5266631126
 30
0.0
 11
22.8642571455
 21
56.5378826865
 31
0.0
  0
LINE
  5
136
100
AcDbEntity
  8
LAYER0
 62
         3
100
AcDbLine
 10
22.8642571455
 20
56.5378826865
 30
0.0
 11
23.0518502559
 21
56.5711102463
 31
0.0
  0
LINE
  5
137
100
AcDbEntity
  8
LAYER0
 62
         3
100
AcDbLine
 10
23.0518502559
 20
56.5711102463
 30
0.0
 11
23.2247370565
 21
56.6250688756
 31
0.0
  0
LINE
  5
138
100
AcDbEntity
  8
LAYER0
 62
         3
100
AcDbLine
 10
23.2247370565
 20
56.6250688756
 30
0.0
 11
23.3762736047
 21
56.6976849743
 31
0.0
  0
LINE
  5
139
100
AcDbEntity
  8
LAYER0
 62
         3
100
AcDbLine
 10
23.3762736047
 20
56.6976849743
 30
0.0
 11
23.5006364358
 21
56.7861679467
 31
0.0
  0
LINE
  5
13A
100
AcDbEntity
  8
LAYER0
 62
         3
100
AcDbLine
 10
23.5006364358
 20
56.7861679467
 30
0.0
 11
23.593046356
 21
56.8871174417
 31
0.0
  0
LINE
  5
13B
100
AcDbEntity
  8
LAYER0
 62
         3
100
AcDbLine
 10
23.593046356
 20
56.8871174417
 30
0.0
 11
23.6499521039
 21
56.9966540267
 31
0.0
  0
LINE
  5
13C
100
AcDbEntity
  8
LAYER0
 62
         3
100
AcDbLine
 10
23.6499521039
 20
56.9966540267
 30
0.0
 11
23.6691668235
 21
57.1105682724
 31
0.0
  0
LINE
  5
13D
100
AcDbEntity
  8
LAYER0
 62
         3
100
AcDbLine
 10
23.6691668235
 20
57.1105682724
 30
0.0
 11
22.6691668235
 21
56.5266631126
 31
0.0
  0
ENDBLK
  5
13E
100
AcDbEntity
  8
0
100
AcDbBlockEnd
  0
BLOCK
  5
142
100
AcDbEntity
  8
0
100
AcDbBlockBegin
  2
CLUMP22
 70
         0
 10
0.0
 20
0.0
 30
0.0
  3

  1

  0
INSERT
  5
144
100
AcDbEntity
  8
0
100
AcDbBlockReference
  2
CLUMP23
 10
0.0
 20
0.0
 30
0.0
  0
ENDBLK
  5
16E
100
AcDbEntity
  8
0
100
AcDbBlockEnd
  0
BLOCK
  5
145
100
AcDbEntity
  8
0
100
AcDbBlockBegin
  2
CLUMP23
 70
         0
 10
0.0
 20
0.0
 30
0.0
  3

  1

  0
LINE
  5
146
100
AcDbEntity
  8
LAYER0
 62
         3
100
AcDbLine
 10
15.7840460365
 20
10.4230640658
 30
0.0
 11
15.7671172054
 21
10.5766941276
 31
0.0
  0
LINE
  5
147
100
AcDbEntity
  8
LAYER0
 62
         3
100
AcDbLine
 10
15.7671172054
 20
10.5766941276
 30
0.0
 11
15.7259749733
 21
10.7278554641
 31
0.0
  0
LINE
  5
148
100
AcDbEntity
  8
LAYER0
 62
         3
100
AcDbLine
 10
15.7259749733
 20
10.7278554641
 30
0.0
 11
15.6620826455
 21
10.8700970601
 31
0.0
  0
LINE
  5
149
100
AcDbEntity
  8
LAYER0
 62
         3
100
AcDbLine
 10
15.6620826455
 20
10.8700970601
 30
0.0
 11
15.5695734168
 21
11.0100216556
 31
0.0
  0
LINE
  5
14A
100
AcDbEntity
  8
LAYER0
 62
         3
100
AcDbLine
 10
15.5695734168
 20
11.0100216556
 30
0.0
 11
15.4545895638
 21
11.1328483041
 31
0.0
  0
LINE
  5
14B
100
AcDbEntity
  8
LAYER0
 62
         3
100
AcDbLine
 10
15.4545895638
 20
11.1328483041
 30
0.0
 11
15.3168948379
 21
11.2369696034
 31
0.0
  0
LINE
  5
14C
100
AcDbEntity
  8
LAYER0
 62
         3
100
AcDbLine
 10
15.3168948379
 20
11.2369696034
 30
0.0
 11
15.1623833807
 21
11.3163663488
 31
0.0
  0
LINE
  5
14D
100
AcDbEntity
  8
LAYER0
 62
         3
100
AcDbLine
 10
15.1623833807
 20
11.3163663488
 30
0.0
 11
15.0057753634
 21
11.3656316893
 31
0.0
  0
LINE
  5
14E
100
AcDbEntity
  8
LAYER0
 62
         3
100
AcDbLine
 10
15.0057753634
 20
11.3656316893
 30
0.0
 11
14.8432005079
 21
11.3887496706
 31
0.0
  0
LINE
  5
14F
100
AcDbEntity
  8
LAYER0
 62
         3
100
AcDbLine
 10
14.8432005079
 20
11.3887496706
 30
0.0
 11
14.6869345694
 21
11.3856561693
 31
0.0
  0
LINE
  5
150
100
AcDbEntity
  8
LAYER0
 62
         3
100
AcDbLine
 10
14.6869345694
 20
11.3856561693
 30
0.0
 11
14.533902693
 21
11.3585301157
 31
0.0
  0
LINE
  5
151
100
AcDbEntity
  8
LAYER0
 62
         3
100
AcDbLine
 10
14.533902693
 20
11.3585301157
 30
0.0
 11
14.3834835221
 21
11.3064805439
 31
0.0
  0
LINE
  5
152
100
AcDbEntity
  8
LAYER0
 62
         3
100
AcDbLine
 10
14.3834835221
 20
11.3064805439
 30
0.0
 11
14.2437528702
 21
11.2315806042
 31
0.0
  0
LINE
  5
153
100
AcDbEntity
  8
LAYER0
 62
         3
100
AcDbLine
 10
14.2437528702
 20
11.2315806042
 30
0.0
 11
14.1099184805
 21
11.1285844785
 31
0.0
  0
LINE
  5
154
100
AcDbEntity
  8
LAYER0
 62
         3
100
AcDbLine
 10
14.1099184805
 20
11.1285844785
 30
0.0
 11
13.9949388685
 21
11.0039951693
 31
0.0
  0
LINE
  5
155
100
AcDbEntity
  8
LAYER0
 62
         3
100
AcDbLine
 10
13.9949388685
 20
11.0039951693
 30
0.0
 11
13.9013714774
 21
10.859245736
 31
0.0
  0
LINE
  5
156
100
AcDbEntity
  8
LAYER0
 62
         3
100
AcDbLine
 10
13.9013714774
 20
10.859245736
 30
0.0
 11
13.8336002709
 21
10.6996249821
 31
0.0
  0
LINE
  5
157
100
AcDbEntity
  8
LAYER0
 62
         3
100
AcDbLine
 10
13.8336002709
 20
10.6996249821
 30
0.0
 11
13.7963125483
 21
10.5425086424
 31
0.0
  0
LINE
  5
158
100
AcDbEntity
  8
LAYER0
 62
         3
100
AcDbLine
 10
13.7963125483
 20
10.5425086424
 30
0.0
 11
13.7846499564
 21
10.3817161586
 31
0.0
  0
LINE
  5
159
100
AcDbEntity
  8
LAYER0
 62
         3
100
AcDbLine
 10
13.7846499564
 20
10.3817161586
 30
0.0
 11
13.7978653961
 21
10.2282721627
 31
0.0
  0
LINE
  5
15A
100
AcDbEntity
  8
LAYER0
 62
         3
100
AcDbLine
 10
13.7978653961
 20
10.2282721627
 30
0.0
 11
13.8341627898
 21
10.0795839395
 31
0.0
  0
LINE
  5
15B
100
AcDbEntity
  8
LAYER0
 62
         3
100
AcDbLine
 10
13.8341627898
 20
10.0795839395
 30
0.0
 11
13.896340255
 21
9.931131558
 31
0.0
  0
LINE
  5
15C
100
AcDbEntity
  8
LAYER0
 62
         3
100
AcDbLine
 10
13.896340255
 20
9.931131558
 30
0.0
 11
13.9813396962
 21
9.7948544141
 31
0.0
  0
LINE
  5
15D
100
AcDbEntity
  8
LAYER0
 62
         3
100
AcDbLine
 10
13.9813396962
 20
9.7948544141
 30
0.0
 11
14.0948650148
 21
9.6664920178
 31
0.0
  0
LINE
  5
15E
100
AcDbEntity
  8
LAYER0
 62
         3
100
AcDbLine
 10
14.0948650148
 20
9.6664920178
 30
0.0
 11
14.2295427503
 21
9.5586616959
 31
0.0
  0
LINE
  5
15F
100
AcDbEntity
  8
LAYER0
 62
         3
100
AcDbLine
 10
14.2295427503
 20
9.5586616959
 30
0.0
 11
14.3788474624
 21
9.4762685639
 31
0.0
  0
LINE
  5
160
100
AcDbEntity
  8
LAYER0
 62
         3
100
AcDbLine
 10
14.3788474624
 20
9.4762685639
 30
0.0
 11
14.5402934285
 21
9.4207719382
 31
0.0
  0
LINE
  5
161
100
AcDbEntity
  8
LAYER0
 62
         3
100
AcDbLine
 10
14.5402934285
 20
9.4207719382
 30
0.0
 11
14.5818956079
 21
9.4112296071
 31
0.0
  0
LINE
  5
162
100
AcDbEntity
  8
LAYER0
 62
         3
100
AcDbLine
 10
14.5818956079
 20
9.4112296071
 30
0.0
 11
14.7429778499
 21
9.3961869504
 31
0.0
  0
LINE
  5
163
100
AcDbEntity
  8
LAYER0
 62
         3
100
AcDbLine
 10
14.7429778499
 20
9.3961869504
 30
0.0
 11
14.9026151629
 21
9.3974544149
 31
0.0
  0
LINE
  5
164
100
AcDbEntity
  8
LAYER0
 62
         3
100
AcDbLine
 10
14.9026151629
 20
9.3974544149
 30
0.0
 11
15.0586172135
 21
9.4275537348
 31
0.0
  0
LINE
  5
165
100
AcDbEntity
  8
LAYER0
 62
         3
100
AcDbLine
 10
15.0586172135
 20
9.4275537348
 30
0.0
 11
15.2073383214
 21
9.4842099067
 31
0.0
  0
LINE
  5
166
100
AcDbEntity
  8
LAYER0
 62
         3
100
AcDbLine
 10
15.2073383214
 20
9.4842099067
 30
0.0
 11
15.3503193573
 21
9.5661607343
 31
0.0
  0
LINE
  5
167
100
AcDbEntity
  8
LAYER0
 62
         3
100
AcDbLine
 10
15.3503193573
 20
9.5661607343
 30
0.0
 11
15.4778651776
 21
9.669774067
 31
0.0
  0
LINE
  5
168
100
AcDbEntity
  8
LAYER0
 62
         3
100
AcDbLine
 10
15.4778651776
 20
9.669774067
 30
0.0
 11
15.5914861841
 21
9.7997094549
 31
0.0
  0
LINE
  5
169
100
AcDbEntity
  8
LAYER0
 62
         3
100
AcDbLine
 10
15.5914861841
 20
9.7997094549
 30
0.0
 11
15.6816366943
 21
9.9484863173
 31
0.0
  0
LINE
  5
16A
100
AcDbEntity
  8
LAYER0
 62
         3
100
AcDbLine
 10
15.6816366943
 20
9.9484863173
 30
0.0
 11
15.7426149287
 21
10.1040409327
 31
0.0
  0
LINE
  5
16B
100
AcDbEntity
  8
LAYER0
 62
         3
100
AcDbLine
 10
15.7426149287
 20
10.1040409327
 30
0.0
 11
15.7770637305
 21
10.2678303089
 31
0.0
  0
LINE
  5
16C
100
AcDbEntity
  8
LAYER0
 62
         3
100
AcDbLine
 10
15.7770637305
 20
10.2678303089
 30
0.0
 11
15.7840460365
 21
10.4230640658
 31
0.0
  0
ENDBLK
  5
16D
100
AcDbEntity
  8
0
100
AcDbBlockEnd
  0
BLOCK
  5
171
100
AcDbEntity
  8
0
100
AcDbBlockBegin
  2
CLUMP24
 70
         0
 10
0.0
 20
0.0
 30
0.0
  3

  1

  0
INSERT
  5
173
100
AcDbEntity
  8
0
100
AcDbBlockReference
  2
CLUMP25
 10
0.0
 20
0.0
 30
0.0
  0
ENDBLK
  5
17F
100
AcDbEntity
  8
0
100
AcDbBlockEnd
  0
BLOCK
  5
174
100
AcDbEntity
  8
0
100
AcDbBlockBegin
  2
CLUMP25
 70
         0
 10
0.0
 20
0.0
 30
0.0
  3

  1

  0
LINE
  5
175
100
AcDbEntity
  8
LAYER0
 62
         3
100
AcDbLine
 10
19.6691668235
 20
56.8186156925
 30
0.0
 11
19.4740765015
 21
56.7961806497
 31
0.0
  0
LINE
  5
176
100
AcDbEntity
  8
LAYER0
 62
         3
100
AcDbLine
 10
19.4740765015
 20
56.7961806497
 30
0.0
 11
19.2864833912
 21
56.7297376872
 31
0.0
  0
LINE
  5
177
100
AcDbEntity
  8
LAYER0
 62
         3
100
AcDbLine
 10
19.2864833912
 20
56.7297376872
 30
0.0
 11
19.1135965905
 21
56.6218401711
 31
0.0
  0
LINE
  5
178
100
AcDbEntity
  8
LAYER0
 62
         3
100
AcDbLine
 10
19.1135965905
 20
56.6218401711
 30
0.0
 11
18.9620600423
 21
56.4766345421
 31
0.0
  0
LINE
  5
179
100
AcDbEntity
  8
LAYER0
 62
         3
100
AcDbLine
 10
18.9620600423
 20
56.4766345421
 30
0.0
 11
18.8376972112
 21
56.2997009713
 31
0.0
  0
LINE
  5
17A
100
AcDbEntity
  8
LAYER0
 62
         3
100
AcDbLine
 10
18.8376972112
 20
56.2997009713
 30
0.0
 11
18.745287291
 21
56.0978389166
 31
0.0
  0
LINE
  5
17B
100
AcDbEntity
  8
LAYER0
 62
         3
100
AcDbLine
 10
18.745287291
 20
56.0978389166
 30
0.0
 11
18.6883815431
 21
55.8788058234
 31
0.0
  0
LINE
  5
17C
100
AcDbEntity
  8
LAYER0
 62
         3
100
AcDbLine
 10
18.6883815431
 20
55.8788058234
 30
0.0
 11
18.6691668235
 21
55.6510190108
 31
0.0
  0
LINE
  5
17D
100
AcDbEntity
  8
LAYER0
 62
         3
100
AcDbLine
 10
18.6691668235
 20
55.6510190108
 30
0.0
 11
19.6691668235
 21
56.8186156925
 31
0.0
  0
ENDBLK
  5
17E
100
AcDbEntity
  8
0
100
AcDbBlockEnd
  0
BLOCK
  5
182
100
AcDbEntity
  8
0
100
AcDbBlockBegin
  2
CLUMP26
 70
         0
 10
0.0
 20
0.0
 30
0.0
  3

  1

  0
INSERT
  5
184
100
AcDbEntity
  8
0
100
AcDbBlockReference
  2
CLUMP27
 10
0.0
 20
0.0
 30
0.0
  0
ENDBLK
  5
190
100
AcDbEntity
  8
0
100
AcDbBlockEnd
  0
BLOCK
  5
185
100
AcDbEntity
  8
0
100
AcDbBlockBegin
  2
CLUMP27
 70
         0
 10
0.0
 20
0.0
 30
0.0
  3

  1

  0
LINE
  5
186
100
AcDbEntity
  8
LAYER0
 62
         3
100
AcDbLine
 10
22.6691668235
 20
56.8186156925
 30
0.0
 11
22.7667119845
 21
56.8242254795
 31
0.0
  0
LINE
  5
187
100
AcDbEntity
  8
LAYER0
 62
         3
100
AcDbLine
 10
22.7667119845
 20
56.8242254795
 30
0.0
 11
22.8605085397
 21
56.8408392594
 31
0.0
  0
LINE
  5
188
100
AcDbEntity
  8
LAYER0
 62
         3
100
AcDbLine
 10
22.8605085397
 20
56.8408392594
 30
0.0
 11
22.94695194
 21
56.867818574
 31
0.0
  0
LINE
  5
189
100
AcDbEntity
  8
LAYER0
 62
         3
100
AcDbLine
 10
22.94695194
 20
56.867818574
 30
0.0
 11
23.0227202141
 21
56.9041266234
 31
0.0
  0
LINE
  5
18A
100
AcDbEntity
  8
LAYER0
 62
         3
100
AcDbLine
 10
23.0227202141
 20
56.9041266234
 30
0.0
 11
23.0849016297
 21
56.9483681096
 31
0.0
  0
LINE
  5
18B
100
AcDbEntity
  8
LAYER0
 62
         3
100
AcDbLine
 10
23.0849016297
 20
56.9483681096
 30
0.0
 11
23.1311065898
 21
56.998842857
 31
0.0
  0
LINE
  5
18C
100
AcDbEntity
  8
LAYER0
 62
         3
100
AcDbLine
 10
23.1311065898
 20
56.998842857
 30
0.0
 11
23.1595594637
 21
57.0536111496
 31
0.0
  0
LINE
  5
18D
100
AcDbEntity
  8
LAYER0
 62
         3
100
AcDbLine
 10
23.1595594637
 20
57.0536111496
 30
0.0
 11
23.1691668235
 21
57.1105682724
 31
0.0
  0
LINE
  5
18E
100
AcDbEntity
  8
LAYER0
 62
         3
100
AcDbLine
 10
23.1691668235
 20
57.1105682724
 30
0.0
 11
22.6691668235
 21
56.8186156925
 31
0.0
  0
ENDBLK
  5
18F
100
AcDbEntity
  8
0
100
AcDbBlockEnd
  0
BLOCK
  5
193
100
AcDbEntity
  8
0
100
AcDbBlockBegin
  2
CLUMP28
 70
         0
 10
0.0
 20
0.0
 30
0.0
  3

  1

  0
INSERT
  5
195
100
AcDbEntity
  8
0
100
AcDbBlockReference
  2
CLUMP29
 10
0.0
 20
0.0
 30
0.0
  0
ENDBLK
  5
1A1
100
AcDbEntity
  8
0
100
AcDbBlockEnd
  0
BLOCK
  5
196
100
AcDbEntity
  8
0
100
AcDbBlockBegin
  2
CLUMP29
 70
         0
 10
0.0
 20
0.0
 30
0.0
  3

  1

  0
LINE
  5
197
100
AcDbEntity
  8
LAYER0
 62
         3
100
AcDbLine
 10
17.6691668235
 20
57.3991698542
 30
0.0
 11
17.6883815431
 21
57.285269958
 31
0.0
  0
LINE
  5
198
100
AcDbEntity
  8
LAYER0
 62
         3
100
AcDbLine
 10
17.6883815431
 20
57.285269958
 30
0.0
 11
17.745287291
 21
57.1757471709
 31
0.0
  0
LINE
  5
199
100
AcDbEntity
  8
LAYER0
 62
         3
100
AcDbLine
 10
17.745287291
 20
57.1757471709
 30
0.0
 11
17.8376972112
 21
57.0748103923
 31
0.0
  0
LINE
  5
19A
100
AcDbEntity
  8
LAYER0
 62
         3
100
AcDbLine
 10
17.8376972112
 20
57.0748103923
 30
0.0
 11
17.9620600423
 21
56.9863385658
 31
0.0
  0
LINE
  5
19B
100
AcDbEntity
  8
LAYER0
 62
         3
100
AcDbLine
 10
17.9620600423
 20
56.9863385658
 30
0.0
 11
18.1135965905
 21
56.9137316143
 31
0.0
  0
LINE
  5
19C
100
AcDbEntity
  8
LAYER0
 62
         3
100
AcDbLine
 10
18.1135965905
 20
56.9137316143
 30
0.0
 11
18.2864833911
 21
56.8597797821
 31
0.0
  0
LINE
  5
19D
100
AcDbEntity
  8
LAYER0
 62
         3
100
AcDbLine
 10
18.2864833911
 20
56.8597797821
 30
0.0
 11
18.4740765015
 21
56.8265564078
 31
0.0
  0
LINE
  5
19E
100
AcDbEntity
  8
LAYER0
 62
         3
100
AcDbLine
 10
18.4740765015
 20
56.8265564078
 30
0.0
 11
18.6691668235
 21
56.8153382472
 31
0.0
  0
LINE
  5
19F
100
AcDbEntity
  8
LAYER0
 62
         3
100
AcDbLine
 10
18.6691668235
 20
56.8153382472
 30
0.0
 11
17.6691668235
 21
57.3991698542
 31
0.0
  0
ENDBLK
  5
1A0
100
AcDbEntity
  8
0
100
AcDbBlockEnd
  0
BLOCK
  5
1A4
100
AcDbEntity
  8
0
100
AcDbBlockBegin
  2
CLUMP30
 70
         0
 10
0.0
 20
0.0
 30
0.0
  3

  1

  0
INSERT
  5
1A6
100
AcDbEntity
  8
0
100
AcDbBlockReference
  2
CLUMP31
 10
0.0
 20
0.0
 30
0.0
  0
ENDBLK
  5
1AE
100
AcDbEntity
  8
0
100
AcDbBlockEnd
  0
BLOCK
  5
1A7
100
AcDbEntity
  8
0
100
AcDbBlockBegin
  2
CLUMP31
 70
         0
 10
0.0
 20
0.0
 30
0.0
  3

  1

  0
LINE
  5
1A8
100
AcDbEntity
  8
LAYER0
 62
         3
100
AcDbLine
 10
22.3274589139
 20
56.8186156925
 30
0.0
 11
22.1823682392
 21
56.9417886619
 31
0.0
  0
LINE
  5
1A9
100
AcDbEntity
  8
LAYER0
 62
         3
100
AcDbLine
 10
22.1823682392
 20
56.9417886619
 30
0.0
 11
22.0207613382
 21
57.0327148874
 31
0.0
  0
LINE
  5
1AA
100
AcDbEntity
  8
LAYER0
 62
         3
100
AcDbLine
 10
22.0207613382
 20
57.0327148874
 30
0.0
 11
21.8478391633
 21
57.0884681141
 31
0.0
  0
LINE
  5
1AB
100
AcDbEntity
  8
LAYER0
 62
         3
100
AcDbLine
 10
21.8478391633
 20
57.0884681141
 30
0.0
 11
21.6691668235
 21
57.1072540507
 31
0.0
  0
LINE
  5
1AC
100
AcDbEntity
  8
LAYER0
 62
         3
100
AcDbLine
 10
21.6691668235
 20
57.1072540507
 30
0.0
 11
22.3274589139
 21
56.8186156925
 31
0.0
  0
ENDBLK
  5
1AD
100
AcDbEntity
  8
0
100
AcDbBlockEnd
  0
BLOCK
  5
1B1
100
AcDbEntity
  8
0
100
AcDbBlockBegin
  2
CLUMP32
 70
         0
 10
0.0
 20
0.0
 30
0.0
  3

  1

  0
INSERT
  5
1B3
100
AcDbEntity
  8
0
100
AcDbBlockReference
  2
CLUMP33
 10
0.0
 20
0.0
 30
0.0
  0
ENDBLK
  5
1BA
100
AcDbEntity
  8
0
100
AcDbBlockEnd
  0
BLOCK
  5
1B4
100
AcDbEntity
  8
0
100
AcDbBlockBegin
  2
CLUMP33
 70
         0
 10
0.0
 20
0.0
 30
0.0
  3

  1

  0
LINE
  5
1B5
100
AcDbEntity
  8
LAYER1
 62
         3
100
AcDbLine
 10
17.0838806661
 20
10.6426671561
 30
0.0
 11
17.2135002794
 21
10.6144806784
 31
0.0
  0
LINE
  5
1B6
100
AcDbEntity
  8
LAYER1
 62
         3
100
AcDbLine
 10
17.2135002794
 20
10.6144806784
 30
0.0
 11
17.3075619968
 21
10.5940260407
 31
0.0
  0
LINE
  5
1B7
100
AcDbEntity
  8
LAYER1
 62
         3
100
AcDbLine
 10
17.3075619968
 20
10.5940260407
 30
0.0
 11
17.3645924659
 21
10.5816245493
 31
0.0
  0
LINE
  5
1B8
100
AcDbEntity
  8
LAYER1
 62
         3
100
AcDbLine
 10
17.3645924659
 20
10.5816245493
 30
0.0
 11
17.3837032052
 21
10.5774689879
 31
0.0
  0
ENDBLK
  5
1B9
100
AcDbEntity
  8
0
100
AcDbBlockEnd
  0
BLOCK
  5
1BD
100
AcDbEntity
  8
0
100
AcDbBlockBegin
  2
CLUMP34
 70
         0
 10
0.0
 20
0.0
 30
0.0
  3

  1

  0
INSERT
  5
1BF
100
AcDbEntity
  8
0
100
AcDbBlockReference
  2
CLUMP35
 10
0.0
 20
0.0
 30
0.0
  0
ENDBLK
  5
1C6
100
AcDbEntity
  8
0
100
AcDbBlockEnd
  0
BLOCK
  5
1C0
100
AcDbEntity
  8
0
100
AcDbBlockBegin
  2
CLUMP35
 70
         0
 10
0.0
 20
0.0
 30
0.0
  3

  1

  0
LINE
  5
1C1
100
AcDbEntity
  8
LAYER1
 62
         3
100
AcDbLine
 10
12.4978881212
 20
11.6399264377
 30
0.0
 11
12.5169988604
 21
11.6357708763
 31
0.0
  0
LINE
  5
1C2
100
AcDbEntity
  8
LAYER1
 62
         3
100
AcDbLine
 10
12.5169988604
 20
11.6357708763
 30
0.0
 11
12.5740311923
 21
11.6233684536
 31
0.0
  0
LINE
  5
1C3
100
AcDbEntity
  8
LAYER1
 62
         3
100
AcDbLine
 10
12.5740311923
 20
11.6233684536
 30
0.0
 11
12.668091047
 21
11.6029147472
 31
0.0
  0
LINE
  5
1C4
100
AcDbEntity
  8
LAYER1
 62
         3
100
AcDbLine
 10
12.668091047
 20
11.6029147472
 30
0.0
 11
12.7977106603
 21
11.5747282695
 31
0.0
  0
ENDBLK
  5
1C5
100
AcDbEntity
  8
0
100
AcDbBlockEnd
  0
BLOCK
  5
1C9
100
AcDbEntity
  8
0
100
AcDbBlockBegin
  2
CLUMP36
 70
         0
 10
0.0
 20
0.0
 30
0.0
  3

  1

  0
INSERT
  5
1CB
100
AcDbEntity
  8
0
100
AcDbBlockReference
  2
CLUMP37
 10
0.0
 20
0.0
 30
0.0
  0
ENDBLK
  5
1D5
100
AcDbEntity
  8
0
100
AcDbBlockEnd
  0
BLOCK
  5
1CC
100
AcDbEntity
  8
0
100
AcDbBlockBegin
  2
CLUMP37
 70
         0
 10
0.0
 20
0.0
 30
0.0
  3

  1

  0
LINE
  5
1CD
100
AcDbEntity
  8
LAYER0
 62
         3
100
AcDbLine
 10
23.9805525051
 20
37.2833598819
 30
0.0
 11
23.9598341829
 21
37.1661559494
 31
0.0
  0
LINE
  5
1CE
100
AcDbEntity
  8
LAYER0
 62
         3
100
AcDbLine
 10
23.9598341829
 20
37.1661559494
 30
0.0
 11
23.9502920415
 21
37.1036021279
 31
0.0
  0
LINE
  5
1CF
100
AcDbEntity
  8
LAYER0
 62
         3
100
AcDbLine
 10
23.9502920415
 20
37.1036021279
 30
0.0
 11
23.9417303236
 21
37.0363060799
 31
0.0
  0
LINE
  5
1D0
100
AcDbEntity
  8
LAYER0
 62
         3
100
AcDbLine
 10
23.9417303236
 20
37.0363060799
 30
0.0
 11
23.934667887
 21
36.9658249273
 31
0.0
  0
LINE
  5
1D1
100
AcDbEntity
  8
LAYER0
 62
         3
100
AcDbLine
 10
23.934667887
 20
36.9658249273
 30
0.0
 11
23.9288979329
 21
36.8906408651
 31
0.0
  0
LINE
  5
1D2
100
AcDbEntity
  8
LAYER0
 62
         3
100
AcDbLine
 10
23.9288979329
 20
36.8906408651
 30
0.0
 11
23.9215364562
 21
36.7309030559
 31
0.0
  0
LINE
  5
1D3
100
AcDbEntity
  8
LAYER0
 62
         3
100
AcDbLine
 10
23.9215364562
 20
36.7309030559
 30
0.0
 11
23.9191671716
 21
36.5762550797
 31
0.0
  0
ENDBLK
  5
1D4
100
AcDbEntity
  8
0
100
AcDbBlockEnd
  0
BLOCK
  5
1D8
100
AcDbEntity
  8
0
100
AcDbBlockBegin
  2
CLUMP38
 70
         0
 10
0.0
 20
0.0
 30
0.0
  3

  1

  0
INSERT
  5
1DA
100
AcDbEntity
  8
0
100
AcDbBlockReference
  2
CLUMP39
 10
0.0
 20
0.0
 30
0.0
  0
ENDBLK
  5
1E6
100
AcDbEntity
  8
0
100
AcDbBlockEnd
  0
BLOCK
  5
1DB
100
AcDbEntity
  8
0
100
AcDbBlockBegin
  2
CLUMP39
 70
         0
 10
0.0
 20
0.0
 30
0.0
  3

  1

  0
LINE
  5
1DC
100
AcDbEntity
  8
LAYER0
 62
         3
100
AcDbLine
 10
19.6691668235
 20
56.5266631126
 30
0.0
 11
19.4740765015
 21
56.5042280698
 31
0.0
  0
LINE
  5
1DD
100
AcDbEntity
  8
LAYER0
 62
         3
100
AcDbLine
 10
19.4740765015
 20
56.5042280698
 30
0.0
 11
19.2864833912
 21
56.4377851073
 31
0.0
  0
LINE
  5
1DE
100
AcDbEntity
  8
LAYER0
 62
         3
100
AcDbLine
 10
19.2864833912
 20
56.4377851073
 30
0.0
 11
19.1135965905
 21
56.3298875912
 31
0.0
  0
LINE
  5
1DF
100
AcDbEntity
  8
LAYER0
 62
         3
100
AcDbLine
 10
19.1135965905
 20
56.3298875912
 30
0.0
 11
18.9620600423
 21
56.1846819622
 31
0.0
  0
LINE
  5
1E0
100
AcDbEntity
  8
LAYER0
 62
         3
100
AcDbLine
 10
18.9620600423
 20
56.1846819622
 30
0.0
 11
18.8376972112
 21
56.0077483914
 31
0.0
  0
LINE
  5
1E1
100
AcDbEntity
  8
LAYER0
 62
         3
100
AcDbLine
 10
18.8376972112
 20
56.0077483914
 30
0.0
 11
18.745287291
 21
55.8058863367
 31
0.0
  0
LINE
  5
1E2
100
AcDbEntity
  8
LAYER0
 62
         3
100
AcDbLine
 10
18.745287291
 20
55.8058863367
 30
0.0
 11
18.6883815431
 21
55.5868532435
 31
0.0
  0
LINE
  5
1E3
100
AcDbEntity
  8
LAYER0
 62
         3
100
AcDbLine
 10
18.6883815431
 20
55.5868532435
 30
0.0
 11
18.6691668235
 21
55.3590664309
 31
0.0
  0
LINE
  5
1E4
100
AcDbEntity
  8
LAYER0
 62
         3
100
AcDbLine
 10
18.6691668235
 20
55.3590664309
 30
0.0
 11
19.6691668235
 21
56.5266631126
 31
0.0
  0
ENDBLK
  5
1E5
100
AcDbEntity
  8
0
100
AcDbBlockEnd
  0
BLOCK
  5
1E9
100
AcDbEntity
  8
0
100
AcDbBlockBegin
  2
CLUMP40
 70
         0
 10
0.0
 20
0.0
 30
0.0
  3

  1

  0
INSERT
  5
1EB
100
AcDbEntity
  8
0
100
AcDbBlockReference
  2
CLUMP41
 10
0.0
 20
0.0
 30
0.0
  0
ENDBLK
  5
1F2
100
AcDbEntity
  8
0
100
AcDbBlockEnd
  0
BLOCK
  5
1EC
100
AcDbEntity
  8
0
100
AcDbBlockBegin
  2
CLUMP41
 70
         0
 10
0.0
 20
0.0
 30
0.0
  3

  1

  0
LINE
  5
1ED
100
AcDbEntity
  8
LAYER0
 62
         3
100
AcDbLine
 10
23.8813908653
 20
39.5440187719
 30
0.0
 11
23.9159922929
 21
38.9563356008
 31
0.0
  0
LINE
  5
1EE
100
AcDbEntity
  8
LAYER0
 62
         3
100
AcDbLine
 10
23.9159922929
 20
38.9563356008
 30
0.0
 11
23.9353060131
 21
38.5577357776
 31
0.0
  0
LINE
  5
1EF
100
AcDbEntity
  8
LAYER0
 62
         3
100
AcDbLine
 10
23.9353060131
 20
38.5577357776
 30
0.0
 11
23.9521695184
 21
38.1414730515
 31
0.0
  0
LINE
  5
1F0
100
AcDbEntity
  8
LAYER0
 62
         3
100
AcDbLine
 10
23.9521695184
 20
38.1414730515
 30
0.0
 11
23.9805525051
 21
37.2833598819
 31
0.0
  0
ENDBLK
  5
1F1
100
AcDbEntity
  8
0
100
AcDbBlockEnd
  0
BLOCK
  5
1F5
100
AcDbEntity
  8
0
100
AcDbBlockBegin
  2
CLUMP42
 70
         0
 10
0.0
 20
0.0
 30
0.0
  3

  1

  0
INSERT
  5
1F7
100
AcDbEntity
  8
0
100
AcDbBlockReference
  2
CLUMP43
 10
0.0
 20
0.0
 30
0.0
  0
ENDBLK
  5
20A
100
AcDbEntity
  8
0
100
AcDbBlockEnd
  0
BLOCK
  5
1F8
100
AcDbEntity
  8
0
100
AcDbBlockBegin
  2
CLUMP43
 70
         0
 10
0.0
 20
0.0
 30
0.0
  3

  1

  0
LINE
  5
1F9
100
AcDbEntity
  8
LAYER0
 62
         3
100
AcDbLine
 10
23.8279655458
 20
48.5481273796
 30
0.0
 11
23.8274467992
 21
48.5443126824
 31
0.0
  0
LINE
  5
1FA
100
AcDbEntity
  8
LAYER0
 62
         3
100
AcDbLine
 10
23.8274467992
 20
48.5443126824
 30
0.0
 11
23.8259369468
 21
48.5329621065
 31
0.0
  0
LINE
  5
1FB
100
AcDbEntity
  8
LAYER0
 62
         3
100
AcDbLine
 10
23.8259369468
 20
48.5329621065
 30
0.0
 11
23.8235711423
 21
48.5145787096
 31
0.0
  0
LINE
  5
1FC
100
AcDbEntity
  8
LAYER0
 62
         3
100
AcDbLine
 10
23.8235711423
 20
48.5145787096
 30
0.0
 11
23.8170076044
 21
48.459625658
 31
0.0
  0
LINE
  5
1FD
100
AcDbEntity
  8
LAYER0
 62
         3
100
AcDbLine
 10
23.8170076044
 20
48.459625658
 30
0.0
 11
23.8116567404
 21
48.4098381179
 31
0.0
  0
LINE
  5
1FE
100
AcDbEntity
  8
LAYER0
 62
         3
100
AcDbLine
 10
23.8116567404
 20
48.4098381179
 30
0.0
 11
23.8057814421
 21
48.3488206234
 31
0.0
  0
LINE
  5
1FF
100
AcDbEntity
  8
LAYER0
 62
         3
100
AcDbLine
 10
23.8057814421
 20
48.3488206234
 30
0.0
 11
23.7993202975
 21
48.2727957888
 31
0.0
  0
LINE
  5
200
100
AcDbEntity
  8
LAYER0
 62
         3
100
AcDbLine
 10
23.7993202975
 20
48.2727957888
 30
0.0
 11
23.7926600384
 21
48.1818270352
 31
0.0
  0
LINE
  5
201
100
AcDbEntity
  8
LAYER0
 62
         3
100
AcDbLine
 10
23.7926600384
 20
48.1818270352
 30
0.0
 11
23.7885869151
 21
48.1179768269
 31
0.0
  0
LINE
  5
202
100
AcDbEntity
  8
LAYER0
 62
         3
100
AcDbLine
 10
23.7885869151
 20
48.1179768269
 30
0.0
 11
23.7846007255
 21
48.0479776043
 31
0.0
  0
LINE
  5
203
100
AcDbEntity
  8
LAYER0
 62
         3
100
AcDbLine
 10
23.7846007255
 20
48.0479776043
 30
0.0
 11
23.7807491685
 21
47.971707662
 31
0.0
  0
LINE
  5
204
100
AcDbEntity
  8
LAYER0
 62
         3
100
AcDbLine
 10
23.7807491685
 20
47.971707662
 30
0.0
 11
23.777079943
 21
47.8890452948
 31
0.0
  0
LINE
  5
205
100
AcDbEntity
  8
LAYER0
 62
         3
100
AcDbLine
 10
23.777079943
 20
47.8890452948
 30
0.0
 11
23.7708171418
 21
47.7134137535
 31
0.0
  0
LINE
  5
206
100
AcDbEntity
  8
LAYER0
 62
         3
100
AcDbLine
 10
23.7708171418
 20
47.7134137535
 30
0.0
 11
23.7661676364
 21
47.5172538724
 31
0.0
  0
LINE
  5
207
100
AcDbEntity
  8
LAYER0
 62
         3
100
AcDbLine
 10
23.7661676364
 20
47.5172538724
 30
0.0
 11
23.7636002116
 21
47.3080401624
 31
0.0
  0
LINE
  5
208
100
AcDbEntity
  8
LAYER0
 62
         3
100
AcDbLine
 10
23.7636002116
 20
47.3080401624
 30
0.0
 11
23.7621899577
 21
47.0904659893
 31
0.0
  0
ENDBLK
  5
209
100
AcDbEntity
  8
0
100
AcDbBlockEnd
  0
BLOCK
  5
291
100
AcDbEntity
  8
0
100
AcDbBlockBegin
  2
CLUMP44
 70
         0
 10
0.0
 20
0.0
 30
0.0
  3

  1

  0
INSERT
  5
293
100
AcDbEntity
  8
0
100
AcDbBlockReference
  2
CLUMP45
 10
0.0
 20
0.0
 30
0.0
  0
ENDBLK
  5
29E
100
AcDbEntity
  8
0
100
AcDbBlockEnd
  0
BLOCK
  5
294
100
AcDbEntity
  8
0
100
AcDbBlockBegin
  2
CLUMP45
 70
         0
 10
0.0
 20
0.0
 30
0.0
  3

  1

  0
LINE
  5
295
100
AcDbEntity
  8
LAYER1
 62
         3
100
AcDbLine
 10
13.9267735066
 20
-5.0563485414
 30
0.0
 11
13.7413192423
 21
-5.0179570965
 31
0.0
  0
LINE
  5
296
100
AcDbEntity
  8
LAYER1
 62
         3
100
AcDbLine
 10
13.7413192423
 20
-5.0179570965
 30
0.0
 11
13.5028969379
 21
-4.9686002597
 31
0.0
  0
LINE
  5
297
100
AcDbEntity
  8
LAYER1
 62
         3
100
AcDbLine
 10
13.5028969379
 20
-4.9686002597
 30
0.0
 11
13.2176421465
 21
-4.9095483549
 31
0.0
  0
LINE
  5
298
100
AcDbEntity
  8
LAYER1
 62
         3
100
AcDbLine
 10
13.2176421465
 20
-4.9095483549
 30
0.0
 11
12.8928936901
 21
-4.8423210677
 31
0.0
  0
LINE
  5
299
100
AcDbEntity
  8
LAYER1
 62
         3
100
AcDbLine
 10
12.8928936901
 20
-4.8423210677
 30
0.0
 11
12.5370129826
 21
-4.7686485626
 31
0.0
  0
LINE
  5
29A
100
AcDbEntity
  8
LAYER1
 62
         3
100
AcDbLine
 10
12.5370129826
 20
-4.7686485626
 30
0.0
 11
12.1591549249
 21
-4.6904265467
 31
0.0
  0
LINE
  5
29B
100
AcDbEntity
  8
LAYER1
 62
         3
100
AcDbLine
 10
12.1591549249
 20
-4.6904265467
 30
0.0
 11
11.7690443875
 21
-4.6096683066
 31
0.0
  0
LINE
  5
29C
100
AcDbEntity
  8
LAYER1
 62
         3
100
AcDbLine
 10
11.7690443875
 20
-4.6096683066
 30
0.0
 11
11.6081956657
 21
-4.5763703814
 31
0.0
  0
ENDBLK
  5
29D
100
AcDbEntity
  8
0
100
AcDbBlockEnd
  0
BLOCK
  5
2A1
100
AcDbEntity
  8
0
100
AcDbBlockBegin
  2
CLUMP46
 70
         0
 10
0.0
 20
0.0
 30
0.0
  3

  1

  0
INSERT
  5
2A3
100
AcDbEntity
  8
0
100
AcDbBlockReference
  2
CLUMP47
 10
0.0
 20
0.0
 30
0.0
  0
ENDBLK
  5
2B2
100
AcDbEntity
  8
0
100
AcDbBlockEnd
  0
BLOCK
  5
2A4
100
AcDbEntity
  8
0
100
AcDbBlockBegin
  2
CLUMP47
 70
         0
 10
0.0
 20
0.0
 30
0.0
  3

  1

  0
LINE
  5
2A5
100
AcDbEntity
  8
LAYER0
 62
         3
100
AcDbLine
 10
13.1698485347
 20
-9.7120652493
 30
0.0
 11
13.1534385995
 21
-9.6865347214
 31
0.0
  0
LINE
  5
2A6
100
AcDbEntity
  8
LAYER0
 62
         3
100
AcDbLine
 10
13.1534385995
 20
-9.6865347214
 30
0.0
 11
13.1409513139
 21
-9.6671071224
 31
0.0
  0
LINE
  5
2A7
100
AcDbEntity
  8
LAYER0
 62
         3
100
AcDbLine
 10
13.1409513139
 20
-9.6671071224
 30
0.0
 11
13.1233252468
 21
-9.6396847214
 31
0.0
  0
LINE
  5
2A8
100
AcDbEntity
  8
LAYER0
 62
         3
100
AcDbLine
 10
13.1233252468
 20
-9.6396847214
 30
0.0
 11
13.0918514917
 21
-9.5907184049
 31
0.0
  0
LINE
  5
2A9
100
AcDbEntity
  8
LAYER0
 62
         3
100
AcDbLine
 10
13.0918514917
 20
-9.5907184049
 30
0.0
 11
13.0524627747
 21
-9.5294384804
 31
0.0
  0
LINE
  5
2AA
100
AcDbEntity
  8
LAYER0
 62
         3
100
AcDbLine
 10
13.0524627747
 20
-9.5294384804
 30
0.0
 11
13.0065299598
 21
-9.4579779122
 31
0.0
  0
LINE
  5
2AB
100
AcDbEntity
  8
LAYER0
 62
         3
100
AcDbLine
 10
13.0065299598
 20
-9.4579779122
 30
0.0
 11
12.9557933541
 21
-9.3790438544
 31
0.0
  0
LINE
  5
2AC
100
AcDbEntity
  8
LAYER0
 62
         3
100
AcDbLine
 10
12.9557933541
 20
-9.3790438544
 30
0.0
 11
12.8662518169
 21
-9.2397377981
 31
0.0
  0
LINE
  5
2AD
100
AcDbEntity
  8
LAYER0
 62
         3
100
AcDbLine
 10
12.8662518169
 20
-9.2397377981
 30
0.0
 11
12.7683944883
 21
-9.0874933224
 31
0.0
  0
LINE
  5
2AE
100
AcDbEntity
  8
LAYER0
 62
         3
100
AcDbLine
 10
12.7683944883
 20
-9.0874933224
 30
0.0
 11
12.6618249498
 21
-8.9216940454
 31
0.0
  0
LINE
  5
2AF
100
AcDbEntity
  8
LAYER0
 62
         3
100
AcDbLine
 10
12.6618249498
 20
-8.9216940454
 30
0.0
 11
12.5475406529
 21
-8.7438935
 31
0.0
  0
LINE
  5
2B0
100
AcDbEntity
  8
LAYER0
 62
         3
100
AcDbLine
 10
12.5475406529
 20
-8.7438935
 30
0.0
 11
12.4572098138
 21
-8.6033606488
 31
0.0
  0
ENDBLK
  5
2B1
100
AcDbEntity
  8
0
100
AcDbBlockEnd
  0
BLOCK
  5
2B5
100
AcDbEntity
  8
0
100
AcDbBlockBegin
  2
CLUMP48
 70
         0
 10
0.0
 20
0.0
 30
0.0
  3

  1

  0
INSERT
  5
2B7
100
AcDbEntity
  8
0
100
AcDbBlockReference
  2
CLUMP49
 10
0.0
 20
0.0
 30
0.0
  0
ENDBLK
  5
2C5
100
AcDbEntity
  8
0
100
AcDbBlockEnd
  0
BLOCK
  5
2B8
100
AcDbEntity
  8
0
100
AcDbBlockBegin
  2
CLUMP49
 70
         0
 10
0.0
 20
0.0
 30
0.0
  3

  1

  0
LINE
  5
2B9
100
AcDbEntity
  8
LAYER1
 62
         3
100
AcDbLine
 10
9.0921047958
 20
-4.021900036
 30
0.0
 11
9.1230377438
 21
-4.0286263969
 31
0.0
  0
LINE
  5
2BA
100
AcDbEntity
  8
LAYER1
 62
         3
100
AcDbLine
 10
9.1230377438
 20
-4.0286263969
 30
0.0
 11
9.2150486888
 21
-4.0486351639
 31
0.0
  0
LINE
  5
2BB
100
AcDbEntity
  8
LAYER1
 62
         3
100
AcDbLine
 10
9.2150486888
 20
-4.0486351639
 30
0.0
 11
9.3658111872
 21
-4.0814195812
 31
0.0
  0
LINE
  5
2BC
100
AcDbEntity
  8
LAYER1
 62
         3
100
AcDbLine
 10
9.3658111872
 20
-4.0814195812
 30
0.0
 11
9.5715049537
 21
-4.1261493746
 31
0.0
  0
LINE
  5
2BD
100
AcDbEntity
  8
LAYER1
 62
         3
100
AcDbLine
 10
9.5715049537
 20
-4.1261493746
 30
0.0
 11
9.8269238951
 21
-4.1816919396
 31
0.0
  0
LINE
  5
2BE
100
AcDbEntity
  8
LAYER1
 62
         3
100
AcDbLine
 10
9.8269238951
 20
-4.1816919396
 30
0.0
 11
10.1255971821
 21
-4.2466407461
 31
0.0
  0
LINE
  5
2BF
100
AcDbEntity
  8
LAYER1
 62
         3
100
AcDbLine
 10
10.1255971821
 20
-4.2466407461
 30
0.0
 11
10.4599624755
 21
-4.3193509621
 31
0.0
  0
LINE
  5
2C0
100
AcDbEntity
  8
LAYER1
 62
         3
100
AcDbLine
 10
10.4599624755
 20
-4.3193509621
 30
0.0
 11
10.8215503277
 21
-4.3979812466
 31
0.0
  0
LINE
  5
2C1
100
AcDbEntity
  8
LAYER1
 62
         3
100
AcDbLine
 10
10.8215503277
 20
-4.3979812466
 30
0.0
 11
11.2012077006
 21
-4.4805404317
 31
0.0
  0
LINE
  5
2C2
100
AcDbEntity
  8
LAYER1
 62
         3
100
AcDbLine
 10
11.2012077006
 20
-4.4805404317
 30
0.0
 11
11.5893177571
 21
-4.5649379311
 31
0.0
  0
LINE
  5
2C3
100
AcDbEntity
  8
LAYER1
 62
         3
100
AcDbLine
 10
11.5893177571
 20
-4.5649379311
 30
0.0
 11
11.6096820565
 21
-4.5693663699
 31
0.0
  0
ENDBLK
  5
2C4
100
AcDbEntity
  8
0
100
AcDbBlockEnd
  0
BLOCK
  5
2C8
100
AcDbEntity
  8
0
100
AcDbBlockBegin
  2
CLUMP50
 70
         0
 10
0.0
 20
0.0
 30
0.0
  3

  1

  0
INSERT
  5
2CA
100
AcDbEntity
  8
0
100
AcDbBlockReference
  2
CLUMP51
 10
0.0
 20
0.0
 30
0.0
  0
ENDBLK
  5
2D3
100
AcDbEntity
  8
0
100
AcDbBlockEnd
  0
BLOCK
  5
2CB
100
AcDbEntity
  8
0
100
AcDbBlockBegin
  2
CLUMP51
 70
         0
 10
0.0
 20
0.0
 30
0.0
  3

  1

  0
LINE
  5
2CC
100
AcDbEntity
  8
LAYER1
 62
         3
100
AcDbLine
 10
12.309803802
 20
-4.7216132801
 30
0.0
 11
12.3516183229
 21
-4.7307060152
 31
0.0
  0
LINE
  5
2CD
100
AcDbEntity
  8
LAYER1
 62
         3
100
AcDbLine
 10
12.3516183229
 20
-4.7307060152
 30
0.0
 11
12.7065043779
 21
-4.8078786634
 31
0.0
  0
LINE
  5
2CE
100
AcDbEntity
  8
LAYER1
 62
         3
100
AcDbLine
 10
12.7065043779
 20
-4.8078786634
 30
0.0
 11
13.0317240836
 21
-4.8786002729
 31
0.0
  0
LINE
  5
2CF
100
AcDbEntity
  8
LAYER1
 62
         3
100
AcDbLine
 10
13.0317240836
 20
-4.8786002729
 30
0.0
 11
13.3190408232
 21
-4.9410796776
 31
0.0
  0
LINE
  5
2D0
100
AcDbEntity
  8
LAYER1
 62
         3
100
AcDbLine
 10
13.3190408232
 20
-4.9410796776
 30
0.0
 11
13.5611809673
 21
-4.9937345605
 31
0.0
  0
LINE
  5
2D1
100
AcDbEntity
  8
LAYER1
 62
         3
100
AcDbLine
 10
13.5611809673
 20
-4.9937345605
 30
0.0
 11
13.7520089628
 21
-5.0352317333
 31
0.0
  0
ENDBLK
  5
2D2
100
AcDbEntity
  8
0
100
AcDbBlockEnd
  0
BLOCK
  5
2D6
100
AcDbEntity
  8
0
100
AcDbBlockBegin
  2
CLUMP52
 70
         0
 10
0.0
 20
0.0
 30
0.0
  3

  1

  0
INSERT
  5
2D8
100
AcDbEntity
  8
0
100
AcDbBlockReference
  2
CLUMP53
 10
0.0
 20
0.0
 30
0.0
  0
ENDBLK
  5
2E3
100
AcDbEntity
  8
0
100
AcDbBlockEnd
  0
BLOCK
  5
2D9
100
AcDbEntity
  8
0
100
AcDbBlockBegin
  2
CLUMP53
 70
         0
 10
0.0
 20
0.0
 30
0.0
  3

  1

  0
LINE
  5
2DA
100
AcDbEntity
  8
LAYER1
 62
         3
100
AcDbLine
 10
13.3270259829
 20
-6.9895574409
 30
0.0
 11
13.1592817487
 21
-6.9530803297
 31
0.0
  0
LINE
  5
2DB
100
AcDbEntity
  8
LAYER1
 62
         3
100
AcDbLine
 10
13.1592817487
 20
-6.9530803297
 30
0.0
 11
12.9501867922
 21
-6.9076112989
 31
0.0
  0
LINE
  5
2DC
100
AcDbEntity
  8
LAYER1
 62
         3
100
AcDbLine
 10
12.9501867922
 20
-6.9076112989
 30
0.0
 11
12.7039618673
 21
-6.8540677015
 31
0.0
  0
LINE
  5
2DD
100
AcDbEntity
  8
LAYER1
 62
         3
100
AcDbLine
 10
12.7039618673
 20
-6.8540677015
 30
0.0
 11
12.4255746486
 21
-6.7935303371
 31
0.0
  0
LINE
  5
2DE
100
AcDbEntity
  8
LAYER1
 62
         3
100
AcDbLine
 10
12.4255746486
 20
-6.7935303371
 30
0.0
 11
12.1206428738
 21
-6.7272201698
 31
0.0
  0
LINE
  5
2DF
100
AcDbEntity
  8
LAYER1
 62
         3
100
AcDbLine
 10
12.1206428738
 20
-6.7272201698
 30
0.0
 11
11.79531886
 21
-6.6564759757
 31
0.0
  0
LINE
  5
2E0
100
AcDbEntity
  8
LAYER1
 62
         3
100
AcDbLine
 10
11.79531886
 20
-6.6564759757
 30
0.0
 11
11.4561665686
 21
-6.5827247739
 31
0.0
  0
LINE
  5
2E1
100
AcDbEntity
  8
LAYER1
 62
         3
100
AcDbLine
 10
11.4561665686
 20
-6.5827247739
 30
0.0
 11
11.1100293579
 21
-6.5074548177
 31
0.0
  0
ENDBLK
  5
2E2
100
AcDbEntity
  8
0
100
AcDbBlockEnd
  0
BLOCK
  5
2E6
100
AcDbEntity
  8
0
100
AcDbBlockBegin
  2
CLUMP54
 70
         0
 10
0.0
 20
0.0
 30
0.0
  3

  1

  0
INSERT
  5
2E8
100
AcDbEntity
  8
0
100
AcDbBlockReference
  2
CLUMP55
 10
0.0
 20
0.0
 30
0.0
  0
ENDBLK
  5
2F7
100
AcDbEntity
  8
0
100
AcDbBlockEnd
  0
BLOCK
  5
2E9
100
AcDbEntity
  8
0
100
AcDbBlockBegin
  2
CLUMP55
 70
         0
 10
0.0
 20
0.0
 30
0.0
  3

  1

  0
LINE
  5
2EA
100
AcDbEntity
  8
LAYER1
 62
         3
100
AcDbLine
 10
13.1783869
 20
-9.7010747116
 30
0.0
 11
13.1738625349
 21
-9.6941861842
 31
0.0
  0
LINE
  5
2EB
100
AcDbEntity
  8
LAYER1
 62
         3
100
AcDbLine
 10
13.1738625349
 20
-9.6941861842
 30
0.0
 11
13.1377830984
 21
-9.6392702829
 31
0.0
  0
LINE
  5
2EC
100
AcDbEntity
  8
LAYER1
 62
         3
100
AcDbLine
 10
13.1377830984
 20
-9.6392702829
 30
0.0
 11
13.0662985029
 21
-9.5304624695
 31
0.0
  0
LINE
  5
2ED
100
AcDbEntity
  8
LAYER1
 62
         3
100
AcDbLine
 10
13.0662985029
 20
-9.5304624695
 30
0.0
 11
12.960738677
 21
-9.3697883706
 31
0.0
  0
LINE
  5
2EE
100
AcDbEntity
  8
LAYER1
 62
         3
100
AcDbLine
 10
12.960738677
 20
-9.3697883706
 30
0.0
 11
12.823070574
 21
-9.1602417227
 31
0.0
  0
LINE
  5
2EF
100
AcDbEntity
  8
LAYER1
 62
         3
100
AcDbLine
 10
12.823070574
 20
-9.1602417227
 30
0.0
 11
12.6558590563
 21
-8.9057261642
 31
0.0
  0
LINE
  5
2F0
100
AcDbEntity
  8
LAYER1
 62
         3
100
AcDbLine
 10
12.6558590563
 20
-8.9057261642
 30
0.0
 11
12.4622166039
 21
-8.6109821271
 31
0.0
  0
LINE
  5
2F1
100
AcDbEntity
  8
LAYER1
 62
         3
100
AcDbLine
 10
12.4622166039
 20
-8.6109821271
 30
0.0
 11
12.2457530232
 21
-8.281501155
 31
0.0
  0
LINE
  5
2F2
100
AcDbEntity
  8
LAYER1
 62
         3
100
AcDbLine
 10
12.2457530232
 20
-8.281501155
 30
0.0
 11
12.0105009409
 21
-7.9234197322
 31
0.0
  0
LINE
  5
2F3
100
AcDbEntity
  8
LAYER1
 62
         3
100
AcDbLine
 10
12.0105009409
 20
-7.9234197322
 30
0.0
 11
11.7608412983
 21
-7.5434089225
 31
0.0
  0
LINE
  5
2F4
100
AcDbEntity
  8
LAYER1
 62
         3
100
AcDbLine
 10
11.7608412983
 20
-7.5434089225
 30
0.0
 11
11.5014251204
 21
-7.1485472429
 31
0.0
  0
LINE
  5
2F5
100
AcDbEntity
  8
LAYER1
 62
         3
100
AcDbLine
 10
11.5014251204
 20
-7.1485472429
 30
0.0
 11
11.2370841088
 21
-6.746190745
 31
0.0
  0
ENDBLK
  5
2F6
100
AcDbEntity
  8
0
100
AcDbBlockEnd
  0
BLOCK
  5
2FA
100
AcDbEntity
  8
0
100
AcDbBlockBegin
  2
CLUMP56
 70
         0
 10
0.0
 20
0.0
 30
0.0
  3

  1

  0
INSERT
  5
2FC
100
AcDbEntity
  8
0
100
AcDbBlockReference
  2
CLUMP57
 10
0.0
 20
0.0
 30
0.0
  0
ENDBLK
  5
307
100
AcDbEntity
  8
0
100
AcDbBlockEnd
  0
BLOCK
  5
2FD
100
AcDbEntity
  8
0
100
AcDbBlockBegin
  2
CLUMP57
 70
         0
 10
0.0
 20
0.0
 30
0.0
  3

  1

  0
LINE
  5
2FE
100
AcDbEntity
  8
LAYER1
 62
         3
100
AcDbLine
 10
11.2370841088
 20
-6.746190745
 30
0.0
 11
11.5905955317
 21
-6.8193731416
 31
0.0
  0
LINE
  5
2FF
100
AcDbEntity
  8
LAYER1
 62
         3
100
AcDbLine
 10
11.5905955317
 20
-6.8193731416
 30
0.0
 11
11.9366992148
 21
-6.8910211842
 31
0.0
  0
LINE
  5
300
100
AcDbEntity
  8
LAYER1
 62
         3
100
AcDbLine
 10
11.9366992148
 20
-6.8910211842
 30
0.0
 11
12.26813643
 21
-6.9596331153
 31
0.0
  0
LINE
  5
301
100
AcDbEntity
  8
LAYER1
 62
         3
100
AcDbLine
 10
12.26813643
 20
-6.9596331153
 30
0.0
 11
12.5779595109
 21
-7.0237709727
 31
0.0
  0
LINE
  5
302
100
AcDbEntity
  8
LAYER1
 62
         3
100
AcDbLine
 10
12.5779595109
 20
-7.0237709727
 30
0.0
 11
12.8596752765
 21
-7.0820903923
 31
0.0
  0
LINE
  5
303
100
AcDbEntity
  8
LAYER1
 62
         3
100
AcDbLine
 10
12.8596752765
 20
-7.0820903923
 30
0.0
 11
13.1073791416
 21
-7.133368082
 31
0.0
  0
LINE
  5
304
100
AcDbEntity
  8
LAYER1
 62
         3
100
AcDbLine
 10
13.1073791416
 20
-7.133368082
 30
0.0
 11
13.3158761891
 21
-7.1765302267
 31
0.0
  0
LINE
  5
305
100
AcDbEntity
  8
LAYER1
 62
         3
100
AcDbLine
 10
13.3158761891
 20
-7.1765302267
 30
0.0
 11
13.4807985159
 21
-7.2106711153
 31
0.0
  0
ENDBLK
  5
306
100
AcDbEntity
  8
0
100
AcDbBlockEnd
  0
BLOCK
  5
315
100
AcDbEntity
  8
0
100
AcDbBlockBegin
  2
CLUMP58
 70
         0
 10
0.0
 20
0.0
 30
0.0
  3

  1

  0
INSERT
  5
317
100
AcDbEntity
  8
0
100
AcDbBlockReference
  2
CLUMP59
 10
0.0
 20
0.0
 30
0.0
  0
ENDBLK
  5
327
100
AcDbEntity
  8
0
100
AcDbBlockEnd
  0
BLOCK
  5
318
100
AcDbEntity
  8
0
100
AcDbBlockBegin
  2
CLUMP59
 70
         0
 10
0.0
 20
0.0
 30
0.0
  3

  1

  0
LINE
  5
319
100
AcDbEntity
  8
LAYER0
 62
         3
100
AcDbLine
 10
-25.3973018664
 20
10.3700597253
 30
0.0
 11
-25.3771557293
 21
10.5766941276
 31
0.0
  0
LINE
  5
31A
100
AcDbEntity
  8
LAYER0
 62
         3
100
AcDbLine
 10
-25.3771557293
 20
10.5766941276
 30
0.0
 11
-25.3510968982
 21
10.7280225265
 31
0.0
  0
LINE
  5
31B
100
AcDbEntity
  8
LAYER0
 62
         3
100
AcDbLine
 10
-25.3510968982
 20
10.7280225265
 30
0.0
 11
-25.3189580801
 21
10.8700970601
 31
0.0
  0
LINE
  5
31C
100
AcDbEntity
  8
LAYER0
 62
         3
100
AcDbLine
 10
-25.3189580801
 20
10.8700970601
 30
0.0
 11
-25.2839833248
 21
11.009619926
 31
0.0
  0
LINE
  5
31D
100
AcDbEntity
  8
LAYER0
 62
         3
100
AcDbLine
 10
-25.2839833248
 20
11.009619926
 30
0.0
 11
-25.2673491368
 21
11.073400278
 31
0.0
  0
LINE
  5
31E
100
AcDbEntity
  8
LAYER0
 62
         3
100
AcDbLine
 10
-25.2673491368
 20
11.073400278
 30
0.0
 11
-25.2516462754
 21
11.1328483041
 31
0.0
  0
LINE
  5
31F
100
AcDbEntity
  8
LAYER0
 62
         3
100
AcDbLine
 10
-25.2516462754
 20
11.1328483041
 30
0.0
 11
-25.2369423191
 21
11.188566208
 31
0.0
  0
LINE
  5
320
100
AcDbEntity
  8
LAYER0
 62
         3
100
AcDbLine
 10
-25.2369423191
 20
11.188566208
 30
0.0
 11
-25.2241192376
 21
11.2384420147
 31
0.0
  0
LINE
  5
321
100
AcDbEntity
  8
LAYER0
 62
         3
100
AcDbLine
 10
-25.2241192376
 20
11.2384420147
 30
0.0
 11
-25.2138085998
 21
11.2814004773
 31
0.0
  0
LINE
  5
322
100
AcDbEntity
  8
LAYER0
 62
         3
100
AcDbLine
 10
-25.2138085998
 20
11.2814004773
 30
0.0
 11
-25.2066419746
 21
11.3163663488
 31
0.0
  0
LINE
  5
323
100
AcDbEntity
  8
LAYER0
 62
         3
100
AcDbLine
 10
-25.2066419746
 20
11.3163663488
 30
0.0
 11
-25.2031087651
 21
11.3414814328
 31
0.0
  0
LINE
  5
324
100
AcDbEntity
  8
LAYER0
 62
         3
100
AcDbLine
 10
-25.2031087651
 20
11.3414814328
 30
0.0
 11
-25.2020806509
 21
11.3605800138
 31
0.0
  0
LINE
  5
325
100
AcDbEntity
  8
LAYER0
 62
         3
100
AcDbLine
 10
-25.2020806509
 20
11.3605800138
 30
0.0
 11
-25.2041995811
 21
11.3887496706
 31
0.0
  0
ENDBLK
  5
326
100
AcDbEntity
  8
0
100
AcDbBlockEnd
  0
BLOCK
  5
32A
100
AcDbEntity
  8
0
100
AcDbBlockBegin
  2
CLUMP60
 70
         0
 10
0.0
 20
0.0
 30
0.0
  3

  1

  0
INSERT
  5
32C
100
AcDbEntity
  8
0
100
AcDbBlockReference
  2
CLUMP61
 10
0.0
 20
0.0
 30
0.0
  0
ENDBLK
  5
343
100
AcDbEntity
  8
0
100
AcDbBlockEnd
  0
BLOCK
  5
32D
100
AcDbEntity
  8
0
100
AcDbBlockBegin
  2
CLUMP61
 70
         0
 10
0.0
 20
0.0
 30
0.0
  3

  1

  0
LINE
  5
32E
100
AcDbEntity
  8
LAYER0
 62
         3
100
AcDbLine
 10
-25.2107721574
 20
11.3830956113
 30
0.0
 11
-25.2234435513
 21
11.3762557549
 31
0.0
  0
LINE
  5
32F
100
AcDbEntity
  8
LAYER0
 62
         3
100
AcDbLine
 10
-25.2234435513
 20
11.3762557549
 30
0.0
 11
-25.239328603
 21
11.3585301157
 31
0.0
  0
LINE
  5
330
100
AcDbEntity
  8
LAYER0
 62
         3
100
AcDbLine
 10
-25.239328603
 20
11.3585301157
 30
0.0
 11
-25.2522834122
 21
11.3373302171
 31
0.0
  0
LINE
  5
331
100
AcDbEntity
  8
LAYER0
 62
         3
100
AcDbLine
 10
-25.2522834122
 20
11.3373302171
 30
0.0
 11
-25.2671606139
 21
11.3084126421
 31
0.0
  0
LINE
  5
332
100
AcDbEntity
  8
LAYER0
 62
         3
100
AcDbLine
 10
-25.2671606139
 20
11.3084126421
 30
0.0
 11
-25.3000312771
 21
11.2315806042
 31
0.0
  0
LINE
  5
333
100
AcDbEntity
  8
LAYER0
 62
         3
100
AcDbLine
 10
-25.3000312771
 20
11.2315806042
 30
0.0
 11
-25.3351699901
 21
11.12801965
 31
0.0
  0
LINE
  5
334
100
AcDbEntity
  8
LAYER0
 62
         3
100
AcDbLine
 10
-25.3351699901
 20
11.12801965
 30
0.0
 11
-25.366704893
 21
11.0039951693
 31
0.0
  0
LINE
  5
335
100
AcDbEntity
  8
LAYER0
 62
         3
100
AcDbLine
 10
-25.366704893
 20
11.0039951693
 30
0.0
 11
-25.3915287008
 21
10.8593974158
 31
0.0
  0
LINE
  5
336
100
AcDbEntity
  8
LAYER0
 62
         3
100
AcDbLine
 10
-25.3915287008
 20
10.8593974158
 30
0.0
 11
-25.406066776
 21
10.6996249821
 31
0.0
  0
LINE
  5
337
100
AcDbEntity
  8
LAYER0
 62
         3
100
AcDbLine
 10
-25.406066776
 20
10.6996249821
 30
0.0
 11
-25.408049552
 21
10.5424721351
 31
0.0
  0
LINE
  5
338
100
AcDbEntity
  8
LAYER0
 62
         3
100
AcDbLine
 10
-25.408049552
 20
10.5424721351
 30
0.0
 11
-25.3989833693
 21
10.3817161586
 31
0.0
  0
LINE
  5
339
100
AcDbEntity
  8
LAYER0
 62
         3
100
AcDbLine
 10
-25.3989833693
 20
10.3817161586
 30
0.0
 11
-25.3807528701
 21
10.2282814976
 31
0.0
  0
LINE
  5
33A
100
AcDbEntity
  8
LAYER0
 62
         3
100
AcDbLine
 10
-25.3807528701
 20
10.2282814976
 30
0.0
 11
-25.355400034
 21
10.0795839395
 31
0.0
  0
LINE
  5
33B
100
AcDbEntity
  8
LAYER0
 62
         3
100
AcDbLine
 10
-25.355400034
 20
10.0795839395
 30
0.0
 11
-25.3237072782
 21
9.931128841
 31
0.0
  0
LINE
  5
33C
100
AcDbEntity
  8
LAYER0
 62
         3
100
AcDbLine
 10
-25.3237072782
 20
9.931128841
 30
0.0
 11
-25.2902945324
 21
9.7948544141
 31
0.0
  0
LINE
  5
33D
100
AcDbEntity
  8
LAYER0
 62
         3
100
AcDbLine
 10
-25.2902945324
 20
9.7948544141
 30
0.0
 11
-25.2565708501
 21
9.6664927979
 31
0.0
  0
LINE
  5
33E
100
AcDbEntity
  8
LAYER0
 62
         3
100
AcDbLine
 10
-25.2565708501
 20
9.6664927979
 30
0.0
 11
-25.2282647236
 21
9.5586616959
 31
0.0
  0
LINE
  5
33F
100
AcDbEntity
  8
LAYER0
 62
         3
100
AcDbLine
 10
-25.2282647236
 20
9.5586616959
 30
0.0
 11
-25.2089574725
 21
9.4762683991
 31
0.0
  0
LINE
  5
340
100
AcDbEntity
  8
LAYER0
 62
         3
100
AcDbLine
 10
-25.2089574725
 20
9.4762683991
 30
0.0
 11
-25.2003555472
 21
9.4207719382
 31
0.0
  0
LINE
  5
341
100
AcDbEntity
  8
LAYER0
 62
         3
100
AcDbLine
 10
-25.2003555472
 20
9.4207719382
 30
0.0
 11
-25.1999914001
 21
9.4112296071
 31
0.0
  0
ENDBLK
  5
342
100
AcDbEntity
  8
0
100
AcDbBlockEnd
  0
BLOCK
  5
346
100
AcDbEntity
  8
0
100
AcDbBlockBegin
  2
CLUMP62
 70
         0
 10
0.0
 20
0.0
 30
0.0
  3

  1

  0
INSERT
  5
348
100
AcDbEntity
  8
0
100
AcDbBlockReference
  2
CLUMP63
 10
0.0
 20
0.0
 30
0.0
  0
ENDBLK
  5
35A
100
AcDbEntity
  8
0
100
AcDbBlockEnd
  0
BLOCK
  5
349
100
AcDbEntity
  8
0
100
AcDbBlockBegin
  2
CLUMP63
 70
         0
 10
0.0
 20
0.0
 30
0.0
  3

  1

  0
LINE
  5
34A
100
AcDbEntity
  8
LAYER0
 62
         3
100
AcDbLine
 10
-30.1942226763
 20
13.3235183027
 30
0.0
 11
-30.1978711325
 21
13.3473173197
 31
0.0
  0
LINE
  5
34B
100
AcDbEntity
  8
LAYER0
 62
         3
100
AcDbLine
 10
-30.1978711325
 20
13.3473173197
 30
0.0
 11
-30.1965557374
 21
13.3629291917
 31
0.0
  0
LINE
  5
34C
100
AcDbEntity
  8
LAYER0
 62
         3
100
AcDbLine
 10
-30.1965557374
 20
13.3629291917
 30
0.0
 11
-30.1908993073
 21
13.3749600552
 31
0.0
  0
LINE
  5
34D
100
AcDbEntity
  8
LAYER0
 62
         3
100
AcDbLine
 10
-30.1908993073
 20
13.3749600552
 30
0.0
 11
-30.1679958579
 21
13.3893607699
 31
0.0
  0
LINE
  5
34E
100
AcDbEntity
  8
LAYER0
 62
         3
100
AcDbLine
 10
-30.1679958579
 20
13.3893607699
 30
0.0
 11
-30.1320258162
 21
13.3926834906
 31
0.0
  0
LINE
  5
34F
100
AcDbEntity
  8
LAYER0
 62
         3
100
AcDbLine
 10
-30.1320258162
 20
13.3926834906
 30
0.0
 11
-30.0858542143
 21
13.3870922443
 31
0.0
  0
LINE
  5
350
100
AcDbEntity
  8
LAYER0
 62
         3
100
AcDbLine
 10
-30.0858542143
 20
13.3870922443
 30
0.0
 11
-30.0310234894
 21
13.3741786337
 31
0.0
  0
LINE
  5
351
100
AcDbEntity
  8
LAYER0
 62
         3
100
AcDbLine
 10
-30.0310234894
 20
13.3741786337
 30
0.0
 11
-29.968607226
 21
13.3544541883
 31
0.0
  0
LINE
  5
352
100
AcDbEntity
  8
LAYER0
 62
         3
100
AcDbLine
 10
-29.968607226
 20
13.3544541883
 30
0.0
 11
-29.8985714029
 21
13.3280558136
 31
0.0
  0
LINE
  5
353
100
AcDbEntity
  8
LAYER0
 62
         3
100
AcDbLine
 10
-29.8985714029
 20
13.3280558136
 30
0.0
 11
-29.8208819988
 21
13.2951204147
 31
0.0
  0
LINE
  5
354
100
AcDbEntity
  8
LAYER0
 62
         3
100
AcDbLine
 10
-29.8208819988
 20
13.2951204147
 30
0.0
 11
-29.6963931177
 21
13.2370890558
 31
0.0
  0
LINE
  5
355
100
AcDbEntity
  8
LAYER0
 62
         3
100
AcDbLine
 10
-29.6963931177
 20
13.2370890558
 30
0.0
 11
-29.5585507813
 21
13.1685350504
 31
0.0
  0
LINE
  5
356
100
AcDbEntity
  8
LAYER0
 62
         3
100
AcDbLine
 10
-29.5585507813
 20
13.1685350504
 30
0.0
 11
-29.4047568689
 21
13.0897256847
 31
0.0
  0
LINE
  5
357
100
AcDbEntity
  8
LAYER0
 62
         3
100
AcDbLine
 10
-29.4047568689
 20
13.0897256847
 30
0.0
 11
-29.2381852453
 21
13.0048793223
 31
0.0
  0
LINE
  5
358
100
AcDbEntity
  8
LAYER0
 62
         3
100
AcDbLine
 10
-29.2381852453
 20
13.0048793223
 30
0.0
 11
-28.9499913163
 21
12.8628991958
 31
0.0
  0
ENDBLK
  5
359
100
AcDbEntity
  8
0
100
AcDbBlockEnd
  0
BLOCK
  5
35D
100
AcDbEntity
  8
0
100
AcDbBlockBegin
  2
CLUMP64
 70
         0
 10
0.0
 20
0.0
 30
0.0
  3

  1

  0
INSERT
  5
35F
100
AcDbEntity
  8
0
100
AcDbBlockReference
  2
CLUMP65
 10
0.0
 20
0.0
 30
0.0
  0
ENDBLK
  5
36F
100
AcDbEntity
  8
0
100
AcDbBlockEnd
  0
BLOCK
  5
360
100
AcDbEntity
  8
0
100
AcDbBlockBegin
  2
CLUMP65
 70
         0
 10
0.0
 20
0.0
 30
0.0
  3

  1

  0
LINE
  5
361
100
AcDbEntity
  8
LAYER0
 62
         3
100
AcDbLine
 10
-26.4499913721
 20
12.8628991958
 30
0.0
 11
-26.2831647571
 21
12.9448419507
 31
0.0
  0
LINE
  5
362
100
AcDbEntity
  8
LAYER0
 62
         3
100
AcDbLine
 10
-26.2831647571
 20
12.9448419507
 30
0.0
 11
-26.1222836382
 21
13.024990302
 31
0.0
  0
LINE
  5
363
100
AcDbEntity
  8
LAYER0
 62
         3
100
AcDbLine
 10
-26.1222836382
 20
13.024990302
 30
0.0
 11
-25.958739249
 21
13.1084368409
 31
0.0
  0
LINE
  5
364
100
AcDbEntity
  8
LAYER0
 62
         3
100
AcDbLine
 10
-25.958739249
 20
13.1084368409
 30
0.0
 11
-25.8081961476
 21
13.1852727797
 31
0.0
  0
LINE
  5
365
100
AcDbEntity
  8
LAYER0
 62
         3
100
AcDbLine
 10
-25.8081961476
 20
13.1852727797
 30
0.0
 11
-25.6662552746
 21
13.2549563264
 31
0.0
  0
LINE
  5
366
100
AcDbEntity
  8
LAYER0
 62
         3
100
AcDbLine
 10
-25.6662552746
 20
13.2549563264
 30
0.0
 11
-25.539404229
 21
13.3125044819
 31
0.0
  0
LINE
  5
367
100
AcDbEntity
  8
LAYER0
 62
         3
100
AcDbLine
 10
-25.539404229
 20
13.3125044819
 30
0.0
 11
-25.4587168907
 21
13.3450469731
 31
0.0
  0
LINE
  5
368
100
AcDbEntity
  8
LAYER0
 62
         3
100
AcDbLine
 10
-25.4587168907
 20
13.3450469731
 30
0.0
 11
-25.3871613934
 21
13.3696858253
 31
0.0
  0
LINE
  5
369
100
AcDbEntity
  8
LAYER0
 62
         3
100
AcDbLine
 10
-25.3871613934
 20
13.3696858253
 30
0.0
 11
-25.3238483457
 21
13.3860070247
 31
0.0
  0
LINE
  5
36A
100
AcDbEntity
  8
LAYER0
 62
         3
100
AcDbLine
 10
-25.3238483457
 20
13.3860070247
 30
0.0
 11
-25.2740613471
 21
13.390463632
 31
0.0
  0
LINE
  5
36B
100
AcDbEntity
  8
LAYER0
 62
         3
100
AcDbLine
 10
-25.2740613471
 20
13.390463632
 30
0.0
 11
-25.2453606024
 21
13.3837311669
 31
0.0
  0
LINE
  5
36C
100
AcDbEntity
  8
LAYER0
 62
         3
100
AcDbLine
 10
-25.2453606024
 20
13.3837311669
 30
0.0
 11
-25.2253883645
 21
13.3694230015
 31
0.0
  0
LINE
  5
36D
100
AcDbEntity
  8
LAYER0
 62
         3
100
AcDbLine
 10
-25.2253883645
 20
13.3694230015
 30
0.0
 11
-25.1999914001
 21
13.3281805035
 31
0.0
  0
ENDBLK
  5
36E
100
AcDbEntity
  8
0
100
AcDbBlockEnd
  0
BLOCK
  5
372
100
AcDbEntity
  8
0
100
AcDbBlockBegin
  2
CLUMP66
 70
         0
 10
0.0
 20
0.0
 30
0.0
  3

  1

  0
INSERT
  5
374
100
AcDbEntity
  8
0
100
AcDbBlockReference
  2
CLUMP67
 10
0.0
 20
0.0
 30
0.0
  0
ENDBLK
  5
37B
100
AcDbEntity
  8
0
100
AcDbBlockEnd
  0
BLOCK
  5
375
100
AcDbEntity
  8
0
100
AcDbBlockBegin
  2
CLUMP67
 70
         0
 10
0.0
 20
0.0
 30
0.0
  3

  1

  0
LINE
  5
376
100
AcDbEntity
  8
LAYER0
 62
         3
100
AcDbLine
 10
-27.6999913442
 20
10.9216959324
 30
0.0
 11
-28.1152696996
 21
10.5085209664
 31
0.0
  0
LINE
  5
377
100
AcDbEntity
  8
LAYER0
 62
         3
100
AcDbLine
 10
-28.1152696996
 20
10.5085209664
 30
0.0
 11
-28.5190091333
 21
10.0920657568
 31
0.0
  0
LINE
  5
378
100
AcDbEntity
  8
LAYER0
 62
         3
100
AcDbLine
 10
-28.5190091333
 20
10.0920657568
 30
0.0
 11
-28.8999913442
 21
9.6839019255
 31
0.0
  0
LINE
  5
379
100
AcDbEntity
  8
LAYER0
 62
         3
100
AcDbLine
 10
-28.8999913442
 20
9.6839019255
 30
0.0
 11
-27.6999913442
 21
10.9216959324
 31
0.0
  0
ENDBLK
  5
37A
100
AcDbEntity
  8
0
100
AcDbBlockEnd
  0
BLOCK
  5
37E
100
AcDbEntity
  8
0
100
AcDbBlockBegin
  2
CLUMP68
 70
         0
 10
0.0
 20
0.0
 30
0.0
  3

  1

  0
INSERT
  5
380
100
AcDbEntity
  8
0
100
AcDbBlockReference
  2
CLUMP69
 10
0.0
 20
0.0
 30
0.0
  0
ENDBLK
  5
387
100
AcDbEntity
  8
0
100
AcDbBlockEnd
  0
BLOCK
  5
381
100
AcDbEntity
  8
0
100
AcDbBlockBegin
  2
CLUMP69
 70
         0
 10
0.0
 20
0.0
 30
0.0
  3

  1

  0
LINE
  5
382
100
AcDbEntity
  8
LAYER0
 62
         3
100
AcDbLine
 10
-26.4999913442
 20
9.6839019255
 30
0.0
 11
-26.8809735551
 21
10.0920657568
 31
0.0
  0
LINE
  5
383
100
AcDbEntity
  8
LAYER0
 62
         3
100
AcDbLine
 10
-26.8809735551
 20
10.0920657568
 30
0.0
 11
-27.2847129888
 21
10.5085209664
 31
0.0
  0
LINE
  5
384
100
AcDbEntity
  8
LAYER0
 62
         3
100
AcDbLine
 10
-27.2847129888
 20
10.5085209664
 30
0.0
 11
-27.6999913442
 21
10.9216959324
 31
0.0
  0
LINE
  5
385
100
AcDbEntity
  8
LAYER0
 62
         3
100
AcDbLine
 10
-27.6999913442
 20
10.9216959324
 30
0.0
 11
-26.4999913442
 21
9.6839019255
 31
0.0
  0
ENDBLK
  5
386
100
AcDbEntity
  8
0
100
AcDbBlockEnd
  0
BLOCK
  5
38A
100
AcDbEntity
  8
0
100
AcDbBlockBegin
  2
CLUMP70
 70
         0
 10
0.0
 20
0.0
 30
0.0
  3

  1

  0
INSERT
  5
38C
100
AcDbEntity
  8
0
100
AcDbBlockReference
  2
CLUMP71
 10
0.0
 20
0.0
 30
0.0
  0
ENDBLK
  5
397
100
AcDbEntity
  8
0
100
AcDbBlockEnd
  0
BLOCK
  5
38D
100
AcDbEntity
  8
0
100
AcDbBlockBegin
  2
CLUMP71
 70
         0
 10
0.0
 20
0.0
 30
0.0
  3

  1

  0
LINE
  5
38E
100
AcDbEntity
  8
LAYER1
 62
         3
100
AcDbLine
 10
-17.7191218647
 20
31.3904684451
 30
0.0
 11
-17.7153900552
 21
31.1953749921
 31
0.0
  0
LINE
  5
38F
100
AcDbEntity
  8
LAYER1
 62
         3
100
AcDbLine
 10
-17.7153900552
 20
31.1953749921
 30
0.0
 11
-17.711800738
 21
31.0077842739
 31
0.0
  0
LINE
  5
390
100
AcDbEntity
  8
LAYER1
 62
         3
100
AcDbLine
 10
-17.711800738
 20
31.0077842739
 30
0.0
 11
-17.7084936115
 21
30.8348972764
 31
0.0
  0
LINE
  5
391
100
AcDbEntity
  8
LAYER1
 62
         3
100
AcDbLine
 10
-17.7084936115
 20
30.8348972764
 30
0.0
 11
-17.7055944043
 21
30.6833599176
 31
0.0
  0
LINE
  5
392
100
AcDbEntity
  8
LAYER1
 62
         3
100
AcDbLine
 10
-17.7055944043
 20
30.6833599176
 30
0.0
 11
-17.7032158065
 21
30.5589985516
 31
0.0
  0
LINE
  5
393
100
AcDbEntity
  8
LAYER1
 62
         3
100
AcDbLine
 10
-17.7032158065
 20
30.5589985516
 30
0.0
 11
-17.7014472249
 21
30.4665890005
 31
0.0
  0
LINE
  5
394
100
AcDbEntity
  8
LAYER1
 62
         3
100
AcDbLine
 10
-17.7014472249
 20
30.4665890005
 30
0.0
 11
-17.7003585088
 21
30.4096814659
 31
0.0
  0
LINE
  5
395
100
AcDbEntity
  8
LAYER1
 62
         3
100
AcDbLine
 10
-17.7003585088
 20
30.4096814659
 30
0.0
 11
-17.6999915677
 21
30.3904664185
 31
0.0
  0
ENDBLK
  5
396
100
AcDbEntity
  8
0
100
AcDbBlockEnd
  0
BLOCK
  5
39A
100
AcDbEntity
  8
0
100
AcDbBlockBegin
  2
CLUMP72
 70
         0
 10
0.0
 20
0.0
 30
0.0
  3

  1

  0
INSERT
  5
39C
100
AcDbEntity
  8
0
100
AcDbBlockReference
  2
CLUMP73
 10
0.0
 20
0.0
 30
0.0
  0
ENDBLK
  5
3A7
100
AcDbEntity
  8
0
100
AcDbBlockEnd
  0
BLOCK
  5
39D
100
AcDbEntity
  8
0
100
AcDbBlockBegin
  2
CLUMP73
 70
         0
 10
0.0
 20
0.0
 30
0.0
  3

  1

  0
LINE
  5
39E
100
AcDbEntity
  8
LAYER1
 62
         3
100
AcDbLine
 10
-19.7112171265
 20
57.3991712596
 30
0.0
 11
-19.5139369282
 21
57.2852705088
 31
0.0
  0
LINE
  5
39F
100
AcDbEntity
  8
LAYER1
 62
         3
100
AcDbLine
 10
-19.5139369282
 20
57.2852705088
 30
0.0
 11
-19.3242376956
 21
57.175746974
 31
0.0
  0
LINE
  5
3A0
100
AcDbEntity
  8
LAYER1
 62
         3
100
AcDbLine
 10
-19.3242376956
 20
57.175746974
 30
0.0
 11
-19.1494098219
 21
57.0748102333
 31
0.0
  0
LINE
  5
3A1
100
AcDbEntity
  8
LAYER1
 62
         3
100
AcDbLine
 10
-19.1494098219
 20
57.0748102333
 30
0.0
 11
-18.9961727995
 21
56.986338314
 31
0.0
  0
LINE
  5
3A2
100
AcDbEntity
  8
LAYER1
 62
         3
100
AcDbLine
 10
-18.9961727995
 20
56.986338314
 30
0.0
 11
-18.8704135182
 21
56.9137324061
 31
0.0
  0
LINE
  5
3A3
100
AcDbEntity
  8
LAYER1
 62
         3
100
AcDbLine
 10
-18.8704135182
 20
56.9137324061
 30
0.0
 11
-18.7769664738
 21
56.8597790267
 31
0.0
  0
LINE
  5
3A4
100
AcDbEntity
  8
LAYER1
 62
         3
100
AcDbLine
 10
-18.7769664738
 20
56.8597790267
 30
0.0
 11
-18.7194219145
 21
56.8265568879
 31
0.0
  0
LINE
  5
3A5
100
AcDbEntity
  8
LAYER1
 62
         3
100
AcDbLine
 10
-18.7194219145
 20
56.8265568879
 30
0.0
 11
-18.6999917316
 21
56.8153400388
 31
0.0
  0
ENDBLK
  5
3A6
100
AcDbEntity
  8
0
100
AcDbBlockEnd
  0
BLOCK
  5
3AA
100
AcDbEntity
  8
0
100
AcDbBlockBegin
  2
CLUMP74
 70
         0
 10
0.0
 20
0.0
 30
0.0
  3

  1

  0
INSERT
  5
3AC
100
AcDbEntity
  8
0
100
AcDbBlockReference
  2
CLUMP75
 10
0.0
 20
0.0
 30
0.0
  0
ENDBLK
  5
3B7
100
AcDbEntity
  8
0
100
AcDbBlockEnd
  0
BLOCK
  5
3AD
100
AcDbEntity
  8
0
100
AcDbBlockBegin
  2
CLUMP75
 70
         0
 10
0.0
 20
0.0
 30
0.0
  3

  1

  0
LINE
  5
3AE
100
AcDbEntity
  8
LAYER1
 62
         3
100
AcDbLine
 10
-37.1999910387
 20
56.5266635683
 30
0.0
 11
-37.1805580619
 21
56.5378841426
 31
0.0
  0
LINE
  5
3AF
100
AcDbEntity
  8
LAYER1
 62
         3
100
AcDbLine
 10
-37.1805580619
 20
56.5378841426
 30
0.0
 11
-37.1230069834
 21
56.5711100068
 31
0.0
  0
LINE
  5
3B0
100
AcDbEntity
  8
LAYER1
 62
         3
100
AcDbLine
 10
-37.1230069834
 20
56.5711100068
 30
0.0
 11
-37.0295478317
 21
56.6250671115
 31
0.0
  0
LINE
  5
3B1
100
AcDbEntity
  8
LAYER1
 62
         3
100
AcDbLine
 10
-37.0295478317
 20
56.6250671115
 30
0.0
 11
-36.903772718
 21
56.6976841953
 31
0.0
  0
LINE
  5
3B2
100
AcDbEntity
  8
LAYER1
 62
         3
100
AcDbLine
 10
-36.903772718
 20
56.6976841953
 30
0.0
 11
-36.7505161378
 21
56.7861672904
 31
0.0
  0
LINE
  5
3B3
100
AcDbEntity
  8
LAYER1
 62
         3
100
AcDbLine
 10
-36.7505161378
 20
56.7861672904
 30
0.0
 11
-36.5756659123
 21
56.8871189322
 31
0.0
  0
LINE
  5
3B4
100
AcDbEntity
  8
LAYER1
 62
         3
100
AcDbLine
 10
-36.5756659123
 20
56.8871189322
 30
0.0
 11
-36.3859433967
 21
56.9966536429
 31
0.0
  0
LINE
  5
3B5
100
AcDbEntity
  8
LAYER1
 62
         3
100
AcDbLine
 10
-36.3859433967
 20
56.9966536429
 30
0.0
 11
-36.1886380526
 21
57.1105692949
 31
0.0
  0
ENDBLK
  5
3B6
100
AcDbEntity
  8
0
100
AcDbBlockEnd
  0
BLOCK
  5
3CA
100
AcDbEntity
  8
0
100
AcDbBlockBegin
  2
CLUMP76
 70
         0
 10
0.0
 20
0.0
 30
0.0
  3

  1

  0
INSERT
  5
3CC
100
AcDbEntity
  8
0
100
AcDbBlockReference
  2
CLUMP77
 10
0.0
 20
0.0
 30
0.0
  0
ENDBLK
  5
3E3
100
AcDbEntity
  8
0
100
AcDbBlockEnd
  0
BLOCK
  5
3CD
100
AcDbEntity
  8
0
100
AcDbBlockBegin
  2
CLUMP77
 70
         0
 10
0.0
 20
0.0
 30
0.0
  3

  1

  0
LINE
  5
3CE
100
AcDbEntity
  8
LAYER0
 62
         3
100
AcDbLine
 10
-37.4635674345
 20
53.3189837303
 30
0.0
 11
-37.4635674345
 21
53.3189762797
 31
0.0
  0
LINE
  5
3CF
100
AcDbEntity
  8
LAYER0
 62
         3
100
AcDbLine
 10
-37.4635674345
 20
53.3189762797
 30
0.0
 11
-37.4635676843
 21
53.3188078354
 31
0.0
  0
LINE
  5
3D0
100
AcDbEntity
  8
LAYER0
 62
         3
100
AcDbLine
 10
-37.4635676843
 20
53.3188078354
 30
0.0
 11
-37.4635684085
 21
53.3191771986
 31
0.0
  0
LINE
  5
3D1
100
AcDbEntity
  8
LAYER0
 62
         3
100
AcDbLine
 10
-37.4635684085
 20
53.3191771986
 30
0.0
 11
-37.4635711598
 21
53.3210214641
 31
0.0
  0
LINE
  5
3D2
100
AcDbEntity
  8
LAYER0
 62
         3
100
AcDbLine
 10
-37.4635711598
 20
53.3210214641
 30
0.0
 11
-37.4635771603
 21
53.3246409874
 31
0.0
  0
LINE
  5
3D3
100
AcDbEntity
  8
LAYER0
 62
         3
100
AcDbLine
 10
-37.4635771603
 20
53.3246409874
 30
0.0
 11
-37.463586061
 21
53.3296194341
 31
0.0
  0
LINE
  5
3D4
100
AcDbEntity
  8
LAYER0
 62
         3
100
AcDbLine
 10
-37.463586061
 20
53.3296194341
 30
0.0
 11
-37.4635980277
 21
53.3362073431
 31
0.0
  0
LINE
  5
3D5
100
AcDbEntity
  8
LAYER0
 62
         3
100
AcDbLine
 10
-37.4635980277
 20
53.3362073431
 30
0.0
 11
-37.463612138
 21
53.3441592421
 31
0.0
  0
LINE
  5
3D6
100
AcDbEntity
  8
LAYER0
 62
         3
100
AcDbLine
 10
-37.463612138
 20
53.3441592421
 30
0.0
 11
-37.4636277002
 21
53.3532670198
 31
0.0
  0
LINE
  5
3D7
100
AcDbEntity
  8
LAYER0
 62
         3
100
AcDbLine
 10
-37.4636277002
 20
53.3532670198
 30
0.0
 11
-37.4636447343
 21
53.3632103767
 31
0.0
  0
LINE
  5
3D8
100
AcDbEntity
  8
LAYER0
 62
         3
100
AcDbLine
 10
-37.4636447343
 20
53.3632103767
 30
0.0
 11
-37.4636829185
 21
53.3847798076
 31
0.0
  0
LINE
  5
3D9
100
AcDbEntity
  8
LAYER0
 62
         3
100
AcDbLine
 10
-37.4636829185
 20
53.3847798076
 30
0.0
 11
-37.4637201714
 21
53.4065094259
 31
0.0
  0
LINE
  5
3DA
100
AcDbEntity
  8
LAYER0
 62
         3
100
AcDbLine
 10
-37.4637201714
 20
53.4065094259
 30
0.0
 11
-37.4637377074
 21
53.4166822682
 31
0.0
  0
LINE
  5
3DB
100
AcDbEntity
  8
LAYER0
 62
         3
100
AcDbLine
 10
-37.4637377074
 20
53.4166822682
 30
0.0
 11
-37.4637536991
 21
53.425914463
 31
0.0
  0
LINE
  5
3DC
100
AcDbEntity
  8
LAYER0
 62
         3
100
AcDbLine
 10
-37.4637536991
 20
53.425914463
 30
0.0
 11
-37.4637675641
 21
53.4339925966
 31
0.0
  0
LINE
  5
3DD
100
AcDbEntity
  8
LAYER0
 62
         3
100
AcDbLine
 10
-37.4637675641
 20
53.4339925966
 30
0.0
 11
-37.4637788448
 21
53.4406405356
 31
0.0
  0
LINE
  5
3DE
100
AcDbEntity
  8
LAYER0
 62
         3
100
AcDbLine
 10
-37.4637788448
 20
53.4406405356
 30
0.0
 11
-37.463787383
 21
53.4456943768
 31
0.0
  0
LINE
  5
3DF
100
AcDbEntity
  8
LAYER0
 62
         3
100
AcDbLine
 10
-37.463787383
 20
53.4456943768
 30
0.0
 11
-37.4637905044
 21
53.4474982315
 31
0.0
  0
LINE
  5
3E0
100
AcDbEntity
  8
LAYER0
 62
         3
100
AcDbLine
 10
-37.4637905044
 20
53.4474982315
 30
0.0
 11
-37.4637928146
 21
53.4487579431
 31
0.0
  0
LINE
  5
3E1
100
AcDbEntity
  8
LAYER0
 62
         3
100
AcDbLine
 10
-37.4637928146
 20
53.4487579431
 30
0.0
 11
-37.4637956086
 21
53.4499425855
 31
0.0
  0
ENDBLK
  5
3E2
100
AcDbEntity
  8
0
100
AcDbBlockEnd
  0
BLOCK
  5
3E6
100
AcDbEntity
  8
0
100
AcDbBlockBegin
  2
CLUMP78
 70
         0
 10
0.0
 20
0.0
 30
0.0
  3

  1

  0
INSERT
  5
3E8
100
AcDbEntity
  8
0
100
AcDbBlockReference
  2
CLUMP79
 10
0.0
 20
0.0
 30
0.0
  0
ENDBLK
  5
3F4
100
AcDbEntity
  8
0
100
AcDbBlockEnd
  0
BLOCK
  5
3E9
100
AcDbEntity
  8
0
100
AcDbBlockBegin
  2
CLUMP79
 70
         0
 10
0.0
 20
0.0
 30
0.0
  3

  1

  0
LINE
  5
3EA
100
AcDbEntity
  8
LAYER0
 62
         3
100
AcDbLine
 10
-22.0708262461
 20
36.5762550797
 30
0.0
 11
-22.0911154661
 21
36.726890925
 31
0.0
  0
LINE
  5
3EB
100
AcDbEntity
  8
LAYER0
 62
         3
100
AcDbLine
 10
-22.0911154661
 20
36.726890925
 30
0.0
 11
-22.1064256369
 21
36.8006523706
 31
0.0
  0
LINE
  5
3EC
100
AcDbEntity
  8
LAYER0
 62
         3
100
AcDbLine
 10
-22.1064256369
 20
36.8006523706
 30
0.0
 11
-22.1279344807
 21
36.8725460436
 31
0.0
  0
LINE
  5
3ED
100
AcDbEntity
  8
LAYER0
 62
         3
100
AcDbLine
 10
-22.1279344807
 20
36.8725460436
 30
0.0
 11
-22.1580025013
 21
36.9436020576
 31
0.0
  0
LINE
  5
3EE
100
AcDbEntity
  8
LAYER0
 62
         3
100
AcDbLine
 10
-22.1580025013
 20
36.9436020576
 30
0.0
 11
-22.1956785867
 21
37.0114189379
 31
0.0
  0
LINE
  5
3EF
100
AcDbEntity
  8
LAYER0
 62
         3
100
AcDbLine
 10
-22.1956785867
 20
37.0114189379
 30
0.0
 11
-22.2399005055
 21
37.0753700682
 31
0.0
  0
LINE
  5
3F0
100
AcDbEntity
  8
LAYER0
 62
         3
100
AcDbLine
 10
-22.2399005055
 20
37.0753700682
 30
0.0
 11
-22.2896060261
 21
37.1348288324
 31
0.0
  0
LINE
  5
3F1
100
AcDbEntity
  8
LAYER0
 62
         3
100
AcDbLine
 10
-22.2896060261
 20
37.1348288324
 30
0.0
 11
-22.3675374195
 21
37.2116903461
 31
0.0
  0
LINE
  5
3F2
100
AcDbEntity
  8
LAYER0
 62
         3
100
AcDbLine
 10
-22.3675374195
 20
37.2116903461
 30
0.0
 11
-22.4499532308
 21
37.2833598819
 31
0.0
  0
ENDBLK
  5
3F3
100
AcDbEntity
  8
0
100
AcDbBlockEnd
  0
BLOCK
  5
3F7
100
AcDbEntity
  8
0
100
AcDbBlockBegin
  2
CLUMP80
 70
         0
 10
0.0
 20
0.0
 30
0.0
  3

  1

  0
INSERT
  5
3F9
100
AcDbEntity
  8
0
100
AcDbBlockReference
  2
CLUMP81
 10
0.0
 20
0.0
 30
0.0
  0
ENDBLK
  5
405
100
AcDbEntity
  8
0
100
AcDbBlockEnd
  0
BLOCK
  5
3FA
100
AcDbEntity
  8
0
100
AcDbBlockBegin
  2
CLUMP81
 70
         0
 10
0.0
 20
0.0
 30
0.0
  3

  1

  0
LINE
  5
3FB
100
AcDbEntity
  8
LAYER0
 62
         3
100
AcDbLine
 10
-32.9500294577
 20
37.2833598819
 30
0.0
 11
-33.0752286417
 21
37.1661559681
 31
0.0
  0
LINE
  5
3FC
100
AcDbEntity
  8
LAYER0
 62
         3
100
AcDbLine
 10
-33.0752286417
 20
37.1661559681
 30
0.0
 11
-33.133296418
 21
37.1036021442
 31
0.0
  0
LINE
  5
3FD
100
AcDbEntity
  8
LAYER0
 62
         3
100
AcDbLine
 10
-33.133296418
 20
37.1036021442
 30
0.0
 11
-33.1859260152
 21
37.0363060799
 31
0.0
  0
LINE
  5
3FE
100
AcDbEntity
  8
LAYER0
 62
         3
100
AcDbLine
 10
-33.1859260152
 20
37.0363060799
 30
0.0
 11
-33.2299986306
 21
36.9658249306
 31
0.0
  0
LINE
  5
3FF
100
AcDbEntity
  8
LAYER0
 62
         3
100
AcDbLine
 10
-33.2299986306
 20
36.9658249306
 30
0.0
 11
-33.2665377915
 21
36.8906408656
 31
0.0
  0
LINE
  5
400
100
AcDbEntity
  8
LAYER0
 62
         3
100
AcDbLine
 10
-33.2665377915
 20
36.8906408656
 30
0.0
 11
-33.2947617618
 21
36.8119386517
 31
0.0
  0
LINE
  5
401
100
AcDbEntity
  8
LAYER0
 62
         3
100
AcDbLine
 10
-33.2947617618
 20
36.8119386517
 30
0.0
 11
-33.3138888056
 21
36.7309030559
 31
0.0
  0
LINE
  5
402
100
AcDbEntity
  8
LAYER0
 62
         3
100
AcDbLine
 10
-33.3138888056
 20
36.7309030559
 30
0.0
 11
-33.3236908131
 21
36.6538311682
 31
0.0
  0
LINE
  5
403
100
AcDbEntity
  8
LAYER0
 62
         3
100
AcDbLine
 10
-33.3236908131
 20
36.6538311682
 30
0.0
 11
-33.3291564423
 21
36.5762550797
 31
0.0
  0
ENDBLK
  5
404
100
AcDbEntity
  8
0
100
AcDbBlockEnd
  0
BLOCK
  5
408
100
AcDbEntity
  8
0
100
AcDbBlockBegin
  2
CLUMP82
 70
         0
 10
0.0
 20
0.0
 30
0.0
  3

  1

  0
INSERT
  5
40A
100
AcDbEntity
  8
0
100
AcDbBlockReference
  2
CLUMP83
 10
0.0
 20
0.0
 30
0.0
  0
ENDBLK
  5
411
100
AcDbEntity
  8
0
100
AcDbBlockEnd
  0
BLOCK
  5
40B
100
AcDbEntity
  8
0
100
AcDbBlockBegin
  2
CLUMP83
 70
         0
 10
0.0
 20
0.0
 30
0.0
  3

  1

  0
LINE
  5
40C
100
AcDbEntity
  8
LAYER0
 62
         3
100
AcDbLine
 10
-22.4499532308
 20
37.2833598819
 30
0.0
 11
-23.4752625513
 21
38.1400648918
 31
0.0
  0
LINE
  5
40D
100
AcDbEntity
  8
LAYER0
 62
         3
100
AcDbLine
 10
-23.4752625513
 20
38.1400648918
 30
0.0
 11
-23.9985986075
 21
38.5570557997
 31
0.0
  0
LINE
  5
40E
100
AcDbEntity
  8
LAYER0
 62
         3
100
AcDbLine
 10
-23.9985986075
 20
38.5570557997
 30
0.0
 11
-24.5351104352
 21
38.9563356008
 31
0.0
  0
LINE
  5
40F
100
AcDbEntity
  8
LAYER0
 62
         3
100
AcDbLine
 10
-24.5351104352
 20
38.9563356008
 30
0.0
 11
-25.4073820363
 21
39.5440187719
 31
0.0
  0
ENDBLK
  5
410
100
AcDbEntity
  8
0
100
AcDbBlockEnd
  0
BLOCK
  5
414
100
AcDbEntity
  8
0
100
AcDbBlockBegin
  2
CLUMP84
 70
         0
 10
0.0
 20
0.0
 30
0.0
  3

  1

  0
INSERT
  5
416
100
AcDbEntity
  8
0
100
AcDbBlockReference
  2
CLUMP85
 10
0.0
 20
0.0
 30
0.0
  0
ENDBLK
  5
41D
100
AcDbEntity
  8
0
100
AcDbBlockEnd
  0
BLOCK
  5
417
100
AcDbEntity
  8
0
100
AcDbBlockBegin
  2
CLUMP85
 70
         0
 10
0.0
 20
0.0
 30
0.0
  3

  1

  0
LINE
  5
418
100
AcDbEntity
  8
LAYER0
 62
         3
100
AcDbLine
 10
-29.9926006521
 20
39.5440187719
 30
0.0
 11
-30.8648722532
 21
38.9563356008
 31
0.0
  0
LINE
  5
419
100
AcDbEntity
  8
LAYER0
 62
         3
100
AcDbLine
 10
-30.8648722532
 20
38.9563356008
 30
0.0
 11
-31.4004959268
 21
38.5577357759
 31
0.0
  0
LINE
  5
41A
100
AcDbEntity
  8
LAYER0
 62
         3
100
AcDbLine
 10
-31.4004959268
 20
38.5577357759
 30
0.0
 11
-31.9229804265
 21
38.1414730515
 31
0.0
  0
LINE
  5
41B
100
AcDbEntity
  8
LAYER0
 62
         3
100
AcDbLine
 10
-31.9229804265
 20
38.1414730515
 30
0.0
 11
-32.9500294577
 21
37.2833598819
 31
0.0
  0
ENDBLK
  5
41C
100
AcDbEntity
  8
0
100
AcDbBlockEnd
  0
BLOCK
  5
420
100
AcDbEntity
  8
0
100
AcDbBlockBegin
  2
CLUMP86
 70
         0
 10
0.0
 20
0.0
 30
0.0
  3

  1

  0
INSERT
  5
422
100
AcDbEntity
  8
0
100
AcDbBlockReference
  2
CLUMP87
 10
0.0
 20
0.0
 30
0.0
  0
ENDBLK
  5
431
100
AcDbEntity
  8
0
100
AcDbBlockEnd
  0
BLOCK
  5
423
100
AcDbEntity
  8
0
100
AcDbBlockBegin
  2
CLUMP87
 70
         0
 10
0.0
 20
0.0
 30
0.0
  3

  1

  0
LINE
  5
424
100
AcDbEntity
  8
LAYER0
 62
         3
100
AcDbLine
 10
-25.4924571893
 20
47.0904659893
 30
0.0
 11
-25.4984227761
 21
47.2042214539
 31
0.0
  0
LINE
  5
425
100
AcDbEntity
  8
LAYER0
 62
         3
100
AcDbLine
 10
-25.4984227761
 20
47.2042214539
 30
0.0
 11
-25.5135285747
 21
47.3069950474
 31
0.0
  0
LINE
  5
426
100
AcDbEntity
  8
LAYER0
 62
         3
100
AcDbLine
 10
-25.5135285747
 20
47.3069950474
 30
0.0
 11
-25.539007308
 21
47.4081309657
 31
0.0
  0
LINE
  5
427
100
AcDbEntity
  8
LAYER0
 62
         3
100
AcDbLine
 10
-25.539007308
 20
47.4081309657
 30
0.0
 11
-25.5738694379
 21
47.5065147461
 31
0.0
  0
LINE
  5
428
100
AcDbEntity
  8
LAYER0
 62
         3
100
AcDbLine
 10
-25.5738694379
 20
47.5065147461
 30
0.0
 11
-25.6171254262
 21
47.6010319259
 31
0.0
  0
LINE
  5
429
100
AcDbEntity
  8
LAYER0
 62
         3
100
AcDbLine
 10
-25.6171254262
 20
47.6010319259
 30
0.0
 11
-25.6423593785
 21
47.6481233206
 31
0.0
  0
LINE
  5
42A
100
AcDbEntity
  8
LAYER0
 62
         3
100
AcDbLine
 10
-25.6423593785
 20
47.6481233206
 30
0.0
 11
-25.7043772236
 21
47.7508004619
 31
0.0
  0
LINE
  5
42B
100
AcDbEntity
  8
LAYER0
 62
         3
100
AcDbLine
 10
-25.7043772236
 20
47.7508004619
 30
0.0
 11
-25.7749864762
 21
47.8483976591
 31
0.0
  0
LINE
  5
42C
100
AcDbEntity
  8
LAYER0
 62
         3
100
AcDbLine
 10
-25.7749864762
 20
47.8483976591
 30
0.0
 11
-25.8550803414
 21
47.9373740998
 31
0.0
  0
LINE
  5
42D
100
AcDbEntity
  8
LAYER0
 62
         3
100
AcDbLine
 10
-25.8550803414
 20
47.9373740998
 30
0.0
 11
-25.9455520247
 21
48.0141889717
 31
0.0
  0
LINE
  5
42E
100
AcDbEntity
  8
LAYER0
 62
         3
100
AcDbLine
 10
-25.9455520247
 20
48.0141889717
 30
0.0
 11
-26.0139789041
 21
48.0590541772
 31
0.0
  0
LINE
  5
42F
100
AcDbEntity
  8
LAYER0
 62
         3
100
AcDbLine
 10
-26.0139789041
 20
48.0590541772
 30
0.0
 11
-26.085087313
 21
48.100183573
 31
0.0
  0
ENDBLK
  5
430
100
AcDbEntity
  8
0
100
AcDbBlockEnd
  0
BLOCK
  5
434
100
AcDbEntity
  8
0
100
AcDbBlockBegin
  2
CLUMP88
 70
         0
 10
0.0
 20
0.0
 30
0.0
  3

  1

  0
INSERT
  5
436
100
AcDbEntity
  8
0
100
AcDbBlockReference
  2
CLUMP89
 10
0.0
 20
0.0
 30
0.0
  0
ENDBLK
  5
442
100
AcDbEntity
  8
0
100
AcDbBlockEnd
  0
BLOCK
  5
437
100
AcDbEntity
  8
0
100
AcDbBlockBegin
  2
CLUMP89
 70
         0
 10
0.0
 20
0.0
 30
0.0
  3

  1

  0
LINE
  5
438
100
AcDbEntity
  8
LAYER1
 62
         3
100
AcDbLine
 10
-18.1999916497
 20
56.5266635683
 30
0.0
 11
-18.1996517169
 21
56.5089237358
 31
0.0
  0
LINE
  5
439
100
AcDbEntity
  8
LAYER1
 62
         3
100
AcDbLine
 10
-18.1996517169
 20
56.5089237358
 30
0.0
 11
-18.1986440259
 21
56.456248131
 31
0.0
  0
LINE
  5
43A
100
AcDbEntity
  8
LAYER1
 62
         3
100
AcDbLine
 10
-18.1986440259
 20
56.456248131
 30
0.0
 11
-18.1969983789
 21
56.3702349033
 31
0.0
  0
LINE
  5
43B
100
AcDbEntity
  8
LAYER1
 62
         3
100
AcDbLine
 10
-18.1969983789
 20
56.3702349033
 30
0.0
 11
-18.1947650674
 21
56.2534992065
 31
0.0
  0
LINE
  5
43C
100
AcDbEntity
  8
LAYER1
 62
         3
100
AcDbLine
 10
-18.1947650674
 20
56.2534992065
 30
0.0
 11
-18.1920120779
 21
56.1095837917
 31
0.0
  0
LINE
  5
43D
100
AcDbEntity
  8
LAYER1
 62
         3
100
AcDbLine
 10
-18.1920120779
 20
56.1095837917
 30
0.0
 11
-18.1888232294
 21
55.942865875
 31
0.0
  0
LINE
  5
43E
100
AcDbEntity
  8
LAYER1
 62
         3
100
AcDbLine
 10
-18.1888232294
 20
55.942865875
 30
0.0
 11
-18.1852944481
 21
55.7584081259
 31
0.0
  0
LINE
  5
43F
100
AcDbEntity
  8
LAYER1
 62
         3
100
AcDbLine
 10
-18.1852944481
 20
55.7584081259
 30
0.0
 11
-18.1815337676
 21
55.5618171062
 31
0.0
  0
LINE
  5
440
100
AcDbEntity
  8
LAYER1
 62
         3
100
AcDbLine
 10
-18.1815337676
 20
55.5618171062
 30
0.0
 11
-18.1776548091
 21
55.3590681817
 31
0.0
  0
ENDBLK
  5
441
100
AcDbEntity
  8
0
100
AcDbBlockEnd
  0
BLOCK
  5
445
100
AcDbEntity
  8
0
100
AcDbBlockBegin
  2
CLUMP90
 70
         0
 10
0.0
 20
0.0
 30
0.0
  3

  1

  0
INSERT
  5
447
100
AcDbEntity
  8
0
100
AcDbBlockReference
  2
CLUMP91
 10
0.0
 20
0.0
 30
0.0
  0
ENDBLK
  5
452
100
AcDbEntity
  8
0
100
AcDbBlockEnd
  0
BLOCK
  5
448
100
AcDbEntity
  8
0
100
AcDbBlockBegin
  2
CLUMP91
 70
         0
 10
0.0
 20
0.0
 30
0.0
  3

  1

  0
LINE
  5
449
100
AcDbEntity
  8
LAYER1
 62
         3
100
AcDbLine
 10
-30.1979905746
 20
39.8975748982
 30
0.0
 11
-30.1680010564
 21
39.8459498253
 31
0.0
  0
LINE
  5
44A
100
AcDbEntity
  8
LAYER1
 62
         3
100
AcDbLine
 10
-30.1680010564
 20
39.8459498253
 30
0.0
 11
-30.138440645
 21
39.7950660851
 31
0.0
  0
LINE
  5
44B
100
AcDbEntity
  8
LAYER1
 62
         3
100
AcDbLine
 10
-30.138440645
 20
39.7950660851
 30
0.0
 11
-30.109732161
 21
39.745646384
 31
0.0
  0
LINE
  5
44C
100
AcDbEntity
  8
LAYER1
 62
         3
100
AcDbLine
 10
-30.109732161
 20
39.745646384
 30
0.0
 11
-30.0822867832
 21
39.6984022524
 31
0.0
  0
LINE
  5
44D
100
AcDbEntity
  8
LAYER1
 62
         3
100
AcDbLine
 10
-30.0822867832
 20
39.6984022524
 30
0.0
 11
-30.0564968313
 21
39.6540079679
 31
0.0
  0
LINE
  5
44E
100
AcDbEntity
  8
LAYER1
 62
         3
100
AcDbLine
 10
-30.0564968313
 20
39.6540079679
 30
0.0
 11
-30.0327315747
 21
39.6131005552
 31
0.0
  0
LINE
  5
44F
100
AcDbEntity
  8
LAYER1
 62
         3
100
AcDbLine
 10
-30.0327315747
 20
39.6131005552
 30
0.0
 11
-30.0113307132
 21
39.5762611594
 31
0.0
  0
LINE
  5
450
100
AcDbEntity
  8
LAYER1
 62
         3
100
AcDbLine
 10
-30.0113307132
 20
39.5762611594
 30
0.0
 11
-29.9926006521
 21
39.5440187719
 31
0.0
  0
ENDBLK
  5
451
100
AcDbEntity
  8
0
100
AcDbBlockEnd
  0
BLOCK
  5
455
100
AcDbEntity
  8
0
100
AcDbBlockBegin
  2
CLUMP92
 70
         0
 10
0.0
 20
0.0
 30
0.0
  3

  1

  0
INSERT
  5
457
100
AcDbEntity
  8
0
100
AcDbBlockReference
  2
CLUMP93
 10
0.0
 20
0.0
 30
0.0
  0
ENDBLK
  5
462
100
AcDbEntity
  8
0
100
AcDbBlockEnd
  0
BLOCK
  5
458
100
AcDbEntity
  8
0
100
AcDbBlockBegin
  2
CLUMP93
 70
         0
 10
0.0
 20
0.0
 30
0.0
  3

  1

  0
LINE
  5
459
100
AcDbEntity
  8
LAYER1
 62
         3
100
AcDbLine
 10
-33.2490687545
 20
37.6369122829
 30
0.0
 11
-33.2014548878
 21
37.5806194212
 31
0.0
  0
LINE
  5
45A
100
AcDbEntity
  8
LAYER1
 62
         3
100
AcDbLine
 10
-33.2014548878
 20
37.5806194212
 30
0.0
 11
-33.1548822398
 21
37.5255559053
 31
0.0
  0
LINE
  5
45B
100
AcDbEntity
  8
LAYER1
 62
         3
100
AcDbLine
 10
-33.1548822398
 20
37.5255559053
 30
0.0
 11
-33.1103687461
 21
37.4729287293
 31
0.0
  0
LINE
  5
45C
100
AcDbEntity
  8
LAYER1
 62
         3
100
AcDbLine
 10
-33.1103687461
 20
37.4729287293
 30
0.0
 11
-33.0688876386
 21
37.4238852825
 31
0.0
  0
LINE
  5
45D
100
AcDbEntity
  8
LAYER1
 62
         3
100
AcDbLine
 10
-33.0688876386
 20
37.4238852825
 30
0.0
 11
-33.0313460256
 21
37.3794984486
 31
0.0
  0
LINE
  5
45E
100
AcDbEntity
  8
LAYER1
 62
         3
100
AcDbLine
 10
-33.0313460256
 20
37.3794984486
 30
0.0
 11
-32.9985644023
 21
37.3407442536
 31
0.0
  0
LINE
  5
45F
100
AcDbEntity
  8
LAYER1
 62
         3
100
AcDbLine
 10
-32.9985644023
 20
37.3407442536
 30
0.0
 11
-32.9712598871
 21
37.3084608879
 31
0.0
  0
LINE
  5
460
100
AcDbEntity
  8
LAYER1
 62
         3
100
AcDbLine
 10
-32.9712598871
 20
37.3084608879
 30
0.0
 11
-32.9500294577
 21
37.2833598819
 31
0.0
  0
ENDBLK
  5
461
100
AcDbEntity
  8
0
100
AcDbBlockEnd
  0
BLOCK
  5
465
100
AcDbEntity
  8
0
100
AcDbBlockBegin
  2
CLUMP94
 70
         0
 10
0.0
 20
0.0
 30
0.0
  3

  1

  0
INSERT
  5
467
100
AcDbEntity
  8
0
100
AcDbBlockReference
  2
CLUMP95
 10
0.0
 20
0.0
 30
0.0
  0
ENDBLK
  5
473
100
AcDbEntity
  8
0
100
AcDbBlockEnd
  0
BLOCK
  5
468
100
AcDbEntity
  8
0
100
AcDbBlockBegin
  2
CLUMP95
 70
         0
 10
0.0
 20
0.0
 30
0.0
  3

  1

  0
LINE
  5
469
100
AcDbEntity
  8
LAYER0
 62
         3
100
AcDbLine
 10
-33.7621692854
 20
36.5762550797
 30
0.0
 11
-33.7546923149
 21
36.6925040488
 31
0.0
  0
LINE
  5
46A
100
AcDbEntity
  8
LAYER0
 62
         3
100
AcDbLine
 10
-33.7546923149
 20
36.6925040488
 30
0.0
 11
-33.7413225609
 21
36.8082251813
 31
0.0
  0
LINE
  5
46B
100
AcDbEntity
  8
LAYER0
 62
         3
100
AcDbLine
 10
-33.7413225609
 20
36.8082251813
 30
0.0
 11
-33.7156781866
 21
36.9286544956
 31
0.0
  0
LINE
  5
46C
100
AcDbEntity
  8
LAYER0
 62
         3
100
AcDbLine
 10
-33.7156781866
 20
36.9286544956
 30
0.0
 11
-33.6776595336
 21
37.0462556593
 31
0.0
  0
LINE
  5
46D
100
AcDbEntity
  8
LAYER0
 62
         3
100
AcDbLine
 10
-33.6776595336
 20
37.0462556593
 30
0.0
 11
-33.6279385354
 21
37.159369115
 31
0.0
  0
LINE
  5
46E
100
AcDbEntity
  8
LAYER0
 62
         3
100
AcDbLine
 10
-33.6279385354
 20
37.159369115
 30
0.0
 11
-33.5671871255
 21
37.2663353052
 31
0.0
  0
LINE
  5
46F
100
AcDbEntity
  8
LAYER0
 62
         3
100
AcDbLine
 10
-33.5671871255
 20
37.2663353052
 30
0.0
 11
-33.4966585055
 21
37.3657632681
 31
0.0
  0
LINE
  5
470
100
AcDbEntity
  8
LAYER0
 62
         3
100
AcDbLine
 10
-33.4966585055
 20
37.3657632681
 30
0.0
 11
-33.418414766
 21
37.4593766152
 31
0.0
  0
LINE
  5
471
100
AcDbEntity
  8
LAYER0
 62
         3
100
AcDbLine
 10
-33.418414766
 20
37.4593766152
 30
0.0
 11
-33.2490687545
 21
37.6369122829
 31
0.0
  0
ENDBLK
  5
472
100
AcDbEntity
  8
0
100
AcDbBlockEnd
  0
BLOCK
  5
476
100
AcDbEntity
  8
0
100
AcDbBlockBegin
  2
CLUMP96
 70
         0
 10
0.0
 20
0.0
 30
0.0
  3

  1

  0
INSERT
  5
478
100
AcDbEntity
  8
0
100
AcDbBlockReference
  2
CLUMP97
 10
0.0
 20
0.0
 30
0.0
  0
ENDBLK
  5
484
100
AcDbEntity
  8
0
100
AcDbBlockEnd
  0
BLOCK
  5
479
100
AcDbEntity
  8
0
100
AcDbBlockBegin
  2
CLUMP97
 70
         0
 10
0.0
 20
0.0
 30
0.0
  3

  1

  0
LINE
  5
47A
100
AcDbEntity
  8
LAYER0
 62
         3
100
AcDbLine
 10
-22.150913934
 20
37.6369122829
 30
0.0
 11
-22.0396718739
 21
37.5287717364
 31
0.0
  0
LINE
  5
47B
100
AcDbEntity
  8
LAYER0
 62
         3
100
AcDbLine
 10
-22.0396718739
 20
37.5287717364
 30
0.0
 11
-21.9350990194
 21
37.4141138461
 31
0.0
  0
LINE
  5
47C
100
AcDbEntity
  8
LAYER0
 62
         3
100
AcDbLine
 10
-21.9350990194
 20
37.4141138461
 30
0.0
 11
-21.8669062966
 21
37.3236421324
 31
0.0
  0
LINE
  5
47D
100
AcDbEntity
  8
LAYER0
 62
         3
100
AcDbLine
 10
-21.8669062966
 20
37.3236421324
 30
0.0
 11
-21.8068650596
 21
37.2272681539
 31
0.0
  0
LINE
  5
47E
100
AcDbEntity
  8
LAYER0
 62
         3
100
AcDbLine
 10
-21.8068650596
 20
37.2272681539
 30
0.0
 11
-21.7560944012
 21
37.125961907
 31
0.0
  0
LINE
  5
47F
100
AcDbEntity
  8
LAYER0
 62
         3
100
AcDbLine
 10
-21.7560944012
 20
37.125961907
 30
0.0
 11
-21.7157134141
 21
37.0206933882
 31
0.0
  0
LINE
  5
480
100
AcDbEntity
  8
LAYER0
 62
         3
100
AcDbLine
 10
-21.7157134141
 20
37.0206933882
 30
0.0
 11
-21.6861342905
 21
36.9122108797
 31
0.0
  0
LINE
  5
481
100
AcDbEntity
  8
LAYER0
 62
         3
100
AcDbLine
 10
-21.6861342905
 20
36.9122108797
 30
0.0
 11
-21.6652158419
 21
36.8014765981
 31
0.0
  0
LINE
  5
482
100
AcDbEntity
  8
LAYER0
 62
         3
100
AcDbLine
 10
-21.6652158419
 20
36.8014765981
 30
0.0
 11
-21.637813403
 21
36.5762550797
 31
0.0
  0
ENDBLK
  5
483
100
AcDbEntity
  8
0
100
AcDbBlockEnd
  0
BLOCK
  5
487
100
AcDbEntity
  8
0
100
AcDbBlockBegin
  2
CLUMP98
 70
         0
 10
0.0
 20
0.0
 30
0.0
  3

  1

  0
INSERT
  5
489
100
AcDbEntity
  8
0
100
AcDbBlockReference
  2
CLUMP99
 10
0.0
 20
0.0
 30
0.0
  0
ENDBLK
  5
494
100
AcDbEntity
  8
0
100
AcDbBlockEnd
  0
BLOCK
  5
48A
100
AcDbEntity
  8
0
100
AcDbBlockBegin
  2
CLUMP99
 70
         0
 10
0.0
 20
0.0
 30
0.0
  3

  1

  0
LINE
  5
48B
100
AcDbEntity
  8
LAYER0
 62
         3
100
AcDbLine
 10
-30.1979905746
 20
47.0904659893
 30
0.0
 11
-30.161208517
 21
47.3600882246
 31
0.0
  0
LINE
  5
48C
100
AcDbEntity
  8
LAYER0
 62
         3
100
AcDbLine
 10
-30.161208517
 20
47.3600882246
 30
0.0
 11
-30.1344057149
 21
47.4931003351
 31
0.0
  0
LINE
  5
48D
100
AcDbEntity
  8
LAYER0
 62
         3
100
AcDbLine
 10
-30.1344057149
 20
47.4931003351
 30
0.0
 11
-30.097508785
 21
47.6239536371
 31
0.0
  0
LINE
  5
48E
100
AcDbEntity
  8
LAYER0
 62
         3
100
AcDbLine
 10
-30.097508785
 20
47.6239536371
 30
0.0
 11
-30.0479066564
 21
47.7512122225
 31
0.0
  0
LINE
  5
48F
100
AcDbEntity
  8
LAYER0
 62
         3
100
AcDbLine
 10
-30.0479066564
 20
47.7512122225
 30
0.0
 11
-29.9850563267
 21
47.8728967225
 31
0.0
  0
LINE
  5
490
100
AcDbEntity
  8
LAYER0
 62
         3
100
AcDbLine
 10
-29.9850563267
 20
47.8728967225
 30
0.0
 11
-29.9090869368
 21
47.9862940336
 31
0.0
  0
LINE
  5
491
100
AcDbEntity
  8
LAYER0
 62
         3
100
AcDbLine
 10
-29.9090869368
 20
47.9862940336
 30
0.0
 11
-29.8201276275
 21
48.0886910524
 31
0.0
  0
LINE
  5
492
100
AcDbEntity
  8
LAYER0
 62
         3
100
AcDbLine
 10
-29.8201276275
 20
48.0886910524
 30
0.0
 11
-29.6869969281
 21
48.2072148886
 31
0.0
  0
ENDBLK
  5
493
100
AcDbEntity
  8
0
100
AcDbBlockEnd
  0
BLOCK
  5
497
100
AcDbEntity
  8
0
100
AcDbBlockBegin
  2
CLUMP100
 70
         0
 10
0.0
 20
0.0
 30
0.0
  3

  1

  0
INSERT
  5
499
100
AcDbEntity
  8
0
100
AcDbBlockReference
  2
CLUMP101
 10
0.0
 20
0.0
 30
0.0
  0
ENDBLK
  5
4A4
100
AcDbEntity
  8
0
100
AcDbBlockEnd
  0
BLOCK
  5
49A
100
AcDbEntity
  8
0
100
AcDbBlockBegin
  2
CLUMP101
 70
         0
 10
0.0
 20
0.0
 30
0.0
  3

  1

  0
LINE
  5
49B
100
AcDbEntity
  8
LAYER0
 62
         3
100
AcDbLine
 10
-25.713398569
 20
48.2262846496
 30
0.0
 11
-25.532549686
 21
48.0152063541
 31
0.0
  0
LINE
  5
49C
100
AcDbEntity
  8
LAYER0
 62
         3
100
AcDbLine
 10
-25.532549686
 20
48.0152063541
 30
0.0
 11
-25.4499728069
 21
47.9044829958
 31
0.0
  0
LINE
  5
49D
100
AcDbEntity
  8
LAYER0
 62
         3
100
AcDbLine
 10
-25.4499728069
 20
47.9044829958
 30
0.0
 11
-25.3768130026
 21
47.7875385847
 31
0.0
  0
LINE
  5
49E
100
AcDbEntity
  8
LAYER0
 62
         3
100
AcDbLine
 10
-25.3768130026
 20
47.7875385847
 30
0.0
 11
-25.3131185913
 21
47.6567791114
 31
0.0
  0
LINE
  5
49F
100
AcDbEntity
  8
LAYER0
 62
         3
100
AcDbLine
 10
-25.3131185913
 20
47.6567791114
 30
0.0
 11
-25.2636368516
 21
47.5191892148
 31
0.0
  0
LINE
  5
4A0
100
AcDbEntity
  8
LAYER0
 62
         3
100
AcDbLine
 10
-25.2636368516
 20
47.5191892148
 30
0.0
 11
-25.2287812265
 21
47.3770544369
 31
0.0
  0
LINE
  5
4A1
100
AcDbEntity
  8
LAYER0
 62
         3
100
AcDbLine
 10
-25.2287812265
 20
47.3770544369
 30
0.0
 11
-25.2089651588
 21
47.23266032
 31
0.0
  0
LINE
  5
4A2
100
AcDbEntity
  8
LAYER0
 62
         3
100
AcDbLine
 10
-25.2089651588
 20
47.23266032
 30
0.0
 11
-25.2019921138
 21
47.0904659893
 31
0.0
  0
ENDBLK
  5
4A3
100
AcDbEntity
  8
0
100
AcDbBlockEnd
  0
BLOCK
  5
4A7
100
AcDbEntity
  8
0
100
AcDbBlockBegin
  2
CLUMP102
 70
         0
 10
0.0
 20
0.0
 30
0.0
  3

  1

  0
INSERT
  5
4A9
100
AcDbEntity
  8
0
100
AcDbBlockReference
  2
CLUMP103
 10
0.0
 20
0.0
 30
0.0
  0
ENDBLK
  5
4BE
100
AcDbEntity
  8
0
100
AcDbBlockEnd
  0
BLOCK
  5
4AA
100
AcDbEntity
  8
0
100
AcDbBlockBegin
  2
CLUMP103
 70
         0
 10
0.0
 20
0.0
 30
0.0
  3

  1

  0
LINE
  5
4AB
100
AcDbEntity
  8
LAYER0
 62
         3
100
AcDbLine
 10
-17.9361870798
 20
53.4499425855
 30
0.0
 11
-17.9361889425
 21
53.4491006699
 31
0.0
  0
LINE
  5
4AC
100
AcDbEntity
  8
LAYER0
 62
         3
100
AcDbLine
 10
-17.9361889425
 20
53.4491006699
 30
0.0
 11
-17.9361930129
 21
53.4464712393
 31
0.0
  0
LINE
  5
4AD
100
AcDbEntity
  8
LAYER0
 62
         3
100
AcDbLine
 10
-17.9361930129
 20
53.4464712393
 30
0.0
 11
-17.9362010497
 21
53.4420226183
 31
0.0
  0
LINE
  5
4AE
100
AcDbEntity
  8
LAYER0
 62
         3
100
AcDbLine
 10
-17.9362010497
 20
53.4420226183
 30
0.0
 11
-17.936201981
 21
53.4415644076
 31
0.0
  0
LINE
  5
4AF
100
AcDbEntity
  8
LAYER0
 62
         3
100
AcDbLine
 10
-17.936201981
 20
53.4415644076
 30
0.0
 11
-17.9362133306
 21
53.4351421436
 31
0.0
  0
LINE
  5
4B0
100
AcDbEntity
  8
LAYER0
 62
         3
100
AcDbLine
 10
-17.9362133306
 20
53.4351421436
 30
0.0
 11
-17.9362261954
 21
53.4271736112
 31
0.0
  0
LINE
  5
4B1
100
AcDbEntity
  8
LAYER0
 62
         3
100
AcDbLine
 10
-17.9362261954
 20
53.4271736112
 30
0.0
 11
-17.9362418243
 21
53.4180188834
 31
0.0
  0
LINE
  5
4B2
100
AcDbEntity
  8
LAYER0
 62
         3
100
AcDbLine
 10
-17.9362418243
 20
53.4180188834
 30
0.0
 11
-17.936259723
 21
53.407884058
 31
0.0
  0
LINE
  5
4B3
100
AcDbEntity
  8
LAYER0
 62
         3
100
AcDbLine
 10
-17.936259723
 20
53.407884058
 30
0.0
 11
-17.9362979072
 21
53.386158165
 31
0.0
  0
LINE
  5
4B4
100
AcDbEntity
  8
LAYER0
 62
         3
100
AcDbLine
 10
-17.9362979072
 20
53.386158165
 30
0.0
 11
-17.9363351601
 21
53.3645440307
 31
0.0
  0
LINE
  5
4B5
100
AcDbEntity
  8
LAYER0
 62
         3
100
AcDbLine
 10
-17.9363351601
 20
53.3645440307
 30
0.0
 11
-17.9363525669
 21
53.3545469203
 31
0.0
  0
LINE
  5
4B6
100
AcDbEntity
  8
LAYER0
 62
         3
100
AcDbLine
 10
-17.9363525669
 20
53.3545469203
 30
0.0
 11
-17.9363686877
 21
53.3453699615
 31
0.0
  0
LINE
  5
4B7
100
AcDbEntity
  8
LAYER0
 62
         3
100
AcDbLine
 10
-17.9363686877
 20
53.3453699615
 30
0.0
 11
-17.9363828059
 21
53.3373559653
 31
0.0
  0
LINE
  5
4B8
100
AcDbEntity
  8
LAYER0
 62
         3
100
AcDbLine
 10
-17.9363828059
 20
53.3373559653
 30
0.0
 11
-17.9363947648
 21
53.3305507567
 31
0.0
  0
LINE
  5
4B9
100
AcDbEntity
  8
LAYER0
 62
         3
100
AcDbLine
 10
-17.9363947648
 20
53.3305507567
 30
0.0
 11
-17.9364041716
 21
53.3251604347
 31
0.0
  0
LINE
  5
4BA
100
AcDbEntity
  8
LAYER0
 62
         3
100
AcDbLine
 10
-17.9364041716
 20
53.3251604347
 30
0.0
 11
-17.9364105973
 21
53.3214908507
 31
0.0
  0
LINE
  5
4BB
100
AcDbEntity
  8
LAYER0
 62
         3
100
AcDbLine
 10
-17.9364105973
 20
53.3214908507
 30
0.0
 11
-17.936413566
 21
53.3198556358
 31
0.0
  0
LINE
  5
4BC
100
AcDbEntity
  8
LAYER0
 62
         3
100
AcDbLine
 10
-17.936413566
 20
53.3198556358
 30
0.0
 11
-17.9364152539
 21
53.3189874556
 31
0.0
  0
ENDBLK
  5
4BD
100
AcDbEntity
  8
0
100
AcDbBlockEnd
  0
BLOCK
  5
4C1
100
AcDbEntity
  8
0
100
AcDbBlockBegin
  2
CLUMP104
 70
         0
 10
0.0
 20
0.0
 30
0.0
  3

  1

  0
INSERT
  5
4C3
100
AcDbEntity
  8
0
100
AcDbBlockReference
  2
CLUMP105
 10
0.0
 20
0.0
 30
0.0
  0
ENDBLK
  5
4D9
100
AcDbEntity
  8
0
100
AcDbBlockEnd
  0
BLOCK
  5
4C4
100
AcDbEntity
  8
0
100
AcDbBlockBegin
  2
CLUMP105
 70
         0
 10
0.0
 20
0.0
 30
0.0
  3

  1

  0
LINE
  5
4C5
100
AcDbEntity
  8
LAYER0
 62
         3
100
AcDbLine
 10
-17.5577562588
 20
33.449924406
 30
0.0
 11
-17.5577584511
 21
33.4485538515
 31
0.0
  0
LINE
  5
4C6
100
AcDbEntity
  8
LAYER0
 62
         3
100
AcDbLine
 10
-17.5577584511
 20
33.4485538515
 30
0.0
 11
-17.5577627781
 21
33.4459681477
 31
0.0
  0
LINE
  5
4C7
100
AcDbEntity
  8
LAYER0
 62
         3
100
AcDbLine
 10
-17.5577627781
 20
33.4459681477
 30
0.0
 11
-17.5577663401
 21
33.4438800072
 31
0.0
  0
LINE
  5
4C8
100
AcDbEntity
  8
LAYER0
 62
         3
100
AcDbLine
 10
-17.5577663401
 20
33.4438800072
 30
0.0
 11
-17.5577708587
 21
33.4412516496
 31
0.0
  0
LINE
  5
4C9
100
AcDbEntity
  8
LAYER0
 62
         3
100
AcDbLine
 10
-17.5577708587
 20
33.4412516496
 30
0.0
 11
-17.5577823359
 21
33.4346358147
 31
0.0
  0
LINE
  5
4CA
100
AcDbEntity
  8
LAYER0
 62
         3
100
AcDbLine
 10
-17.5577823359
 20
33.4346358147
 30
0.0
 11
-17.5577962711
 21
33.4266579256
 31
0.0
  0
LINE
  5
4CB
100
AcDbEntity
  8
LAYER0
 62
         3
100
AcDbLine
 10
-17.5577962711
 20
33.4266579256
 30
0.0
 11
-17.5578121382
 21
33.417495754
 31
0.0
  0
LINE
  5
4CC
100
AcDbEntity
  8
LAYER0
 62
         3
100
AcDbLine
 10
-17.5578121382
 20
33.417495754
 30
0.0
 11
-17.5578292643
 21
33.4074449656
 31
0.0
  0
LINE
  5
4CD
100
AcDbEntity
  8
LAYER0
 62
         3
100
AcDbLine
 10
-17.5578292643
 20
33.4074449656
 30
0.0
 11
-17.5578475284
 21
33.3967235353
 31
0.0
  0
LINE
  5
4CE
100
AcDbEntity
  8
LAYER0
 62
         3
100
AcDbLine
 10
-17.5578475284
 20
33.3967235353
 30
0.0
 11
-17.5578857127
 21
33.3747592237
 31
0.0
  0
LINE
  5
4CF
100
AcDbEntity
  8
LAYER0
 62
         3
100
AcDbLine
 10
-17.5578857127
 20
33.3747592237
 30
0.0
 11
-17.5579044122
 21
33.3641355731
 31
0.0
  0
LINE
  5
4D0
100
AcDbEntity
  8
LAYER0
 62
         3
100
AcDbLine
 10
-17.5579044122
 20
33.3641355731
 30
0.0
 11
-17.5579220343
 21
33.3540689614
 31
0.0
  0
LINE
  5
4D1
100
AcDbEntity
  8
LAYER0
 62
         3
100
AcDbLine
 10
-17.5579220343
 20
33.3540689614
 30
0.0
 11
-17.5579378188
 21
33.3449235642
 31
0.0
  0
LINE
  5
4D2
100
AcDbEntity
  8
LAYER0
 62
         3
100
AcDbLine
 10
-17.5579378188
 20
33.3449235642
 30
0.0
 11
-17.5579518366
 21
33.3368581202
 31
0.0
  0
LINE
  5
4D3
100
AcDbEntity
  8
LAYER0
 62
         3
100
AcDbLine
 10
-17.5579518366
 20
33.3368581202
 30
0.0
 11
-17.5579638545
 21
33.3301584716
 31
0.0
  0
LINE
  5
4D4
100
AcDbEntity
  8
LAYER0
 62
         3
100
AcDbLine
 10
-17.5579638545
 20
33.3301584716
 30
0.0
 11
-17.557973257
 21
33.3248924878
 31
0.0
  0
LINE
  5
4D5
100
AcDbEntity
  8
LAYER0
 62
         3
100
AcDbLine
 10
-17.557973257
 20
33.3248924878
 30
0.0
 11
-17.5579793556
 21
33.3212243103
 31
0.0
  0
LINE
  5
4D6
100
AcDbEntity
  8
LAYER0
 62
         3
100
AcDbLine
 10
-17.5579793556
 20
33.3212243103
 30
0.0
 11
-17.5579825702
 21
33.3193157282
 31
0.0
  0
LINE
  5
4D7
100
AcDbEntity
  8
LAYER0
 62
         3
100
AcDbLine
 10
-17.5579825702
 20
33.3193157282
 30
0.0
 11
-17.5579835015
 21
33.3189767268
 31
0.0
  0
ENDBLK
  5
4D8
100
AcDbEntity
  8
0
100
AcDbBlockEnd
  0
BLOCK
  5
4DC
100
AcDbEntity
  8
0
100
AcDbBlockBegin
  2
CLUMP106
 70
         0
 10
0.0
 20
0.0
 30
0.0
  3

  1

  0
INSERT
  5
4DE
100
AcDbEntity
  8
0
100
AcDbBlockReference
  2
CLUMP107
 10
0.0
 20
0.0
 30
0.0
  0
ENDBLK
  5
4E3
100
AcDbEntity
  8
0
100
AcDbBlockEnd
  0
BLOCK
  5
4DF
100
AcDbEntity
  8
0
100
AcDbBlockBegin
  2
CLUMP107
 70
         0
 10
0.0
 20
0.0
 30
0.0
  3

  1

  0
LINE
  5
4E0
100
AcDbEntity
  8
LAYER1
 62
         3
100
AcDbLine
 10
-25.1999914001
 20
11.1086972471
 30
0.0
 11
-25.230770447
 21
11.0255953338
 31
0.0
  0
LINE
  5
4E1
100
AcDbEntity
  8
LAYER1
 62
         3
100
AcDbLine
 10
-25.230770447
 20
11.0255953338
 30
0.0
 11
-25.269350019
 21
10.98443367
 31
0.0
  0
ENDBLK
  5
4E2
100
AcDbEntity
  8
0
100
AcDbBlockEnd
  0
BLOCK
  5
4E6
100
AcDbEntity
  8
0
100
AcDbBlockBegin
  2
CLUMP108
 70
         0
 10
0.0
 20
0.0
 30
0.0
  3

  1

  0
INSERT
  5
4E8
100
AcDbEntity
  8
0
100
AcDbBlockReference
  2
CLUMP109
 10
0.0
 20
0.0
 30
0.0
  0
ENDBLK
  5
4ED
100
AcDbEntity
  8
0
100
AcDbBlockEnd
  0
BLOCK
  5
4E9
100
AcDbEntity
  8
0
100
AcDbBlockBegin
  2
CLUMP109
 70
         0
 10
0.0
 20
0.0
 30
0.0
  3

  1

  0
LINE
  5
4EA
100
AcDbEntity
  8
LAYER1
 62
         3
100
AcDbLine
 10
-30.1405326284
 20
10.9935280349
 30
0.0
 11
-30.1692122414
 21
11.0255953338
 31
0.0
  0
LINE
  5
4EB
100
AcDbEntity
  8
LAYER1
 62
         3
100
AcDbLine
 10
-30.1692122414
 20
11.0255953338
 30
0.0
 11
-30.1999912883
 21
11.1086972471
 31
0.0
  0
ENDBLK
  5
4EC
100
AcDbEntity
  8
0
100
AcDbBlockEnd
  0
BLOCK
  5
4F0
100
AcDbEntity
  8
0
100
AcDbBlockBegin
  2
CLUMP110
 70
         0
 10
0.0
 20
0.0
 30
0.0
  3

  1

  0
INSERT
  5
4F2
100
AcDbEntity
  8
0
100
AcDbBlockReference
  2
CLUMP111
 10
0.0
 20
0.0
 30
0.0
  0
ENDBLK
  5
4FF
100
AcDbEntity
  8
0
100
AcDbBlockEnd
  0
BLOCK
  5
4F3
100
AcDbEntity
  8
0
100
AcDbBlockBegin
  2
CLUMP111
 70
         0
 10
0.0
 20
0.0
 30
0.0
  3

  1

  0
LINE
  5
4F4
100
AcDbEntity
  8
LAYER0
 62
         3
100
AcDbLine
 10
-29.3010568532
 20
48.1196929183
 30
0.0
 11
-29.4466932866
 21
48.0100920313
 31
0.0
  0
LINE
  5
4F5
100
AcDbEntity
  8
LAYER0
 62
         3
100
AcDbLine
 10
-29.4466932866
 20
48.0100920313
 30
0.0
 11
-29.5164771425
 21
47.9517147598
 31
0.0
  0
LINE
  5
4F6
100
AcDbEntity
  8
LAYER0
 62
         3
100
AcDbLine
 10
-29.5164771425
 20
47.9517147598
 30
0.0
 11
-29.5826197655
 21
47.8890452948
 31
0.0
  0
LINE
  5
4F7
100
AcDbEntity
  8
LAYER0
 62
         3
100
AcDbLine
 10
-29.5826197655
 20
47.8890452948
 30
0.0
 11
-29.6564012575
 21
47.8057777877
 31
0.0
  0
LINE
  5
4F8
100
AcDbEntity
  8
LAYER0
 62
         3
100
AcDbLine
 10
-29.6564012575
 20
47.8057777877
 30
0.0
 11
-29.7216924079
 21
47.7152656802
 31
0.0
  0
LINE
  5
4F9
100
AcDbEntity
  8
LAYER0
 62
         3
100
AcDbLine
 10
-29.7216924079
 20
47.7152656802
 30
0.0
 11
-29.777155346
 21
47.6186955244
 31
0.0
  0
LINE
  5
4FA
100
AcDbEntity
  8
LAYER0
 62
         3
100
AcDbLine
 10
-29.777155346
 20
47.6186955244
 30
0.0
 11
-29.8214522011
 21
47.5172538724
 31
0.0
  0
LINE
  5
4FB
100
AcDbEntity
  8
LAYER0
 62
         3
100
AcDbLine
 10
-29.8214522011
 20
47.5172538724
 30
0.0
 11
-29.8535857845
 21
47.413685243
 31
0.0
  0
LINE
  5
4FC
100
AcDbEntity
  8
LAYER0
 62
         3
100
AcDbLine
 10
-29.8535857845
 20
47.413685243
 30
0.0
 11
-29.8766205746
 21
47.3074351781
 31
0.0
  0
LINE
  5
4FD
100
AcDbEntity
  8
LAYER0
 62
         3
100
AcDbLine
 10
-29.8766205746
 20
47.3074351781
 30
0.0
 11
-29.9075254991
 21
47.0904659893
 31
0.0
  0
ENDBLK
  5
4FE
100
AcDbEntity
  8
0
100
AcDbBlockEnd
  0
BLOCK
  5
502
100
AcDbEntity
  8
0
100
AcDbBlockBegin
  2
CLUMP112
 70
         0
 10
0.0
 20
0.0
 30
0.0
  3

  1

  0
INSERT
  5
504
100
AcDbEntity
  8
0
100
AcDbBlockReference
  2
CLUMP113
 10
0.0
 20
0.0
 30
0.0
  0
ENDBLK
  5
50F
100
AcDbEntity
  8
0
100
AcDbBlockEnd
  0
BLOCK
  5
505
100
AcDbEntity
  8
0
100
AcDbBlockBegin
  2
CLUMP113
 70
         0
 10
0.0
 20
0.0
 30
0.0
  3

  1

  0
LINE
  5
506
100
AcDbEntity
  8
LAYER1
 62
         3
100
AcDbLine
 10
-25.4073820363
 20
39.5440187719
 30
0.0
 11
-25.3886519752
 21
39.5762611594
 31
0.0
  0
LINE
  5
507
100
AcDbEntity
  8
LAYER1
 62
         3
100
AcDbLine
 10
-25.3886519752
 20
39.5762611594
 30
0.0
 11
-25.3672511137
 21
39.6131005552
 31
0.0
  0
LINE
  5
508
100
AcDbEntity
  8
LAYER1
 62
         3
100
AcDbLine
 10
-25.3672511137
 20
39.6131005552
 30
0.0
 11
-25.3434858571
 21
39.6540079679
 31
0.0
  0
LINE
  5
509
100
AcDbEntity
  8
LAYER1
 62
         3
100
AcDbLine
 10
-25.3434858571
 20
39.6540079679
 30
0.0
 11
-25.3176959052
 21
39.6984022524
 31
0.0
  0
LINE
  5
50A
100
AcDbEntity
  8
LAYER1
 62
         3
100
AcDbLine
 10
-25.3176959052
 20
39.6984022524
 30
0.0
 11
-25.2902505274
 21
39.745646384
 31
0.0
  0
LINE
  5
50B
100
AcDbEntity
  8
LAYER1
 62
         3
100
AcDbLine
 10
-25.2902505274
 20
39.745646384
 30
0.0
 11
-25.2615420434
 21
39.7950660851
 31
0.0
  0
LINE
  5
50C
100
AcDbEntity
  8
LAYER1
 62
         3
100
AcDbLine
 10
-25.2615420434
 20
39.7950660851
 30
0.0
 11
-25.231981632
 21
39.8459498253
 31
0.0
  0
LINE
  5
50D
100
AcDbEntity
  8
LAYER1
 62
         3
100
AcDbLine
 10
-25.231981632
 20
39.8459498253
 30
0.0
 11
-25.2019921138
 21
39.8975748982
 31
0.0
  0
ENDBLK
  5
50E
100
AcDbEntity
  8
0
100
AcDbBlockEnd
  0
BLOCK
  5
512
100
AcDbEntity
  8
0
100
AcDbBlockBegin
  2
CLUMP114
 70
         0
 10
0.0
 20
0.0
 30
0.0
  3

  1

  0
INSERT
  5
514
100
AcDbEntity
  8
0
100
AcDbBlockReference
  2
CLUMP115
 10
0.0
 20
0.0
 30
0.0
  0
ENDBLK
  5
51B
100
AcDbEntity
  8
0
100
AcDbBlockEnd
  0
BLOCK
  5
515
100
AcDbEntity
  8
0
100
AcDbBlockBegin
  2
CLUMP115
 70
         0
 10
0.0
 20
0.0
 30
0.0
  3

  1

  0
LINE
  5
516
100
AcDbEntity
  8
LAYER0
 62
         3
100
AcDbLine
 10
-25.2019921138
 20
39.8975748982
 30
0.0
 11
-24.2883255526
 21
39.3098880019
 31
0.0
  0
LINE
  5
517
100
AcDbEntity
  8
LAYER0
 62
         3
100
AcDbLine
 10
-24.2883255526
 20
39.3098880019
 30
0.0
 11
-23.737976055
 21
38.9141788563
 31
0.0
  0
LINE
  5
518
100
AcDbEntity
  8
LAYER0
 62
         3
100
AcDbLine
 10
-23.737976055
 20
38.9141788563
 30
0.0
 11
-23.2021629165
 21
38.4984117415
 31
0.0
  0
LINE
  5
519
100
AcDbEntity
  8
LAYER0
 62
         3
100
AcDbLine
 10
-23.2021629165
 20
38.4984117415
 30
0.0
 11
-22.150913934
 21
37.6369122829
 31
0.0
  0
ENDBLK
  5
51A
100
AcDbEntity
  8
0
100
AcDbBlockEnd
  0
BLOCK
  5
51E
100
AcDbEntity
  8
0
100
AcDbBlockBegin
  2
CLUMP116
 70
         0
 10
0.0
 20
0.0
 30
0.0
  3

  1

  0
INSERT
  5
520
100
AcDbEntity
  8
0
100
AcDbBlockReference
  2
CLUMP117
 10
0.0
 20
0.0
 30
0.0
  0
ENDBLK
  5
52B
100
AcDbEntity
  8
0
100
AcDbBlockEnd
  0
BLOCK
  5
521
100
AcDbEntity
  8
0
100
AcDbBlockBegin
  2
CLUMP117
 70
         0
 10
0.0
 20
0.0
 30
0.0
  3

  1

  0
LINE
  5
522
100
AcDbEntity
  8
LAYER1
 62
         3
100
AcDbLine
 10
-22.4499532308
 20
37.2833598819
 30
0.0
 11
-22.4287228013
 21
37.3084608879
 31
0.0
  0
LINE
  5
523
100
AcDbEntity
  8
LAYER1
 62
         3
100
AcDbLine
 10
-22.4287228013
 20
37.3084608879
 30
0.0
 11
-22.4014182861
 21
37.3407442536
 31
0.0
  0
LINE
  5
524
100
AcDbEntity
  8
LAYER1
 62
         3
100
AcDbLine
 10
-22.4014182861
 20
37.3407442536
 30
0.0
 11
-22.3686366628
 21
37.3794984486
 31
0.0
  0
LINE
  5
525
100
AcDbEntity
  8
LAYER1
 62
         3
100
AcDbLine
 10
-22.3686366628
 20
37.3794984486
 30
0.0
 11
-22.3310950498
 21
37.4238852825
 31
0.0
  0
LINE
  5
526
100
AcDbEntity
  8
LAYER1
 62
         3
100
AcDbLine
 10
-22.3310950498
 20
37.4238852825
 30
0.0
 11
-22.2896139423
 21
37.4729287293
 31
0.0
  0
LINE
  5
527
100
AcDbEntity
  8
LAYER1
 62
         3
100
AcDbLine
 10
-22.2896139423
 20
37.4729287293
 30
0.0
 11
-22.2451004486
 21
37.5255559053
 31
0.0
  0
LINE
  5
528
100
AcDbEntity
  8
LAYER1
 62
         3
100
AcDbLine
 10
-22.2451004486
 20
37.5255559053
 30
0.0
 11
-22.1985278006
 21
37.5806194212
 31
0.0
  0
LINE
  5
529
100
AcDbEntity
  8
LAYER1
 62
         3
100
AcDbLine
 10
-22.1985278006
 20
37.5806194212
 30
0.0
 11
-22.150913934
 21
37.6369122829
 31
0.0
  0
ENDBLK
  5
52A
100
AcDbEntity
  8
0
100
AcDbBlockEnd
  0
BLOCK
  5
52E
100
AcDbEntity
  8
0
100
AcDbBlockBegin
  2
CLUMP118
 70
         0
 10
0.0
 20
0.0
 30
0.0
  3

  1

  0
INSERT
  5
530
100
AcDbEntity
  8
0
100
AcDbBlockReference
  2
CLUMP119
 10
0.0
 20
0.0
 30
0.0
  0
ENDBLK
  5
537
100
AcDbEntity
  8
0
100
AcDbBlockEnd
  0
BLOCK
  5
531
100
AcDbEntity
  8
0
100
AcDbBlockBegin
  2
CLUMP119
 70
         0
 10
0.0
 20
0.0
 30
0.0
  3

  1

  0
LINE
  5
532
100
AcDbEntity
  8
LAYER0
 62
         3
100
AcDbLine
 10
-33.2490687545
 20
37.6369122829
 30
0.0
 11
-32.2000363196
 21
38.496660855
 31
0.0
  0
LINE
  5
533
100
AcDbEntity
  8
LAYER0
 62
         3
100
AcDbLine
 10
-32.2000363196
 20
38.496660855
 30
0.0
 11
-31.6631402994
 21
38.9133376377
 31
0.0
  0
LINE
  5
534
100
AcDbEntity
  8
LAYER0
 62
         3
100
AcDbLine
 10
-31.6631402994
 20
38.9133376377
 30
0.0
 11
-31.1116571359
 21
39.3098880019
 31
0.0
  0
LINE
  5
535
100
AcDbEntity
  8
LAYER0
 62
         3
100
AcDbLine
 10
-31.1116571359
 20
39.3098880019
 30
0.0
 11
-30.1979905746
 21
39.8975748982
 31
0.0
  0
ENDBLK
  5
536
100
AcDbEntity
  8
0
100
AcDbBlockEnd
  0
BLOCK
  5
53A
100
AcDbEntity
  8
0
100
AcDbBlockBegin
  2
CLUMP120
 70
         0
 10
0.0
 20
0.0
 30
0.0
  3

  1

  0
INSERT
  5
53C
100
AcDbEntity
  8
0
100
AcDbBlockReference
  2
CLUMP121
 10
0.0
 20
0.0
 30
0.0
  0
ENDBLK
  5
550
100
AcDbEntity
  8
0
100
AcDbBlockEnd
  0
BLOCK
  5
53D
100
AcDbEntity
  8
0
100
AcDbBlockBegin
  2
CLUMP121
 70
         0
 10
0.0
 20
0.0
 30
0.0
  3

  1

  0
LINE
  5
53E
100
AcDbEntity
  8
LAYER0
 62
         3
100
AcDbLine
 10
-29.9912791054
 20
10.5931831937
 30
0.0
 11
-29.9990584837
 21
10.7462866284
 31
0.0
  0
LINE
  5
53F
100
AcDbEntity
  8
LAYER0
 62
         3
100
AcDbLine
 10
-29.9990584837
 20
10.7462866284
 30
0.0
 11
-30.0048482637
 21
10.8205003994
 31
0.0
  0
LINE
  5
540
100
AcDbEntity
  8
LAYER0
 62
         3
100
AcDbLine
 10
-30.0048482637
 20
10.8205003994
 30
0.0
 11
-30.0129181526
 21
10.8919086348
 31
0.0
  0
LINE
  5
541
100
AcDbEntity
  8
LAYER0
 62
         3
100
AcDbLine
 10
-30.0129181526
 20
10.8919086348
 30
0.0
 11
-30.0237577601
 21
10.9595346806
 31
0.0
  0
LINE
  5
542
100
AcDbEntity
  8
LAYER0
 62
         3
100
AcDbLine
 10
-30.0237577601
 20
10.9595346806
 30
0.0
 11
-30.036915354
 21
11.0230570832
 31
0.0
  0
LINE
  5
543
100
AcDbEntity
  8
LAYER0
 62
         3
100
AcDbLine
 10
-30.036915354
 20
11.0230570832
 30
0.0
 11
-30.0516811446
 21
11.0820976943
 31
0.0
  0
LINE
  5
544
100
AcDbEntity
  8
LAYER0
 62
         3
100
AcDbLine
 10
-30.0516811446
 20
11.0820976943
 30
0.0
 11
-30.0673453423
 21
11.1362783652
 31
0.0
  0
LINE
  5
545
100
AcDbEntity
  8
LAYER0
 62
         3
100
AcDbLine
 10
-30.0673453423
 20
11.1362783652
 30
0.0
 11
-30.084136421
 21
11.187762161
 31
0.0
  0
LINE
  5
546
100
AcDbEntity
  8
LAYER0
 62
         3
100
AcDbLine
 10
-30.084136421
 20
11.187762161
 30
0.0
 11
-30.1010585714
 21
11.2339373171
 31
0.0
  0
LINE
  5
547
100
AcDbEntity
  8
LAYER0
 62
         3
100
AcDbLine
 10
-30.1010585714
 20
11.2339373171
 30
0.0
 11
-30.1180341894
 21
11.2752903172
 31
0.0
  0
LINE
  5
548
100
AcDbEntity
  8
LAYER0
 62
         3
100
AcDbLine
 10
-30.1180341894
 20
11.2752903172
 30
0.0
 11
-30.1349856711
 21
11.312307645
 31
0.0
  0
LINE
  5
549
100
AcDbEntity
  8
LAYER0
 62
         3
100
AcDbLine
 10
-30.1349856711
 20
11.312307645
 30
0.0
 11
-30.1522314008
 21
11.3460455959
 31
0.0
  0
LINE
  5
54A
100
AcDbEntity
  8
LAYER0
 62
         3
100
AcDbLine
 10
-30.1522314008
 20
11.3460455959
 30
0.0
 11
-30.167760884
 21
11.3723143943
 31
0.0
  0
LINE
  5
54B
100
AcDbEntity
  8
LAYER0
 62
         3
100
AcDbLine
 10
-30.167760884
 20
11.3723143943
 30
0.0
 11
-30.1799676449
 21
11.3877978923
 31
0.0
  0
LINE
  5
54C
100
AcDbEntity
  8
LAYER0
 62
         3
100
AcDbLine
 10
-30.1799676449
 20
11.3877978923
 30
0.0
 11
-30.1843229808
 21
11.3904588573
 31
0.0
  0
LINE
  5
54D
100
AcDbEntity
  8
LAYER0
 62
         3
100
AcDbLine
 10
-30.1843229808
 20
11.3904588573
 30
0.0
 11
-30.1872452076
 21
11.3891799416
 31
0.0
  0
LINE
  5
54E
100
AcDbEntity
  8
LAYER0
 62
         3
100
AcDbLine
 10
-30.1872452076
 20
11.3891799416
 30
0.0
 11
-30.188985151
 21
11.3833601069
 31
0.0
  0
ENDBLK
  5
54F
100
AcDbEntity
  8
0
100
AcDbBlockEnd
  0
BLOCK
  5
553
100
AcDbEntity
  8
0
100
AcDbBlockBegin
  2
CLUMP122
 70
         0
 10
0.0
 20
0.0
 30
0.0
  3

  1

  0
INSERT
  5
555
100
AcDbEntity
  8
0
100
AcDbBlockReference
  2
CLUMP123
 10
0.0
 20
0.0
 30
0.0
  0
ENDBLK
  5
563
100
AcDbEntity
  8
0
100
AcDbBlockEnd
  0
BLOCK
  5
556
100
AcDbEntity
  8
0
100
AcDbBlockBegin
  2
CLUMP123
 70
         0
 10
0.0
 20
0.0
 30
0.0
  3

  1

  0
LINE
  5
557
100
AcDbEntity
  8
LAYER0
 62
         3
100
AcDbLine
 10
-30.1987505338
 20
11.3506976929
 30
0.0
 11
-30.187058054
 21
11.2906568856
 31
0.0
  0
LINE
  5
558
100
AcDbEntity
  8
LAYER0
 62
         3
100
AcDbLine
 10
-30.187058054
 20
11.2906568856
 30
0.0
 11
-30.1797009351
 21
11.2565682472
 31
0.0
  0
LINE
  5
559
100
AcDbEntity
  8
LAYER0
 62
         3
100
AcDbLine
 10
-30.1797009351
 20
11.2565682472
 30
0.0
 11
-30.1705307613
 21
11.2175977271
 31
0.0
  0
LINE
  5
55A
100
AcDbEntity
  8
LAYER0
 62
         3
100
AcDbLine
 10
-30.1705307613
 20
11.2175977271
 30
0.0
 11
-30.1589261914
 21
11.1717779866
 31
0.0
  0
LINE
  5
55B
100
AcDbEntity
  8
LAYER0
 62
         3
100
AcDbLine
 10
-30.1589261914
 20
11.1717779866
 30
0.0
 11
-30.1453127244
 21
11.1201206182
 31
0.0
  0
LINE
  5
55C
100
AcDbEntity
  8
LAYER0
 62
         3
100
AcDbLine
 10
-30.1453127244
 20
11.1201206182
 30
0.0
 11
-30.1301749319
 21
11.0635019775
 31
0.0
  0
LINE
  5
55D
100
AcDbEntity
  8
LAYER0
 62
         3
100
AcDbLine
 10
-30.1301749319
 20
11.0635019775
 30
0.0
 11
-30.1139973856
 21
11.0027984198
 31
0.0
  0
LINE
  5
55E
100
AcDbEntity
  8
LAYER0
 62
         3
100
AcDbLine
 10
-30.1139973856
 20
11.0027984198
 30
0.0
 11
-30.078451398
 21
10.8626400044
 31
0.0
  0
LINE
  5
55F
100
AcDbEntity
  8
LAYER0
 62
         3
100
AcDbLine
 10
-30.078451398
 20
10.8626400044
 30
0.0
 11
-30.0461510017
 21
10.7094057318
 31
0.0
  0
LINE
  5
560
100
AcDbEntity
  8
LAYER0
 62
         3
100
AcDbLine
 10
-30.0461510017
 20
10.7094057318
 30
0.0
 11
-30.0229878056
 21
10.5596596654
 31
0.0
  0
LINE
  5
561
100
AcDbEntity
  8
LAYER0
 62
         3
100
AcDbLine
 10
-30.0229878056
 20
10.5596596654
 30
0.0
 11
-30.0035965449
 21
10.4050700035
 31
0.0
  0
ENDBLK
  5
562
100
AcDbEntity
  8
0
100
AcDbBlockEnd
  0
BLOCK
  5
566
100
AcDbEntity
  8
0
100
AcDbBlockBegin
  2
CLUMP124
 70
         0
 10
0.0
 20
0.0
 30
0.0
  3

  1

  0
INSERT
  5
568
100
AcDbEntity
  8
0
100
AcDbBlockReference
  2
CLUMP125
 10
0.0
 20
0.0
 30
0.0
  0
ENDBLK
  5
578
100
AcDbEntity
  8
0
100
AcDbBlockEnd
  0
BLOCK
  5
569
100
AcDbEntity
  8
0
100
AcDbBlockBegin
  2
CLUMP125
 70
         0
 10
0.0
 20
0.0
 30
0.0
  3

  1

  0
LINE
  5
56A
100
AcDbEntity
  8
LAYER0
 62
         3
100
AcDbLine
 10
-30.1952792618
 20
9.4228282984
 30
0.0
 11
-30.1948853652
 21
9.4451854597
 31
0.0
  0
LINE
  5
56B
100
AcDbEntity
  8
LAYER0
 62
         3
100
AcDbLine
 10
-30.1948853652
 20
9.4451854597
 30
0.0
 11
-30.1911507088
 21
9.4756603655
 31
0.0
  0
LINE
  5
56C
100
AcDbEntity
  8
LAYER0
 62
         3
100
AcDbLine
 10
-30.1911507088
 20
9.4756603655
 30
0.0
 11
-30.1845749715
 21
9.5075929776
 31
0.0
  0
LINE
  5
56D
100
AcDbEntity
  8
LAYER0
 62
         3
100
AcDbLine
 10
-30.1845749715
 20
9.5075929776
 30
0.0
 11
-30.1749973743
 21
9.5471097749
 31
0.0
  0
LINE
  5
56E
100
AcDbEntity
  8
LAYER0
 62
         3
100
AcDbLine
 10
-30.1749973743
 20
9.5471097749
 30
0.0
 11
-30.1631071917
 21
9.5928258188
 31
0.0
  0
LINE
  5
56F
100
AcDbEntity
  8
LAYER0
 62
         3
100
AcDbLine
 10
-30.1631071917
 20
9.5928258188
 30
0.0
 11
-30.1495936985
 21
9.6433561709
 31
0.0
  0
LINE
  5
570
100
AcDbEntity
  8
LAYER0
 62
         3
100
AcDbLine
 10
-30.1495936985
 20
9.6433561709
 30
0.0
 11
-30.1184785985
 21
9.7604007766
 31
0.0
  0
LINE
  5
571
100
AcDbEntity
  8
LAYER0
 62
         3
100
AcDbLine
 10
-30.1184785985
 20
9.7604007766
 30
0.0
 11
-30.0855173084
 21
9.8919727322
 31
0.0
  0
LINE
  5
572
100
AcDbEntity
  8
LAYER0
 62
         3
100
AcDbLine
 10
-30.0855173084
 20
9.8919727322
 30
0.0
 11
-30.0512480927
 21
10.046405049
 31
0.0
  0
LINE
  5
573
100
AcDbEntity
  8
LAYER0
 62
         3
100
AcDbLine
 10
-30.0512480927
 20
10.046405049
 30
0.0
 11
-30.0216006401
 21
10.2122452524
 31
0.0
  0
LINE
  5
574
100
AcDbEntity
  8
LAYER0
 62
         3
100
AcDbLine
 10
-30.0216006401
 20
10.2122452524
 30
0.0
 11
-30.0020697732
 21
10.3688719673
 31
0.0
  0
LINE
  5
575
100
AcDbEntity
  8
LAYER0
 62
         3
100
AcDbLine
 10
-30.0020697732
 20
10.3688719673
 30
0.0
 11
-29.9922853994
 21
10.5262145814
 31
0.0
  0
LINE
  5
576
100
AcDbEntity
  8
LAYER0
 62
         3
100
AcDbLine
 10
-29.9922853994
 20
10.5262145814
 30
0.0
 11
-29.9912791054
 21
10.5931831937
 31
0.0
  0
ENDBLK
  5
577
100
AcDbEntity
  8
0
100
AcDbBlockEnd
  0
BLOCK
  5
593
100
AcDbEntity
  8
0
100
AcDbBlockBegin
  2
CLUMP126
 70
         0
 10
0.0
 20
0.0
 30
0.0
  3

  1

  0
INSERT
  5
595
100
AcDbEntity
  8
0
100
AcDbBlockReference
  2
CLUMP127
 10
0.0
 20
0.0
 30
0.0
  0
ENDBLK
  5
5AB
100
AcDbEntity
  8
0
100
AcDbBlockEnd
  0
BLOCK
  5
596
100
AcDbEntity
  8
0
100
AcDbBlockBegin
  2
CLUMP127
 70
         0
 10
0.0
 20
0.0
 30
0.0
  3

  1

  0
LINE
  5
597
100
AcDbEntity
  8
LAYER0
 62
         3
100
AcDbLine
 10
-37.8419991869
 20
33.3189767268
 30
0.0
 11
-37.8420019808
 21
33.3206084039
 31
0.0
  0
LINE
  5
598
100
AcDbEntity
  8
LAYER0
 62
         3
100
AcDbLine
 10
-37.8420019808
 20
33.3206084039
 30
0.0
 11
-37.8420074586
 21
33.323738998
 31
0.0
  0
LINE
  5
599
100
AcDbEntity
  8
LAYER0
 62
         3
100
AcDbLine
 10
-37.8420074586
 20
33.323738998
 30
0.0
 11
-37.8420159507
 21
33.3286066022
 31
0.0
  0
LINE
  5
59A
100
AcDbEntity
  8
LAYER0
 62
         3
100
AcDbLine
 10
-37.8420159507
 20
33.3286066022
 30
0.0
 11
-37.8420269277
 21
33.3349369522
 31
0.0
  0
LINE
  5
59B
100
AcDbEntity
  8
LAYER0
 62
         3
100
AcDbLine
 10
-37.8420269277
 20
33.3349369522
 30
0.0
 11
-37.8420401651
 21
33.3425429132
 31
0.0
  0
LINE
  5
59C
100
AcDbEntity
  8
LAYER0
 62
         3
100
AcDbLine
 10
-37.8420401651
 20
33.3425429132
 30
0.0
 11
-37.8420556673
 21
33.3513739322
 31
0.0
  0
LINE
  5
59D
100
AcDbEntity
  8
LAYER0
 62
         3
100
AcDbLine
 10
-37.8420556673
 20
33.3513739322
 30
0.0
 11
-37.8420727613
 21
33.3611060347
 31
0.0
  0
LINE
  5
59E
100
AcDbEntity
  8
LAYER0
 62
         3
100
AcDbLine
 10
-37.8420727613
 20
33.3611060347
 30
0.0
 11
-37.8421100143
 21
33.3824668493
 31
0.0
  0
LINE
  5
59F
100
AcDbEntity
  8
LAYER0
 62
         3
100
AcDbLine
 10
-37.8421100143
 20
33.3824668493
 30
0.0
 11
-37.8421481985
 21
33.4043492045
 31
0.0
  0
LINE
  5
5A0
100
AcDbEntity
  8
LAYER0
 62
         3
100
AcDbLine
 10
-37.8421481985
 20
33.4043492045
 30
0.0
 11
-37.8421662621
 21
33.4147161191
 31
0.0
  0
LINE
  5
5A1
100
AcDbEntity
  8
LAYER0
 62
         3
100
AcDbLine
 10
-37.8421662621
 20
33.4147161191
 30
0.0
 11
-37.8421826574
 21
33.4242273536
 31
0.0
  0
LINE
  5
5A2
100
AcDbEntity
  8
LAYER0
 62
         3
100
AcDbLine
 10
-37.8421826574
 20
33.4242273536
 30
0.0
 11
-37.8421969818
 21
33.432686793
 31
0.0
  0
LINE
  5
5A3
100
AcDbEntity
  8
LAYER0
 62
         3
100
AcDbLine
 10
-37.8421969818
 20
33.432686793
 30
0.0
 11
-37.8422087344
 21
33.4395904508
 31
0.0
  0
LINE
  5
5A4
100
AcDbEntity
  8
LAYER0
 62
         3
100
AcDbLine
 10
-37.8422087344
 20
33.4395904508
 30
0.0
 11
-37.842217708
 21
33.4446984298
 31
0.0
  0
LINE
  5
5A5
100
AcDbEntity
  8
LAYER0
 62
         3
100
AcDbLine
 10
-37.842217708
 20
33.4446984298
 30
0.0
 11
-37.8422236356
 21
33.4483746853
 31
0.0
  0
LINE
  5
5A6
100
AcDbEntity
  8
LAYER0
 62
         3
100
AcDbLine
 10
-37.8422236356
 20
33.4483746853
 30
0.0
 11
-37.8422257111
 21
33.4499689312
 31
0.0
  0
LINE
  5
5A7
100
AcDbEntity
  8
LAYER0
 62
         3
100
AcDbLine
 10
-37.8422257111
 20
33.4499689312
 30
0.0
 11
-37.8422262456
 21
33.4502387799
 31
0.0
  0
LINE
  5
5A8
100
AcDbEntity
  8
LAYER0
 62
         3
100
AcDbLine
 10
-37.8422262456
 20
33.4502387799
 30
0.0
 11
-37.8422264296
 21
33.4499430325
 31
0.0
  0
LINE
  5
5A9
100
AcDbEntity
  8
LAYER0
 62
         3
100
AcDbLine
 10
-37.8422264296
 20
33.4499430325
 30
0.0
 11
-37.8422264296
 21
33.4499169555
 31
0.0
  0
ENDBLK
  5
5AA
100
AcDbEntity
  8
0
100
AcDbBlockEnd
  0
BLOCK
  5
610
100
AcDbEntity
  8
0
100
AcDbBlockBegin
  2
CLUMP128
 70
         0
 10
0.0
 20
0.0
 30
0.0
  3

  1

  0
INSERT
  5
612
100
AcDbEntity
  8
0
100
AcDbBlockReference
  2
CLUMP129
 10
0.0
 20
0.0
 30
0.0
  0
ENDBLK
  5
629
100
AcDbEntity
  8
0
100
AcDbBlockEnd
  0
BLOCK
  5
613
100
AcDbEntity
  8
0
100
AcDbBlockBegin
  2
CLUMP129
 70
         0
 10
0.0
 20
0.0
 30
0.0
  3

  1

  0
LINE
  5
614
100
AcDbEntity
  8
LAYER1
 62
         3
100
AcDbLine
 10
-30.1999912883
 20
-4.5531288773
 30
0.0
 11
-30.1765424485
 21
-4.4805404317
 31
0.0
  0
LINE
  5
615
100
AcDbEntity
  8
LAYER1
 62
         3
100
AcDbLine
 10
-30.1765424485
 20
-4.4805404317
 30
0.0
 11
-30.0909958135
 21
-4.3979812466
 31
0.0
  0
LINE
  5
616
100
AcDbEntity
  8
LAYER1
 62
         3
100
AcDbLine
 10
-30.0909958135
 20
-4.3979812466
 30
0.0
 11
-29.9448997068
 21
-4.3193509621
 31
0.0
  0
LINE
  5
617
100
AcDbEntity
  8
LAYER1
 62
         3
100
AcDbLine
 10
-29.9448997068
 20
-4.3193509621
 30
0.0
 11
-29.7419542733
 21
-4.2466407461
 31
0.0
  0
LINE
  5
618
100
AcDbEntity
  8
LAYER1
 62
         3
100
AcDbLine
 10
-29.7419542733
 20
-4.2466407461
 30
0.0
 11
-29.4872987836
 21
-4.1816919396
 31
0.0
  0
LINE
  5
619
100
AcDbEntity
  8
LAYER1
 62
         3
100
AcDbLine
 10
-29.4872987836
 20
-4.1816919396
 30
0.0
 11
-29.1873818317
 21
-4.1261493746
 31
0.0
  0
LINE
  5
61A
100
AcDbEntity
  8
LAYER1
 62
         3
100
AcDbLine
 10
-29.1873818317
 20
-4.1261493746
 30
0.0
 11
-28.849798586
 21
-4.0814195812
 31
0.0
  0
LINE
  5
61B
100
AcDbEntity
  8
LAYER1
 62
         3
100
AcDbLine
 10
-28.849798586
 20
-4.0814195812
 30
0.0
 11
-28.4830978892
 21
-4.0486351639
 31
0.0
  0
LINE
  5
61C
100
AcDbEntity
  8
LAYER1
 62
         3
100
AcDbLine
 10
-28.4830978892
 20
-4.0486351639
 30
0.0
 11
-28.0965659879
 21
-4.0286263969
 31
0.0
  0
LINE
  5
61D
100
AcDbEntity
  8
LAYER1
 62
         3
100
AcDbLine
 10
-28.0965659879
 20
-4.0286263969
 30
0.0
 11
-27.6999913442
 21
-4.021900036
 31
0.0
  0
LINE
  5
61E
100
AcDbEntity
  8
LAYER1
 62
         3
100
AcDbLine
 10
-27.6999913442
 20
-4.021900036
 30
0.0
 11
-27.3034167005
 21
-4.0286263969
 31
0.0
  0
LINE
  5
61F
100
AcDbEntity
  8
LAYER1
 62
         3
100
AcDbLine
 10
-27.3034167005
 20
-4.0286263969
 30
0.0
 11
-26.9168847992
 21
-4.0486351639
 31
0.0
  0
LINE
  5
620
100
AcDbEntity
  8
LAYER1
 62
         3
100
AcDbLine
 10
-26.9168847992
 20
-4.0486351639
 30
0.0
 11
-26.5501841025
 21
-4.0814195812
 31
0.0
  0
LINE
  5
621
100
AcDbEntity
  8
LAYER1
 62
         3
100
AcDbLine
 10
-26.5501841025
 20
-4.0814195812
 30
0.0
 11
-26.2126008568
 21
-4.1261493746
 31
0.0
  0
LINE
  5
622
100
AcDbEntity
  8
LAYER1
 62
         3
100
AcDbLine
 10
-26.2126008568
 20
-4.1261493746
 30
0.0
 11
-25.9126839048
 21
-4.1816919396
 31
0.0
  0
LINE
  5
623
100
AcDbEntity
  8
LAYER1
 62
         3
100
AcDbLine
 10
-25.9126839048
 20
-4.1816919396
 30
0.0
 11
-25.6580284151
 21
-4.2466407461
 31
0.0
  0
LINE
  5
624
100
AcDbEntity
  8
LAYER1
 62
         3
100
AcDbLine
 10
-25.6580284151
 20
-4.2466407461
 30
0.0
 11
-25.4550829816
 21
-4.3193509621
 31
0.0
  0
LINE
  5
625
100
AcDbEntity
  8
LAYER1
 62
         3
100
AcDbLine
 10
-25.4550829816
 20
-4.3193509621
 30
0.0
 11
-25.308986875
 21
-4.3979812466
 31
0.0
  0
LINE
  5
626
100
AcDbEntity
  8
LAYER1
 62
         3
100
AcDbLine
 10
-25.308986875
 20
-4.3979812466
 30
0.0
 11
-25.2234402399
 21
-4.4805404317
 31
0.0
  0
LINE
  5
627
100
AcDbEntity
  8
LAYER1
 62
         3
100
AcDbLine
 10
-25.2234402399
 20
-4.4805404317
 30
0.0
 11
-25.1999914001
 21
-4.5531288773
 31
0.0
  0
ENDBLK
  5
628
100
AcDbEntity
  8
0
100
AcDbBlockEnd
  0
ENDSEC
  0
SECTION
  2
ENTITIES
  0
INSERT
  5
2F
100
AcDbEntity
  8
0
100
AcDbBlockReference
  2
CLUMP0
 10
0.0
 20
0.0
 30
0.0
  0
INSERT
  5
5E
100
AcDbEntity
  8
0
100
AcDbBlockReference
  2
CLUMP2
 10
0.0
 20
0.0
 30
0.0
  0
INSERT
  5
8D
100
AcDbEntity
  8
0
100
AcDbBlockReference
  2
CLUMP4
 10
0.0
 20
0.0
 30
0.0
  0
INSERT
  5
9D
100
AcDbEntity
  8
0
100
AcDbBlockReference
  2
CLUMP6
 10
0.0
 20
0.0
 30
0.0
  0
LINE
  5
AE
100
AcDbEntity
  8
LAYER3
 62
         4
100
AcDbLine
 10
48.8774213034
 20
47.8904683556
 30
0.0
 11
48.253686231
 21
44.9560255534
 31
0.0
  0
LINE
  5
AF
100
AcDbEntity
  8
LAYER3
 62
         4
100
AcDbLine
 10
30.269166931
 20
47.8904683556
 30
0.0
 11
49.8774213034
 21
47.8904683556
 31
0.0
  0
MTEXT
  5
B0
100
AcDbEntity
  8
LAYER3
100
AcDbMText
 10
15.8691668717
 20
77.9764568519
 30
0.0
 40
2.1473683357
 41
5.1292919922
 71
         1
 72
         1
  1
\W0.8;17.2
  0
LINE
  5
B1
100
AcDbEntity
  8
LAYER3
 62
         4
100
AcDbLine
 10
29.269166931
 20
74.1887981605
 30
0.0
 11
26.3347241288
 21
73.565063088
 31
0.0
  0
LINE
  5
B2
100
AcDbEntity
  8
LAYER3
 62
         4
100
AcDbLine
 10
29.269166931
 20
74.1887981605
 30
0.0
 11
26.3347241288
 21
74.8125332329
 31
0.0
  0
LINE
  5
B3
100
AcDbEntity
  8
LAYER3
 62
         4
100
AcDbLine
 10
12.0691668125
 20
74.1887981605
 30
0.0
 11
15.0036096147
 21
74.8125332329
 31
0.0
  0
LINE
  5
B4
100
AcDbEntity
  8
LAYER3
 62
         4
100
AcDbLine
 10
12.0691668125
 20
74.1887981605
 30
0.0
 11
15.0036096147
 21
73.565063088
 31
0.0
  0
LINE
  5
B5
100
AcDbEntity
  8
LAYER3
 62
         4
100
AcDbLine
 10
12.0691668125
 20
74.1887981605
 30
0.0
 11
29.269166931
 21
74.1887981605
 31
0.0
  0
LINE
  5
B6
100
AcDbEntity
  8
LAYER3
 62
         4
100
AcDbLine
 10
12.0691668125
 20
61.8904648986
 30
0.0
 11
12.0691668125
 21
75.1887981605
 31
0.0
  0
LINE
  5
B7
100
AcDbEntity
  8
LAYER3
 62
         4
100
AcDbLine
 10
29.269166931
 20
61.8904648986
 30
0.0
 11
29.269166931
 21
75.1887981605
 31
0.0
  0
MTEXT
  5
B8
100
AcDbEntity
  8
LAYER3
100
AcDbMText
 10
53.2274302846
 20
16.9904659329
 30
0.0
 40
2.1473683357
 41
2.5646459961
 71
         1
 72
         1
  1
\W0.8;83
 11
-0.0000000268
 21
1.0
 31
0.0
  0
LINE
  5
B9
100
AcDbEntity
  8
LAYER3
 62
         4
100
AcDbLine
 10
57.015088976
 20
60.8904648986
 30
0.0
 11
57.6388240484
 21
57.9560220964
 31
0.0
  0
LINE
  5
BA
100
AcDbEntity
  8
LAYER3
 62
         4
100
AcDbLine
 10
57.015088976
 20
60.8904648986
 30
0.0
 11
56.3913539035
 21
57.9560220964
 31
0.0
  0
LINE
  5
BB
100
AcDbEntity
  8
LAYER3
 62
         4
100
AcDbLine
 10
30.269166931
 20
60.8904648986
 30
0.0
 11
58.015088976
 21
60.8904648986
 31
0.0
  0
MTEXT
  5
BC
100
AcDbEntity
  8
LAYER3
100
AcDbMText
 10
45.089762612
 20
12.9904676614
 30
0.0
 40
2.1473683357
 41
2.5646459961
 71
         1
 72
         1
  1
\W0.8;65
 11
-0.0000000268
 21
1.0
 31
0.0
  0
LINE
  5
BD
100
AcDbEntity
  8
LAYER3
 62
         4
100
AcDbLine
 10
48.8774213034
 20
47.8904683556
 30
0.0
 11
49.5011563759
 21
44.9560255534
 31
0.0
  0
ARC
  5
BF
100
AcDbEntity
  8
LAYER1
 62
         3
100
AcDbCircle
 10
20.6691668235
 20
18.8904671166
 30
0.0
 40
9.0
210
0.0
220
0.0
230
1.0
100
AcDbArc
 50
109.4712225019
 51
200.0499729957
  0
ARC
  5
C0
100
AcDbEntity
  8
LAYER1
 62
         3
100
AcDbCircle
 10
36.1691668235
 20
13.2336128671
 30
0.0
 40
7.5
210
0.0
220
0.0
230
1.0
100
AcDbArc
 50
179.9999969295
 51
192.2683992813
  0
ARC
  5
C1
100
AcDbEntity
  8
LAYER1
 62
         3
100
AcDbCircle
 10
36.1691668235
 20
13.2336128671
 30
0.0
 40
7.5
210
0.0
220
0.0
230
1.0
100
AcDbArc
 50
159.9500270043
 51
179.9999969295
  0
ARC
  5
C2
100
AcDbEntity
  8
LAYER1
 62
         3
100
AcDbCircle
 10
36.1691668235
 20
13.2336128671
 30
0.0
 40
12.5
210
0.0
220
0.0
230
1.0
100
AcDbArc
 50
159.9500270043
 51
192.2683992813
  0
ARC
  5
C3
100
AcDbEntity
  8
LAYER1
 62
         3
100
AcDbCircle
 10
5.1691668235
 20
13.2336128671
 30
0.0
 40
7.5
210
-0.0
220
0.0
230
1.0
100
AcDbArc
 50
347.7315976482
 51
20.0499760662
  0
ARC
  5
C4
100
AcDbEntity
  8
LAYER1
 62
         3
100
AcDbCircle
 10
5.1691668235
 20
13.2336128671
 30
0.0
 40
12.5
210
-0.0
220
0.0
230
1.0
100
AcDbArc
 50
347.7315976482
 51
0.0
  0
ARC
  5
C5
100
AcDbEntity
  8
LAYER1
 62
         3
100
AcDbCircle
 10
5.1691668235
 20
13.2336128671
 30
0.0
 40
12.5
210
0.0
220
0.0
230
1.0
100
AcDbArc
 50
0.0
 51
20.0499760662
  0
INSERT
  5
C7
100
AcDbEntity
  8
0
100
AcDbBlockReference
  2
CLUMP8
 10
0.0
 20
0.0
 30
0.0
  0
INSERT
  5
D3
100
AcDbEntity
  8
0
100
AcDbBlockReference
  2
CLUMP10
 10
0.0
 20
0.0
 30
0.0
  0
INSERT
  5
ED
100
AcDbEntity
  8
0
100
AcDbBlockReference
  2
CLUMP12
 10
0.0
 20
0.0
 30
0.0
  0
INSERT
  5
F9
100
AcDbEntity
  8
0
100
AcDbBlockReference
  2
CLUMP14
 10
0.0
 20
0.0
 30
0.0
  0
INSERT
  5
105
100
AcDbEntity
  8
0
100
AcDbBlockReference
  2
CLUMP16
 10
0.0
 20
0.0
 30
0.0
  0
INSERT
  5
11B
100
AcDbEntity
  8
0
100
AcDbBlockReference
  2
CLUMP18
 10
0.0
 20
0.0
 30
0.0
  0
INSERT
  5
130
100
AcDbEntity
  8
0
100
AcDbBlockReference
  2
CLUMP20
 10
0.0
 20
0.0
 30
0.0
  0
INSERT
  5
141
100
AcDbEntity
  8
0
100
AcDbBlockReference
  2
CLUMP22
 10
0.0
 20
0.0
 30
0.0
  0
INSERT
  5
170
100
AcDbEntity
  8
0
100
AcDbBlockReference
  2
CLUMP24
 10
0.0
 20
0.0
 30
0.0
  0
INSERT
  5
181
100
AcDbEntity
  8
0
100
AcDbBlockReference
  2
CLUMP26
 10
0.0
 20
0.0
 30
0.0
  0
INSERT
  5
192
100
AcDbEntity
  8
0
100
AcDbBlockReference
  2
CLUMP28
 10
0.0
 20
0.0
 30
0.0
  0
INSERT
  5
1A3
100
AcDbEntity
  8
0
100
AcDbBlockReference
  2
CLUMP30
 10
0.0
 20
0.0
 30
0.0
  0
INSERT
  5
1B0
100
AcDbEntity
  8
0
100
AcDbBlockReference
  2
CLUMP32
 10
0.0
 20
0.0
 30
0.0
  0
INSERT
  5
1BC
100
AcDbEntity
  8
0
100
AcDbBlockReference
  2
CLUMP34
 10
0.0
 20
0.0
 30
0.0
  0
INSERT
  5
1C8
100
AcDbEntity
  8
0
100
AcDbBlockReference
  2
CLUMP36
 10
0.0
 20
0.0
 30
0.0
  0
INSERT
  5
1D7
100
AcDbEntity
  8
0
100
AcDbBlockReference
  2
CLUMP38
 10
0.0
 20
0.0
 30
0.0
  0
INSERT
  5
1E8
100
AcDbEntity
  8
0
100
AcDbBlockReference
  2
CLUMP40
 10
0.0
 20
0.0
 30
0.0
  0
INSERT
  5
1F4
100
AcDbEntity
  8
0
100
AcDbBlockReference
  2
CLUMP42
 10
0.0
 20
0.0
 30
0.0
  0
LINE
  5
20B
100
AcDbEntity
  8
LAYER1
 62
         3
100
AcDbLine
 10
29.269166931
 20
60.8904648986
 30
0.0
 11
25.269166741
 21
60.8904648986
 31
0.0
  0
LINE
  5
20C
100
AcDbEntity
  8
LAYER1
 62
         3
100
AcDbLine
 10
25.269166741
 20
47.8904683556
 30
0.0
 11
29.269166931
 21
47.8904683556
 31
0.0
  0
LINE
  5
20D
100
AcDbEntity
  8
LAYER1
 62
         3
100
AcDbLine
 10
16.0691674681
 20
60.8904648986
 30
0.0
 11
12.0691668125
 21
60.8904648986
 31
0.0
  0
LINE
  5
20E
100
AcDbEntity
  8
LAYER1
 62
         3
100
AcDbLine
 10
11.7691673221
 20
51.890465286
 30
0.0
 11
12.0691668125
 21
51.890465286
 31
0.0
  0
LINE
  5
20F
100
AcDbEntity
  8
LAYER1
 62
         3
100
AcDbLine
 10
17.6691666128
 20
19.8904674914
 30
0.0
 11
23.669166665
 21
19.8904674914
 31
0.0
  0
LINE
  5
210
100
AcDbEntity
  8
LAYER1
 62
         3
100
AcDbLine
 10
20.6691671045
 20
60.8904648986
 30
0.0
 11
18.1691676261
 21
60.8904648986
 31
0.0
  0
LINE
  5
211
100
AcDbEntity
  8
LAYER1
 62
         3
100
AcDbLine
 10
23.169166583
 20
60.8904648986
 30
0.0
 11
20.6691671045
 21
60.8904648986
 31
0.0
  0
ARC
  5
212
100
AcDbEntity
  8
LAYER1
 62
         3
100
AcDbCircle
 10
26.1691668235
 20
36.5762535542
 30
0.0
 40
1.0
210
0.0
220
0.0
230
1.0
100
AcDbArc
 50
0.0
 51
45.0000007676
  0
LINE
  5
213
100
AcDbEntity
  8
LAYER1
 62
         3
100
AcDbLine
 10
27.1691672387
 20
30.3904664185
 30
0.0
 11
27.1691672387
 21
36.5762550797
 31
0.0
  0
LINE
  5
214
100
AcDbEntity
  8
LAYER1
 62
         3
100
AcDbLine
 10
26.8762737395
 20
37.2833598819
 30
0.0
 11
24.6156129869
 21
39.5440187719
 31
0.0
  0
LINE
  5
215
100
AcDbEntity
  8
LAYER1
 62
         3
100
AcDbLine
 10
25.269166741
 20
57.8904662695
 30
0.0
 11
23.669166665
 21
57.8904662695
 31
0.0
  0
LINE
  5
216
100
AcDbEntity
  8
LAYER1
 62
         3
100
AcDbLine
 10
23.669166665
 20
50.8904669847
 30
0.0
 11
25.269166741
 21
50.8904669847
 31
0.0
  0
LINE
  5
217
100
AcDbEntity
  8
LAYER1
 62
         3
100
AcDbLine
 10
23.669166665
 20
60.9904665914
 30
0.0
 11
23.169166583
 21
60.9904665914
 31
0.0
  0
ARC
  5
218
100
AcDbEntity
  8
LAYER1
 62
         3
100
AcDbCircle
 10
24.1691794777
 20
48.9235010011
 30
0.0
 40
0.5000128128
210
0.0
220
0.0
230
1.0
100
AcDbArc
 50
180.0006753437
 51
227.5697785682
  0
ARC
  5
219
100
AcDbEntity
  8
LAYER1
 62
         3
100
AcDbCircle
 10
22.4691668235
 20
47.0904671166
 30
0.0
 40
2.0
210
0.0
220
0.0
230
1.0
100
AcDbArc
 50
0.0
 51
47.004019327
  0
ARC
  5
21A
100
AcDbEntity
  8
LAYER1
 62
         3
100
AcDbCircle
 10
24.9691668235
 20
39.8975738978
 30
0.0
 40
0.5
210
0.0
220
0.0
230
1.0
100
AcDbArc
 50
179.9999969295
 51
224.9999976971
  0
LINE
  5
21B
100
AcDbEntity
  8
LAYER1
 62
         3
100
AcDbLine
 10
24.4691671686
 20
39.8975748982
 30
0.0
 11
24.4691671686
 21
47.0904659893
 31
0.0
  0
ARC
  5
21C
100
AcDbEntity
  8
LAYER1
 62
         3
100
AcDbCircle
 10
15.1691668235
 20
36.5762535542
 30
0.0
 40
1.0
210
0.0
220
0.0
230
1.0
100
AcDbArc
 50
135.0000023029
 51
179.9999969295
  0
LINE
  5
21D
100
AcDbEntity
  8
LAYER1
 62
         3
100
AcDbLine
 10
14.1691669704
 20
36.5762550797
 30
0.0
 11
14.1691669704
 21
30.3904664185
 31
0.0
  0
LINE
  5
21E
100
AcDbEntity
  8
LAYER1
 62
         3
100
AcDbLine
 10
16.7227193596
 20
39.5440187719
 30
0.0
 11
14.4620604696
 21
37.2833598819
 31
0.0
  0
LINE
  5
21F
100
AcDbEntity
  8
LAYER1
 62
         3
100
AcDbLine
 10
16.0691674681
 20
50.8904669847
 30
0.0
 11
17.6691666128
 21
50.8904669847
 31
0.0
  0
LINE
  5
220
100
AcDbEntity
  8
LAYER1
 62
         3
100
AcDbLine
 10
17.6691666128
 20
57.8904662695
 30
0.0
 11
16.0691674681
 21
57.8904662695
 31
0.0
  0
ARC
  5
221
100
AcDbEntity
  8
LAYER1
 62
         3
100
AcDbCircle
 10
20.6691668235
 20
18.8904671166
 30
0.0
 40
4.0
210
0.0
220
0.0
230
1.0
100
AcDbArc
 50
138.5903802548
 51
200.0499729957
  0
ARC
  5
222
100
AcDbEntity
  8
LAYER1
 62
         3
100
AcDbCircle
 10
20.6691668235
 20
18.8904671166
 30
0.0
 40
4.0
210
-0.0
220
0.0
230
1.0
100
AcDbArc
 50
339.9500239338
 51
41.4096228157
  0
ARC
  5
223
100
AcDbEntity
  8
LAYER1
 62
         3
100
AcDbCircle
 10
20.6691668235
 20
18.8904671166
 30
0.0
 40
9.0
210
-0.0
220
0.0
230
1.0
100
AcDbArc
 50
339.9500239338
 51
70.5287805686
  0
LINE
  5
224
100
AcDbEntity
  8
LAYER1
 62
         3
100
AcDbLine
 10
18.6691667767
 20
55.3590681817
 30
0.0
 11
18.6691667767
 21
55.647882488
 31
0.0
  0
LINE
  5
225
100
AcDbEntity
  8
LAYER1
 62
         3
100
AcDbLine
 10
23.169166583
 20
60.1062316861
 30
0.0
 11
23.169166583
 21
57.1105692949
 31
0.0
  0
LINE
  5
226
100
AcDbEntity
  8
LAYER1
 62
         3
100
AcDbLine
 10
23.669166665
 20
60.1062316861
 30
0.0
 11
23.669166665
 21
57.1105692949
 31
0.0
  0
LINE
  5
227
100
AcDbEntity
  8
LAYER1
 62
         3
100
AcDbLine
 10
19.6691669406
 20
56.8186145689
 30
0.0
 11
22.6691665011
 21
56.8186145689
 31
0.0
  0
LINE
  5
228
100
AcDbEntity
  8
LAYER1
 62
         3
100
AcDbLine
 10
18.1691676261
 20
60.9904665914
 30
0.0
 11
17.6691666128
 21
60.9904665914
 31
0.0
  0
ARC
  5
229
100
AcDbEntity
  8
LAYER1
 62
         3
100
AcDbCircle
 10
17.1691757435
 20
48.9234930012
 30
0.0
 40
0.4999908693
210
-0.0
220
0.0
230
1.0
100
AcDbArc
 50
312.3870485419
 51
0.0002383007
  0
LINE
  5
22A
100
AcDbEntity
  8
LAYER1
 62
         3
100
AcDbLine
 10
12.0563518139
 20
7.8916473728
 30
0.0
 11
13.0854707094
 21
12.8628991958
 31
0.0
  0
LINE
  5
22B
100
AcDbEntity
  8
LAYER1
 62
         3
100
AcDbLine
 10
17.3256948473
 20
11.9851136994
 30
0.0
 11
16.2965759518
 21
7.0138618764
 31
0.0
  0
LINE
  5
22C
100
AcDbEntity
  8
LAYER1
 62
         3
100
AcDbLine
 10
14.9873264017
 20
11.3697050553
 30
0.0
 11
14.926676813
 21
11.3803239953
 31
0.0
  0
ARC
  5
22D
100
AcDbEntity
  8
LAYER1
 62
         3
100
AcDbCircle
 10
14.7846112195
 20
10.3904671166
 30
0.0
 40
1.0
210
0.0
220
0.0
230
1.0
100
AcDbArc
 50
244.2160094619
 51
281.5763169502
  0
LINE
  5
22E
100
AcDbEntity
  8
LAYER1
 62
         3
100
AcDbLine
 10
15.0970585527
 20
11.3404019218
 30
0.0
 11
14.9873264017
 21
11.3697050553
 31
0.0
  0
ARC
  5
22F
100
AcDbEntity
  8
LAYER1
 62
         3
100
AcDbCircle
 10
5.1691668235
 20
13.2336128671
 30
0.0
 40
12.1931712199
210
0.0
220
0.0
230
1.0
100
AcDbArc
 50
347.7315976482
 51
352.705155624
  0
ARC
  5
230
100
AcDbEntity
  8
LAYER1
 62
         3
100
AcDbCircle
 10
5.1691668235
 20
13.2336128671
 30
0.0
 40
12.1931712199
210
-0.0
220
0.0
230
1.0
100
AcDbArc
 50
354.3813138249
 51
1.5368016567
  0
ARC
  5
231
100
AcDbEntity
  8
LAYER1
 62
         3
100
AcDbCircle
 10
5.1691668235
 20
13.2336128671
 30
0.0
 40
7.8068287801
210
-0.0
220
0.0
230
1.0
100
AcDbArc
 50
347.7315976482
 51
1.5368016567
  0
LINE
  5
232
100
AcDbEntity
  8
LAYER1
 62
         3
100
AcDbLine
 10
12.0691668125
 20
47.8904683556
 30
0.0
 11
16.0691674681
 21
47.8904683556
 31
0.0
  0
LINE
  5
233
100
AcDbEntity
  8
LAYER1
 62
         3
100
AcDbLine
 10
29.569166887
 20
56.8904679682
 30
0.0
 11
29.269166931
 21
56.8904679682
 31
0.0
  0
LINE
  5
234
100
AcDbEntity
  8
LAYER1
 62
         3
100
AcDbLine
 10
29.269166931
 20
51.890465286
 30
0.0
 11
29.569166887
 21
51.890465286
 31
0.0
  0
LINE
  5
235
100
AcDbEntity
  8
LAYER1
 62
         3
100
AcDbLine
 10
12.0691668125
 20
56.8904679682
 30
0.0
 11
11.7691673221
 21
56.8904679682
 31
0.0
  0
LINE
  5
236
100
AcDbEntity
  8
LAYER1
 62
         3
100
AcDbLine
 10
12.7977106603
 20
11.5747282695
 30
0.0
 11
12.3865354689
 21
9.6839022305
 31
0.0
  0
LINE
  5
237
100
AcDbEntity
  8
LAYER1
 62
         3
100
AcDbLine
 10
16.6727073373
 20
8.7518411171
 30
0.0
 11
17.0838806661
 21
10.6426671561
 31
0.0
  0
ARC
  5
238
100
AcDbEntity
  8
LAYER1
 62
         3
100
AcDbCircle
 10
14.7846112195
 20
10.3904671166
 30
0.0
 40
2.5
210
0.0
220
0.0
230
1.0
100
AcDbArc
 50
319.0461951448
 51
347.7315976482
  0
ARC
  5
239
100
AcDbEntity
  8
LAYER1
 62
         3
100
AcDbCircle
 10
14.7846112195
 20
10.3904671166
 30
0.0
 40
2.5
210
0.0
220
0.0
230
1.0
100
AcDbArc
 50
167.7316007187
 51
196.4169970812
  0
LINE
  5
23A
100
AcDbEntity
  8
LAYER1
 62
         3
100
AcDbLine
 10
25.269166741
 20
60.8904648986
 30
0.0
 11
25.269166741
 21
47.8904683556
 31
0.0
  0
LINE
  5
23B
100
AcDbEntity
  8
LAYER1
 62
         3
100
AcDbLine
 10
17.2275185468
 20
9.8592386063
 30
0.0
 11
17.3837032052
 21
10.5774689879
 31
0.0
  0
LINE
  5
23C
100
AcDbEntity
  8
LAYER1
 62
         3
100
AcDbLine
 10
12.4978881212
 20
11.6399264377
 30
0.0
 11
12.3417034628
 21
10.9216960561
 31
0.0
  0
LINE
  5
23D
100
AcDbEntity
  8
LAYER1
 62
         3
100
AcDbLine
 10
22.6691665011
 20
30.3904664185
 30
0.0
 11
22.6691665011
 21
56.5266635683
 31
0.0
  0
LINE
  5
23E
100
AcDbEntity
  8
LAYER1
 62
         3
100
AcDbLine
 10
19.6691669406
 20
56.8186145689
 30
0.0
 11
19.6691669406
 21
56.5266635683
 31
0.0
  0
LINE
  5
23F
100
AcDbEntity
  8
LAYER1
 62
         3
100
AcDbLine
 10
23.669166665
 20
60.1062316861
 30
0.0
 11
23.169166583
 21
60.1062316861
 31
0.0
  0
ARC
  5
240
100
AcDbEntity
  8
LAYER1
 62
         3
100
AcDbCircle
 10
24.0656828583
 20
37.6722374769
 30
0.0
 40
0.3980866249
210
0.0
220
0.0
230
1.0
100
AcDbArc
 50
185.0909749797
 51
257.6519996479
  0
LINE
  5
241
100
AcDbEntity
  8
LAYER1
 62
         3
100
AcDbLine
 10
29.269166931
 20
60.8904648986
 30
0.0
 11
29.269166931
 21
47.8904683556
 31
0.0
  0
LINE
  5
242
100
AcDbEntity
  8
LAYER1
 62
         3
100
AcDbLine
 10
12.0691668125
 20
60.8904648986
 30
0.0
 11
12.0691668125
 21
47.8904683556
 31
0.0
  0
LINE
  5
243
100
AcDbEntity
  8
LAYER1
 62
         3
100
AcDbLine
 10
16.0691674681
 20
60.8904648986
 30
0.0
 11
16.0691674681
 21
47.8904683556
 31
0.0
  0
LINE
  5
244
100
AcDbEntity
  8
LAYER1
 62
         3
100
AcDbLine
 10
29.569166887
 20
56.8904679682
 30
0.0
 11
29.569166887
 21
51.890465286
 31
0.0
  0
LINE
  5
245
100
AcDbEntity
  8
LAYER1
 62
         3
100
AcDbLine
 10
11.7691673221
 20
56.8904679682
 30
0.0
 11
11.7691673221
 21
51.890465286
 31
0.0
  0
LINE
  5
246
100
AcDbEntity
  8
LAYER1
 62
         3
100
AcDbLine
 10
17.6691666128
 20
19.8904674914
 30
0.0
 11
17.6691666128
 21
29.6275530424
 31
0.0
  0
LINE
  5
247
100
AcDbEntity
  8
LAYER1
 62
         3
100
AcDbLine
 10
17.6691666128
 20
29.6275530424
 30
0.0
 11
23.669166665
 21
29.6275530424
 31
0.0
  0
LINE
  5
248
100
AcDbEntity
  8
LAYER1
 62
         3
100
AcDbLine
 10
23.669166665
 20
19.8904674914
 30
0.0
 11
23.669166665
 21
29.6275530424
 31
0.0
  0
LINE
  5
249
100
AcDbEntity
  8
LAYER1
 62
         3
100
AcDbLine
 10
17.6691666128
 20
29.6275530424
 30
0.0
 11
17.6691666128
 21
30.3904664185
 31
0.0
  0
LINE
  5
24A
100
AcDbEntity
  8
LAYER1
 62
         3
100
AcDbLine
 10
23.669166665
 20
29.6275530424
 30
0.0
 11
23.669166665
 21
30.3904664185
 31
0.0
  0
LINE
  5
24B
100
AcDbEntity
  8
LAYER1
 62
         3
100
AcDbLine
 10
20.6691671045
 20
57.5534318056
 30
0.0
 11
20.6691671045
 21
57.1072537866
 31
0.0
  0
LINE
  5
24C
100
AcDbEntity
  8
LAYER1
 62
         3
100
AcDbLine
 10
20.6691671045
 20
57.5534318056
 30
0.0
 11
20.6691671045
 21
60.0196335878
 31
0.0
  0
LINE
  5
24D
100
AcDbEntity
  8
LAYER1
 62
         3
100
AcDbLine
 10
20.6691671045
 20
60.0196335878
 30
0.0
 11
20.6691671045
 21
60.8904648986
 31
0.0
  0
LINE
  5
24E
100
AcDbEntity
  8
LAYER1
 62
         3
100
AcDbLine
 10
23.669166665
 20
57.1105692949
 30
0.0
 11
23.669166665
 21
30.3904664185
 31
0.0
  0
LINE
  5
24F
100
AcDbEntity
  8
LAYER1
 62
         3
100
AcDbLine
 10
23.669166665
 20
30.3904664185
 30
0.0
 11
22.6691665011
 21
30.3904664185
 31
0.0
  0
ARC
  5
250
100
AcDbEntity
  8
LAYER1
 62
         3
100
AcDbCircle
 10
18.8691668235
 20
47.0904671166
 30
0.0
 40
2.0
210
0.0
220
0.0
230
1.0
100
AcDbArc
 50
132.9964749591
 51
179.9999969295
  0
ARC
  5
251
100
AcDbEntity
  8
LAYER1
 62
         3
100
AcDbCircle
 10
16.3691668235
 20
39.8975738978
 30
0.0
 40
0.5
210
-0.0
220
0.0
230
1.0
100
AcDbArc
 50
314.9999992324
 51
0.0
  0
LINE
  5
252
100
AcDbEntity
  8
LAYER1
 62
         3
100
AcDbLine
 10
16.8691661092
 20
47.0904659893
 30
0.0
 11
16.8691661092
 21
39.8975748982
 31
0.0
  0
LINE
  5
253
100
AcDbEntity
  8
LAYER1
 62
         3
100
AcDbLine
 10
18.6691667767
 20
55.3590681817
 30
0.0
 11
18.6691667767
 21
31.3904684451
 31
0.0
  0
CIRCLE
  5
254
100
AcDbEntity
  8
LAYER1
 62
         3
100
AcDbCircle
 10
20.6691668235
 20
33.3904671166
 30
0.0
 40
1.05
210
0.0
220
0.0
230
1.0
  0
LINE
  5
255
100
AcDbEntity
  8
LAYER1
 62
         3
100
AcDbLine
 10
22.6691665011
 20
30.3904664185
 30
0.0
 11
19.6691669406
 21
30.3904664185
 31
0.0
  0
LINE
  5
256
100
AcDbEntity
  8
LAYER1
 62
         3
100
AcDbLine
 10
17.6691666128
 20
57.3991712596
 30
0.0
 11
17.6691666128
 21
60.1062316861
 31
0.0
  0
LINE
  5
257
100
AcDbEntity
  8
LAYER1
 62
         3
100
AcDbLine
 10
18.1691676261
 20
57.3991712596
 30
0.0
 11
18.1691676261
 21
60.1062316861
 31
0.0
  0
LINE
  5
258
100
AcDbEntity
  8
LAYER1
 62
         3
100
AcDbLine
 10
21.6691672685
 20
57.1072537866
 30
0.0
 11
18.6691667767
 21
57.1072537866
 31
0.0
  0
ARC
  5
259
100
AcDbEntity
  8
LAYER1
 62
         3
100
AcDbCircle
 10
17.250469227
 20
39.9084280408
 30
0.0
 40
0.4188380255
210
0.0
220
0.0
230
1.0
100
AcDbArc
 50
299.5357581808
 51
358.5151565787
  0
LINE
  5
25A
100
AcDbEntity
  8
LAYER1
 62
         3
100
AcDbLine
 10
17.4569424124
 20
39.5440187719
 30
0.0
 11
16.7227193596
 21
39.5440187719
 31
0.0
  0
LINE
  5
25B
100
AcDbEntity
  8
LAYER1
 62
         3
100
AcDbLine
 10
23.9191671716
 20
30.3904664185
 30
0.0
 11
23.669166665
 21
30.3904664185
 31
0.0
  0
LINE
  5
25C
100
AcDbEntity
  8
LAYER1
 62
         3
100
AcDbLine
 10
27.1691672387
 20
30.3904664185
 30
0.0
 11
23.9191671716
 21
30.3904664185
 31
0.0
  0
LINE
  5
25D
100
AcDbEntity
  8
LAYER1
 62
         3
100
AcDbLine
 10
23.169166583
 20
60.9904665914
 30
0.0
 11
23.169166583
 21
60.1062316861
 31
0.0
  0
LINE
  5
25E
100
AcDbEntity
  8
LAYER1
 62
         3
100
AcDbLine
 10
23.669166665
 20
60.9904665914
 30
0.0
 11
23.669166665
 21
60.1062316861
 31
0.0
  0
CIRCLE
  5
25F
100
AcDbEntity
  8
LAYER1
 62
         3
100
AcDbCircle
 10
20.6691668235
 20
33.3904671166
 30
0.0
 40
1.0
210
0.0
220
0.0
230
1.0
  0
CIRCLE
  5
260
100
AcDbEntity
  8
LAYER1
 62
         3
100
AcDbCircle
 10
20.6691668235
 20
53.3904671166
 30
0.0
 40
1.0
210
0.0
220
0.0
230
1.0
  0
LINE
  5
261
100
AcDbEntity
  8
LAYER1
 62
         3
100
AcDbLine
 10
18.6691667767
 20
56.8153400388
 30
0.0
 11
21.6691672685
 21
56.8153400388
 31
0.0
  0
LINE
  5
262
100
AcDbEntity
  8
LAYER1
 62
         3
100
AcDbLine
 10
18.6691667767
 20
30.3904664185
 30
0.0
 11
19.6691669406
 21
30.3904664185
 31
0.0
  0
LINE
  5
263
100
AcDbEntity
  8
LAYER1
 62
         3
100
AcDbLine
 10
17.6691666128
 20
30.3904664185
 30
0.0
 11
17.6691666128
 21
57.3991712596
 31
0.0
  0
LINE
  5
264
100
AcDbEntity
  8
LAYER1
 62
         3
100
AcDbLine
 10
18.6691667767
 20
30.3904664185
 30
0.0
 11
17.6691666128
 21
30.3904664185
 31
0.0
  0
LINE
  5
265
100
AcDbEntity
  8
LAYER1
 62
         3
100
AcDbLine
 10
12.3865354689
 20
9.6839022305
 30
0.0
 11
12.411105621
 21
9.605312575
 31
0.0
  0
LINE
  5
266
100
AcDbEntity
  8
LAYER1
 62
         3
100
AcDbLine
 10
16.6513278963
 20
8.7275270786
 30
0.0
 11
16.6727073373
 21
8.7518411171
 31
0.0
  0
LINE
  5
267
100
AcDbEntity
  8
LAYER1
 62
         3
100
AcDbLine
 10
17.6691666128
 20
30.3904664185
 30
0.0
 11
17.4191661062
 21
30.3904664185
 31
0.0
  0
LINE
  5
268
100
AcDbEntity
  8
LAYER1
 62
         3
100
AcDbLine
 10
17.4191661062
 20
30.3904664185
 30
0.0
 11
14.1691669704
 21
30.3904664185
 31
0.0
  0
LINE
  5
269
100
AcDbEntity
  8
LAYER1
 62
         3
100
AcDbLine
 10
17.6691666128
 20
60.1062316861
 30
0.0
 11
17.6691666128
 21
60.9904665914
 31
0.0
  0
LINE
  5
26A
100
AcDbEntity
  8
LAYER1
 62
         3
100
AcDbLine
 10
18.1691676261
 20
60.1062316861
 30
0.0
 11
18.1691676261
 21
60.9904665914
 31
0.0
  0
LINE
  5
26B
100
AcDbEntity
  8
LAYER1
 62
         3
100
AcDbLine
 10
18.1691676261
 20
57.5534318056
 30
0.0
 11
20.6691671045
 21
57.5534318056
 31
0.0
  0
LINE
  5
26C
100
AcDbEntity
  8
LAYER1
 62
         3
100
AcDbLine
 10
18.1691676261
 20
60.0196335878
 30
0.0
 11
20.6691671045
 21
60.0196335878
 31
0.0
  0
LINE
  5
26D
100
AcDbEntity
  8
LAYER1
 62
         3
100
AcDbLine
 10
20.6691671045
 20
57.5534318056
 30
0.0
 11
23.169166583
 21
57.5534318056
 31
0.0
  0
LINE
  5
26E
100
AcDbEntity
  8
LAYER1
 62
         3
100
AcDbLine
 10
23.169166583
 20
60.0196335878
 30
0.0
 11
20.6691671045
 21
60.0196335878
 31
0.0
  0
LINE
  5
26F
100
AcDbEntity
  8
LAYER1
 62
         3
100
AcDbLine
 10
16.8691661092
 20
39.8975748982
 30
0.0
 11
17.5761442514
 21
39.8975748982
 31
0.0
  0
LINE
  5
270
100
AcDbEntity
  8
LAYER1
 62
         3
100
AcDbLine
 10
23.9191671716
 20
36.5762550797
 30
0.0
 11
23.9191671716
 21
30.3904664185
 31
0.0
  0
LINE
  5
271
100
AcDbEntity
  8
LAYER1
 62
         3
100
AcDbLine
 10
27.1691672387
 20
36.5762550797
 30
0.0
 11
23.9191671716
 21
36.5762550797
 31
0.0
  0
LINE
  5
272
100
AcDbEntity
  8
LAYER1
 62
         3
100
AcDbLine
 10
23.9805525051
 20
37.2833598819
 30
0.0
 11
26.8762737395
 21
37.2833598819
 31
0.0
  0
ARC
  5
273
100
AcDbEntity
  8
LAYER1
 62
         3
100
AcDbCircle
 10
24.0878666374
 20
39.9084295934
 30
0.0
 40
0.4188406515
210
0.0
220
0.0
230
1.0
100
AcDbArc
 50
181.4850435027
 51
240.4640355969
  0
LINE
  5
274
100
AcDbEntity
  8
LAYER1
 62
         3
100
AcDbLine
 10
23.669166665
 20
36.5762550797
 30
0.0
 11
23.9191671716
 21
36.5762550797
 31
0.0
  0
CIRCLE
  5
275
100
AcDbEntity
  8
LAYER1
 62
         3
100
AcDbCircle
 10
20.6691668235
 20
53.3904671166
 30
0.0
 40
1.05
210
0.0
220
0.0
230
1.0
  0
LINE
  5
276
100
AcDbEntity
  8
LAYER1
 62
         3
100
AcDbLine
 10
22.6691665011
 20
56.5266635683
 30
0.0
 11
19.6691669406
 21
56.5266635683
 31
0.0
  0
ARC
  5
277
100
AcDbEntity
  8
LAYER1
 62
         3
100
AcDbCircle
 10
19.6691668235
 20
31.3904671166
 30
0.0
 40
1.0
210
0.0
220
0.0
230
1.0
100
AcDbArc
 50
179.9999969295
 51
269.9999984648
  0
LINE
  5
278
100
AcDbEntity
  8
LAYER1
 62
         3
100
AcDbLine
 10
24.6156129869
 20
39.5440187719
 30
0.0
 11
23.8813908653
 21
39.5440187719
 31
0.0
  0
LINE
  5
279
100
AcDbEntity
  8
LAYER1
 62
         3
100
AcDbLine
 10
23.669166665
 20
47.0904659893
 30
0.0
 11
23.7621899577
 21
47.0904659893
 31
0.0
  0
ARC
  5
27A
100
AcDbEntity
  8
LAYER1
 62
         3
100
AcDbCircle
 10
24.3245010806
 20
39.8902849688
 30
0.0
 40
0.5623583751
210
0.0
220
0.0
230
1.0
100
AcDbArc
 50
179.2572491385
 51
218.0056621646
  0
LINE
  5
27B
100
AcDbEntity
  8
LAYER1
 62
         3
100
AcDbLine
 10
23.669166665
 20
39.8975748982
 30
0.0
 11
23.7621899577
 21
39.8975748982
 31
0.0
  0
LINE
  5
27C
100
AcDbEntity
  8
LAYER1
 62
         3
100
AcDbLine
 10
23.7621899577
 20
47.0904659893
 30
0.0
 11
23.7621899577
 21
39.8975748982
 31
0.0
  0
LINE
  5
27D
100
AcDbEntity
  8
LAYER1
 62
         3
100
AcDbLine
 10
24.4691671686
 20
47.0904659893
 30
0.0
 11
23.7621899577
 21
47.0904659893
 31
0.0
  0
LINE
  5
27E
100
AcDbEntity
  8
LAYER1
 62
         3
100
AcDbLine
 10
23.7621899577
 20
39.8975748982
 30
0.0
 11
24.4691671686
 21
39.8975748982
 31
0.0
  0
LINE
  5
27F
100
AcDbEntity
  8
LAYER1
 62
         3
100
AcDbLine
 10
18.6691667767
 20
56.8153400388
 30
0.0
 11
18.6691667767
 21
55.647882488
 31
0.0
  0
LINE
  5
280
100
AcDbEntity
  8
LAYER1
 62
         3
100
AcDbLine
 10
18.6691667767
 20
31.3904684451
 30
0.0
 11
18.6691667767
 21
30.3904664185
 31
0.0
  0
LINE
  5
281
100
AcDbEntity
  8
LAYER1
 62
         3
100
AcDbLine
 10
21.6691672685
 20
56.8153400388
 30
0.0
 11
21.6691672685
 21
57.1072537866
 31
0.0
  0
LINE
  5
282
100
AcDbEntity
  8
LAYER1
 62
         3
100
AcDbLine
 10
17.6691666128
 20
60.1062316861
 30
0.0
 11
18.1691676261
 21
60.1062316861
 31
0.0
  0
ARC
  5
283
100
AcDbEntity
  8
LAYER1
 62
         3
100
AcDbCircle
 10
17.2726513595
 20
37.6722366489
 30
0.0
 40
0.3980856151
210
0.0
220
0.0
230
1.0
100
AcDbArc
 50
282.347890596
 51
354.9091286356
  0
LINE
  5
284
100
AcDbEntity
  8
LAYER1
 62
         3
100
AcDbLine
 10
17.4191661062
 20
36.5762550797
 30
0.0
 11
17.6691666128
 21
36.5762550797
 31
0.0
  0
LINE
  5
285
100
AcDbEntity
  8
LAYER1
 62
         3
100
AcDbLine
 10
17.4191661062
 20
30.3904664185
 30
0.0
 11
17.4191661062
 21
36.5762550797
 31
0.0
  0
LINE
  5
286
100
AcDbEntity
  8
LAYER1
 62
         3
100
AcDbLine
 10
17.4191661062
 20
36.5762550797
 30
0.0
 11
14.1691669704
 21
36.5762550797
 31
0.0
  0
LINE
  5
287
100
AcDbEntity
  8
LAYER1
 62
         3
100
AcDbLine
 10
14.4620604696
 20
37.2833598819
 30
0.0
 11
17.3577807726
 21
37.2833598819
 31
0.0
  0
ARC
  5
288
100
AcDbEntity
  8
LAYER1
 62
         3
100
AcDbCircle
 10
20.6691668235
 20
-9.6095328834
 30
0.0
 40
7.5
210
0.0
220
-0.0
230
1.0
100
AcDbArc
 50
180.7828316874
 51
12.2684023518
  0
LINE
  5
289
100
AcDbEntity
  8
LAYER1
 62
         3
100
AcDbLine
 10
13.4807985159
 20
-7.2106711153
 30
0.0
 11
13.9267735066
 21
-5.0563485414
 31
0.0
  0
LINE
  5
28A
100
AcDbEntity
  8
LAYER1
 62
         3
100
AcDbLine
 10
11.2435139598
 20
-6.7151264805
 30
0.0
 11
11.278902355
 21
-6.5441775653
 31
0.0
  0
LINE
  5
28B
100
AcDbEntity
  8
LAYER1
 62
         3
100
AcDbLine
 10
13.3270259829
 20
-6.9895574409
 30
0.0
 11
13.7520089628
 21
-5.0352317333
 31
0.0
  0
LINE
  5
28C
100
AcDbEntity
  8
LAYER1
 62
         3
100
AcDbLine
 10
9.0921047958
 20
-4.021900036
 30
0.0
 11
8.4546312572
 21
-6.9533885974
 31
0.0
  0
ARC
  5
28D
100
AcDbEntity
  8
LAYER1
 62
         3
100
AcDbCircle
 10
20.6691668235
 20
-9.6095328834
 30
0.0
 40
12.5
210
0.0
220
-0.0
230
1.0
100
AcDbArc
 50
167.7316007187
 51
0.0
  0
ARC
  5
28E
100
AcDbEntity
  8
LAYER1
 62
         3
100
AcDbCircle
 10
20.6691668235
 20
-9.6095328834
 30
0.0
 40
12.5
210
0.0
220
0.0
230
1.0
100
AcDbArc
 50
0.0
 51
12.2684023518
  0
INSERT
  5
290
100
AcDbEntity
  8
0
100
AcDbBlockReference
  2
CLUMP44
 10
0.0
 20
0.0
 30
0.0
  0
INSERT
  5
2A0
100
AcDbEntity
  8
0
100
AcDbBlockReference
  2
CLUMP46
 10
0.0
 20
0.0
 30
0.0
  0
INSERT
  5
2B4
100
AcDbEntity
  8
0
100
AcDbBlockReference
  2
CLUMP48
 10
0.0
 20
0.0
 30
0.0
  0
INSERT
  5
2C7
100
AcDbEntity
  8
0
100
AcDbBlockReference
  2
CLUMP50
 10
0.0
 20
0.0
 30
0.0
  0
INSERT
  5
2D5
100
AcDbEntity
  8
0
100
AcDbBlockReference
  2
CLUMP52
 10
0.0
 20
0.0
 30
0.0
  0
INSERT
  5
2E5
100
AcDbEntity
  8
0
100
AcDbBlockReference
  2
CLUMP54
 10
0.0
 20
0.0
 30
0.0
  0
INSERT
  5
2F9
100
AcDbEntity
  8
0
100
AcDbBlockReference
  2
CLUMP56
 10
0.0
 20
0.0
 30
0.0
  0
LINE
  5
308
100
AcDbEntity
  8
LAYER3
 62
         4
100
AcDbLine
 10
21.6691668235
 20
-17.1095328834
 30
0.0
 11
49.8774213034
 21
-17.1095328834
 31
0.0
  0
LINE
  5
309
100
AcDbEntity
  8
LAYER3
 62
         4
100
AcDbLine
 10
57.015088976
 20
-22.1095328834
 30
0.0
 11
56.3913539035
 21
-19.1750900812
 31
0.0
  0
LINE
  5
30A
100
AcDbEntity
  8
LAYER3
 62
         4
100
AcDbLine
 10
57.015088976
 20
-22.1095328834
 30
0.0
 11
57.6388240484
 21
-19.1750900812
 31
0.0
  0
LINE
  5
30B
100
AcDbEntity
  8
LAYER3
 62
         4
100
AcDbLine
 10
21.6691668235
 20
-22.1095328834
 30
0.0
 11
58.015088976
 21
-22.1095328834
 31
0.0
  0
LINE
  5
30C
100
AcDbEntity
  8
LAYER3
 62
         4
100
AcDbLine
 10
48.8774213034
 20
-17.1095328834
 30
0.0
 11
48.253686231
 21
-14.1750900812
 31
0.0
  0
LINE
  5
30D
100
AcDbEntity
  8
LAYER3
 62
         4
100
AcDbLine
 10
48.8774213034
 20
-17.1095328834
 30
0.0
 11
49.5011563759
 21
-14.1750900812
 31
0.0
  0
LINE
  5
30E
100
AcDbEntity
  8
LAYER1
 62
         3
100
AcDbLine
 10
17.6691666128
 20
47.0904659893
 30
0.0
 11
17.5761442514
 21
47.0904659893
 31
0.0
  0
LINE
  5
30F
100
AcDbEntity
  8
LAYER1
 62
         3
100
AcDbLine
 10
17.5761442514
 20
39.8975748982
 30
0.0
 11
17.5761442514
 21
47.0904659893
 31
0.0
  0
LINE
  5
310
100
AcDbEntity
  8
LAYER1
 62
         3
100
AcDbLine
 10
17.5761442514
 20
39.8975748982
 30
0.0
 11
17.6691666128
 21
39.8975748982
 31
0.0
  0
ARC
  5
311
100
AcDbEntity
  8
LAYER1
 62
         3
100
AcDbCircle
 10
17.013834064
 20
39.8902858206
 30
0.0
 40
0.5623574286
210
-0.0
220
0.0
230
1.0
100
AcDbArc
 50
321.9941492653
 51
0.7426683888
  0
LINE
  5
312
100
AcDbEntity
  8
LAYER1
 62
         3
100
AcDbLine
 10
17.5761442514
 20
47.0904659893
 30
0.0
 11
16.8691661092
 21
47.0904659893
 31
0.0
  0
INSERT
  5
314
100
AcDbEntity
  8
0
100
AcDbBlockReference
  2
CLUMP58
 10
0.0
 20
0.0
 30
0.0
  0
INSERT
  5
329
100
AcDbEntity
  8
0
100
AcDbBlockReference
  2
CLUMP60
 10
0.0
 20
0.0
 30
0.0
  0
INSERT
  5
345
100
AcDbEntity
  8
0
100
AcDbBlockReference
  2
CLUMP62
 10
0.0
 20
0.0
 30
0.0
  0
INSERT
  5
35C
100
AcDbEntity
  8
0
100
AcDbBlockReference
  2
CLUMP64
 10
0.0
 20
0.0
 30
0.0
  0
INSERT
  5
371
100
AcDbEntity
  8
0
100
AcDbBlockReference
  2
CLUMP66
 10
0.0
 20
0.0
 30
0.0
  0
INSERT
  5
37D
100
AcDbEntity
  8
0
100
AcDbBlockReference
  2
CLUMP68
 10
0.0
 20
0.0
 30
0.0
  0
INSERT
  5
389
100
AcDbEntity
  8
0
100
AcDbBlockReference
  2
CLUMP70
 10
0.0
 20
0.0
 30
0.0
  0
INSERT
  5
399
100
AcDbEntity
  8
0
100
AcDbBlockReference
  2
CLUMP72
 10
0.0
 20
0.0
 30
0.0
  0
INSERT
  5
3A9
100
AcDbEntity
  8
0
100
AcDbBlockReference
  2
CLUMP74
 10
0.0
 20
0.0
 30
0.0
  0
MTEXT
  5
3B8
100
AcDbEntity
  8
LAYER3
100
AcDbMText
 10
-30.0999913442
 20
78.5520928715
 30
0.0
 40
2.1473683357
 41
2.5646459961
 71
         1
 72
         1
  1
\W0.8;20
  0
LINE
  5
3B9
100
AcDbEntity
  8
LAYER3
 62
         4
100
AcDbLine
 10
-17.6999915677
 20
74.7644341801
 30
0.0
 11
-20.6344343699
 21
74.1406991077
 31
0.0
  0
LINE
  5
3BA
100
AcDbEntity
  8
LAYER3
 62
         4
100
AcDbLine
 10
-17.6999915677
 20
74.7644341801
 30
0.0
 11
-20.6344343699
 21
75.3881692526
 31
0.0
  0
LINE
  5
3BB
100
AcDbEntity
  8
LAYER3
 62
         4
100
AcDbLine
 10
-37.6999911207
 20
74.7644341801
 30
0.0
 11
-34.7655483185
 21
75.3881692526
 31
0.0
  0
LINE
  5
3BC
100
AcDbEntity
  8
LAYER3
 62
         4
100
AcDbLine
 10
-37.6999911207
 20
74.7644341801
 30
0.0
 11
-34.7655483185
 21
74.1406991077
 31
0.0
  0
LINE
  5
3BD
100
AcDbEntity
  8
LAYER3
 62
         4
100
AcDbLine
 10
-37.6999911207
 20
74.7644341801
 30
0.0
 11
-17.6999915677
 21
74.7644341801
 31
0.0
  0
LINE
  5
3BE
100
AcDbEntity
  8
LAYER3
 62
         4
100
AcDbLine
 10
-17.6999915677
 20
31.3904664185
 30
0.0
 11
-17.6999915677
 21
75.7644341801
 31
0.0
  0
LINE
  5
3BF
100
AcDbEntity
  8
LAYER3
 62
         4
100
AcDbLine
 10
-37.6999911207
 20
31.3904664185
 30
0.0
 11
-37.6999911207
 21
75.7644341801
 31
0.0
  0
MTEXT
  5
3C0
100
AcDbEntity
  8
LAYER0
100
AcDbMText
 10
13.5568602544
 20
-133.1832799089
 30
0.0
 40
1.9790146708
 41
44.907977537
 71
         1
 72
         1
  1
\W0.8;30用オールステンレスＢスナップランナー
  0
MTEXT
  5
3C1
100
AcDbEntity
  8
LAYER0
100
AcDbMText
 10
69.2920019132
 20
-133.1354167344
 30
0.0
 40
2.4737683892
 41
8.8634168007
 71
         1
 72
         1
  1
\W0.8;D56351
  0
LINE
  5
3C2
100
AcDbEntity
  8
LAYER0
 62
         3
100
AcDbLine
 10
60.0
 20
-125.5
 30
0.0
 11
60.0
 21
-138.5
 31
0.0
  0
MTEXT
  5
3C3
100
AcDbEntity
  8
LAYER0
100
AcDbMText
 10
72.5158633528
 20
-126.7970201517
 30
0.0
 40
2.1473683357
 41
10.2585839844
 71
         1
 72
         1
  1
\W0.8;管理図番
  0
MTEXT
  5
3C4
100
AcDbEntity
  8
LAYER0
100
AcDbMText
 10
32.0542682872
 20
-126.7970201517
 30
0.0
 40
2.1473683357
 41
7.6538653946
 71
         1
 72
         1
  1
\W0.8;品　名
  0
LINE
  5
3C5
100
AcDbEntity
  8
LAYER0
 62
         3
100
AcDbLine
 10
10.0
 20
-138.5
 30
0.0
 11
10.0
 21
-125.5
 31
0.0
  0
LINE
  5
3C6
100
AcDbEntity
  8
LAYER0
 62
         3
100
AcDbLine
 10
95.0
 20
-138.5
 30
0.0
 11
95.0
 21
-125.5
 31
0.0
  0
LINE
  5
3C7
100
AcDbEntity
  8
LAYER1
 62
         3
100
AcDbLine
 10
11.1100293579
 20
-6.5074548177
 30
0.0
 11
11.267532769
 21
-6.7524944019
 31
0.0
  0
INSERT
  5
3C9
100
AcDbEntity
  8
0
100
AcDbBlockReference
  2
CLUMP76
 10
0.0
 20
0.0
 30
0.0
  0
INSERT
  5
3E5
100
AcDbEntity
  8
0
100
AcDbBlockReference
  2
CLUMP78
 10
0.0
 20
0.0
 30
0.0
  0
INSERT
  5
3F6
100
AcDbEntity
  8
0
100
AcDbBlockReference
  2
CLUMP80
 10
0.0
 20
0.0
 30
0.0
  0
INSERT
  5
407
100
AcDbEntity
  8
0
100
AcDbBlockReference
  2
CLUMP82
 10
0.0
 20
0.0
 30
0.0
  0
INSERT
  5
413
100
AcDbEntity
  8
0
100
AcDbBlockReference
  2
CLUMP84
 10
0.0
 20
0.0
 30
0.0
  0
INSERT
  5
41F
100
AcDbEntity
  8
0
100
AcDbBlockReference
  2
CLUMP86
 10
0.0
 20
0.0
 30
0.0
  0
INSERT
  5
433
100
AcDbEntity
  8
0
100
AcDbBlockReference
  2
CLUMP88
 10
0.0
 20
0.0
 30
0.0
  0
INSERT
  5
444
100
AcDbEntity
  8
0
100
AcDbBlockReference
  2
CLUMP90
 10
0.0
 20
0.0
 30
0.0
  0
INSERT
  5
454
100
AcDbEntity
  8
0
100
AcDbBlockReference
  2
CLUMP92
 10
0.0
 20
0.0
 30
0.0
  0
INSERT
  5
464
100
AcDbEntity
  8
0
100
AcDbBlockReference
  2
CLUMP94
 10
0.0
 20
0.0
 30
0.0
  0
INSERT
  5
475
100
AcDbEntity
  8
0
100
AcDbBlockReference
  2
CLUMP96
 10
0.0
 20
0.0
 30
0.0
  0
INSERT
  5
486
100
AcDbEntity
  8
0
100
AcDbBlockReference
  2
CLUMP98
 10
0.0
 20
0.0
 30
0.0
  0
INSERT
  5
496
100
AcDbEntity
  8
0
100
AcDbBlockReference
  2
CLUMP100
 10
0.0
 20
0.0
 30
0.0
  0
INSERT
  5
4A6
100
AcDbEntity
  8
0
100
AcDbBlockReference
  2
CLUMP102
 10
0.0
 20
0.0
 30
0.0
  0
INSERT
  5
4C0
100
AcDbEntity
  8
0
100
AcDbBlockReference
  2
CLUMP104
 10
0.0
 20
0.0
 30
0.0
  0
INSERT
  5
4DB
100
AcDbEntity
  8
0
100
AcDbBlockReference
  2
CLUMP106
 10
0.0
 20
0.0
 30
0.0
  0
INSERT
  5
4E5
100
AcDbEntity
  8
0
100
AcDbBlockReference
  2
CLUMP108
 10
0.0
 20
0.0
 30
0.0
  0
INSERT
  5
4EF
100
AcDbEntity
  8
0
100
AcDbBlockReference
  2
CLUMP110
 10
0.0
 20
0.0
 30
0.0
  0
INSERT
  5
501
100
AcDbEntity
  8
0
100
AcDbBlockReference
  2
CLUMP112
 10
0.0
 20
0.0
 30
0.0
  0
INSERT
  5
511
100
AcDbEntity
  8
0
100
AcDbBlockReference
  2
CLUMP114
 10
0.0
 20
0.0
 30
0.0
  0
INSERT
  5
51D
100
AcDbEntity
  8
0
100
AcDbBlockReference
  2
CLUMP116
 10
0.0
 20
0.0
 30
0.0
  0
INSERT
  5
52D
100
AcDbEntity
  8
0
100
AcDbBlockReference
  2
CLUMP118
 10
0.0
 20
0.0
 30
0.0
  0
INSERT
  5
539
100
AcDbEntity
  8
0
100
AcDbBlockReference
  2
CLUMP120
 10
0.0
 20
0.0
 30
0.0
  0
INSERT
  5
552
100
AcDbEntity
  8
0
100
AcDbBlockReference
  2
CLUMP122
 10
0.0
 20
0.0
 30
0.0
  0
INSERT
  5
565
100
AcDbEntity
  8
0
100
AcDbBlockReference
  2
CLUMP124
 10
0.0
 20
0.0
 30
0.0
  0
CIRCLE
  5
579
100
AcDbEntity
  8
LAYER1
 62
         3
100
AcDbCircle
 10
-27.6999913442
 20
54.3904671166
 30
0.0
 40
6.5
210
0.0
220
0.0
230
1.0
  0
CIRCLE
  5
57A
100
AcDbEntity
  8
LAYER1
 62
         3
100
AcDbCircle
 10
-27.6999913442
 20
54.3904671166
 30
0.0
 40
3.3
210
0.0
220
0.0
230
1.0
  0
CIRCLE
  5
57B
100
AcDbEntity
  8
LAYER1
 62
         3
100
AcDbCircle
 10
-27.6999913442
 20
54.3904671166
 30
0.0
 40
4.9
210
0.0
220
0.0
230
1.0
  0
CIRCLE
  5
57C
100
AcDbEntity
  8
LAYER1
 62
         3
100
AcDbCircle
 10
-27.6999913442
 20
54.3904671166
 30
0.0
 40
2.5
210
0.0
220
0.0
230
1.0
  0
ARC
  5
57D
100
AcDbEntity
  8
LAYER1
 62
         3
100
AcDbCircle
 10
-27.6999913442
 20
24.8904671166
 30
0.0
 40
5.0
210
0.0
220
0.0
230
1.0
100
AcDbArc
 50
108.6629267385
 51
239.999997953
  0
ARC
  5
57E
100
AcDbEntity
  8
LAYER1
 62
         3
100
AcDbCircle
 10
-27.6999913442
 20
24.8904671166
 30
0.0
 40
5.0
210
-0.0
220
0.0
230
1.0
100
AcDbArc
 50
299.9999989765
 51
71.337076332
  0
LINE
  5
57F
100
AcDbEntity
  8
LAYER1
 62
         3
100
AcDbLine
 10
-29.2999913038
 20
30.3904664185
 30
0.0
 11
-29.2999913038
 21
29.6275530424
 31
0.0
  0
ARC
  5
580
100
AcDbEntity
  8
LAYER1
 62
         3
100
AcDbCircle
 10
-27.6999913442
 20
25.3904671166
 30
0.0
 40
2.5
210
0.0
220
-0.0
230
1.0
100
AcDbArc
 50
0.0
 51
179.9999969295
  0
LINE
  5
581
100
AcDbEntity
  8
LAYER1
 62
         3
100
AcDbLine
 10
-30.1999912883
 20
25.3904674616
 30
0.0
 11
-30.1999912883
 21
16.6620098468
 31
0.0
  0
LINE
  5
582
100
AcDbEntity
  8
LAYER1
 62
         3
100
AcDbLine
 10
-25.1999914001
 20
16.6620098468
 30
0.0
 11
-25.1999914001
 21
25.3904674616
 31
0.0
  0
LINE
  5
583
100
AcDbEntity
  8
LAYER1
 62
         3
100
AcDbLine
 10
-25.1999914001
 20
13.5018032458
 30
0.0
 11
-25.1999914001
 21
16.6620098468
 31
0.0
  0
LINE
  5
584
100
AcDbEntity
  8
LAYER1
 62
         3
100
AcDbLine
 10
-30.1999912883
 20
16.6620098468
 30
0.0
 11
-30.1999912883
 21
13.5018032458
 31
0.0
  0
LINE
  5
585
100
AcDbEntity
  8
LAYER1
 62
         3
100
AcDbLine
 10
-25.1999914001
 20
11.1086972471
 30
0.0
 11
-25.1999914001
 21
11.3566767838
 31
0.0
  0
LINE
  5
586
100
AcDbEntity
  8
LAYER1
 62
         3
100
AcDbLine
 10
-25.1999914001
 20
13.3281805035
 30
0.0
 11
-25.1999914001
 21
13.5018032458
 31
0.0
  0
LINE
  5
587
100
AcDbEntity
  8
LAYER1
 62
         3
100
AcDbLine
 10
-30.1999912883
 20
13.5018032458
 30
0.0
 11
-30.1999912883
 21
13.3281805035
 31
0.0
  0
LINE
  5
588
100
AcDbEntity
  8
LAYER1
 62
         3
100
AcDbLine
 10
-30.1999912883
 20
11.1086972471
 30
0.0
 11
-30.1999912883
 21
9.4228478562
 31
0.0
  0
LINE
  5
589
100
AcDbEntity
  8
LAYER1
 62
         3
100
AcDbLine
 10
-25.1999914001
 20
9.4112296071
 30
0.0
 11
-25.1999914001
 21
11.1086972471
 31
0.0
  0
ARC
  5
58A
100
AcDbEntity
  8
LAYER1
 62
         3
100
AcDbCircle
 10
-24.9999913442
 20
39.0904671166
 30
0.0
 40
0.3
210
0.0
220
-0.0
230
1.0
100
AcDbArc
 50
0.0
 51
90.0000015352
  0
ARC
  5
58B
100
AcDbEntity
  8
LAYER1
 62
         3
100
AcDbCircle
 10
-36.8424055563
 20
33.4310231822
 30
0.0
 40
1.0
210
0.0
220
0.0
230
1.0
100
AcDbArc
 50
141.9646765124
 51
180.1507295747
  0
ARC
  5
58C
100
AcDbEntity
  8
LAYER1
 62
         3
100
AcDbCircle
 10
-18.9362358617
 20
53.3378947853
 30
0.0
 40
1.0
210
0.0
220
0.0
230
1.0
100
AcDbArc
 50
323.9501746773
 51
359.8684443892
  0
ARC
  5
58D
100
AcDbEntity
  8
LAYER1
 62
         3
100
AcDbCircle
 10
-18.9360084951
 20
53.4310231821
 30
0.0
 40
1.0
210
-0.0
220
0.0
230
1.0
100
AcDbArc
 50
359.8495254201
 51
38.4319276452
  0
ARC
  5
58E
100
AcDbEntity
  8
LAYER1
 62
         3
100
AcDbCircle
 10
-18.5575771321
 20
33.4310231822
 30
0.0
 40
1.0
210
-0.0
220
0.0
230
1.0
100
AcDbArc
 50
359.8496054949
 51
38.0353265581
  0
ARC
  5
58F
100
AcDbEntity
  8
LAYER1
 62
         3
100
AcDbCircle
 10
-18.5581902522
 20
33.3380191503
 30
0.0
 40
1.0003856981
210
0.0
220
0.0
230
1.0
100
AcDbArc
 50
324.3556547961
 51
359.8613873244
  0
LINE
  5
590
100
AcDbEntity
  8
LAYER1
 62
         3
100
AcDbLine
 10
-17.9364897597
 20
53.3150311973
 30
0.0
 11
-17.9350620422
 21
53.3904683258
 31
0.0
  0
INSERT
  5
592
100
AcDbEntity
  8
0
100
AcDbBlockReference
  2
CLUMP126
 10
0.0
 20
0.0
 30
0.0
  0
LINE
  5
5AC
100
AcDbEntity
  8
LAYER1
 62
         3
100
AcDbLine
 10
-19.7112171265
 20
57.3991712596
 30
0.0
 11
-24.3999913621
 21
60.1062316861
 31
0.0
  0
LINE
  5
5AD
100
AcDbEntity
  8
LAYER1
 62
         3
100
AcDbLine
 10
-30.9999913263
 20
60.1062316861
 30
0.0
 11
-36.1886380526
 21
57.1105692949
 31
0.0
  0
LINE
  5
5AE
100
AcDbEntity
  8
LAYER1
 62
         3
100
AcDbLine
 10
-36.6998084176
 20
30.3904664185
 30
0.0
 11
-33.7621692854
 21
30.3904664185
 31
0.0
  0
LINE
  5
5AF
100
AcDbEntity
  8
LAYER1
 62
         3
100
AcDbLine
 10
-21.637813403
 20
30.3904664185
 30
0.0
 11
-19.2001706275
 21
30.3904664185
 31
0.0
  0
LINE
  5
5B0
100
AcDbEntity
  8
LAYER1
 62
         3
100
AcDbLine
 10
-18.6999917316
 20
56.8153400388
 30
0.0
 11
-18.1999916497
 21
30.3904664185
 31
0.0
  0
LINE
  5
5B1
100
AcDbEntity
  8
LAYER1
 62
         3
100
AcDbLine
 10
-18.1999916497
 20
30.3904664185
 30
0.0
 11
-19.2001706275
 21
30.3904664185
 31
0.0
  0
LINE
  5
5B2
100
AcDbEntity
  8
LAYER1
 62
         3
100
AcDbLine
 10
-37.6999911207
 20
30.3904664185
 30
0.0
 11
-37.1999910387
 21
56.5266635683
 31
0.0
  0
LINE
  5
5B3
100
AcDbEntity
  8
LAYER1
 62
         3
100
AcDbLine
 10
-36.6998084176
 20
30.3904664185
 30
0.0
 11
-37.6999911207
 21
30.3904664185
 31
0.0
  0
LINE
  5
5B4
100
AcDbEntity
  8
LAYER1
 62
         3
100
AcDbLine
 10
-26.4499913721
 20
13.3904673573
 30
0.0
 11
-26.4499913721
 21
12.8628991958
 31
0.0
  0
LINE
  5
5B5
100
AcDbEntity
  8
LAYER1
 62
         3
100
AcDbLine
 10
-28.9499913163
 20
12.8628991958
 30
0.0
 11
-28.9499913163
 21
13.3904673573
 31
0.0
  0
LINE
  5
5B6
100
AcDbEntity
  8
LAYER1
 62
         3
100
AcDbLine
 10
-17.9350620422
 20
53.3904683258
 30
0.0
 11
-17.936262517
 21
53.4538876679
 31
0.0
  0
LINE
  5
5B7
100
AcDbEntity
  8
LAYER1
 62
         3
100
AcDbLine
 10
-17.5580589387
 20
33.3149906661
 30
0.0
 11
-17.5566302898
 21
33.3904687729
 31
0.0
  0
LINE
  5
5B8
100
AcDbEntity
  8
LAYER1
 62
         3
100
AcDbLine
 10
-17.5566302898
 20
33.3904687729
 30
0.0
 11
-17.557831696
 21
33.4539253678
 31
0.0
  0
LINE
  5
5B9
100
AcDbEntity
  8
LAYER1
 62
         3
100
AcDbLine
 10
-28.9499913163
 20
12.8628991958
 30
0.0
 11
-28.9499913163
 21
7.8916473728
 31
0.0
  0
ARC
  5
5BA
100
AcDbEntity
  8
LAYER1
 62
         3
100
AcDbCircle
 10
-27.6999913442
 20
-3.4465287169
 30
0.0
 40
11.4068723571
210
0.0
220
-0.0
230
1.0
100
AcDbArc
 50
83.7087200861
 51
96.2912829844
  0
LINE
  5
5BB
100
AcDbEntity
  8
LAYER1
 62
         3
100
AcDbLine
 10
-26.4499913721
 20
7.8916473728
 30
0.0
 11
-26.4499913721
 21
12.8628991958
 31
0.0
  0
LINE
  5
5BC
100
AcDbEntity
  8
LAYER1
 62
         3
100
AcDbLine
 10
-30.1999912883
 20
13.3281805035
 30
0.0
 11
-30.1999912883
 21
11.3598693576
 31
0.0
  0
LINE
  5
5BD
100
AcDbEntity
  8
LAYER1
 62
         3
100
AcDbLine
 10
-25.1999914001
 20
11.3566767838
 30
0.0
 11
-25.1999914001
 21
13.3281805035
 31
0.0
  0
LINE
  5
5BE
100
AcDbEntity
  8
LAYER1
 62
         3
100
AcDbLine
 10
-25.2753868519
 20
13.3904673573
 30
0.0
 11
-26.4499913721
 21
13.3904673573
 31
0.0
  0
LINE
  5
5BF
100
AcDbEntity
  8
LAYER1
 62
         3
100
AcDbLine
 10
-28.9499913163
 20
13.3904673573
 30
0.0
 11
-30.1102709311
 21
13.3904673573
 31
0.0
  0
LINE
  5
5C0
100
AcDbEntity
  8
LAYER1
 62
         3
100
AcDbLine
 10
-26.4999912872
 20
9.6839022305
 30
0.0
 11
-26.4999912872
 21
7.8973452043
 31
0.0
  0
LINE
  5
5C1
100
AcDbEntity
  8
LAYER1
 62
         3
100
AcDbLine
 10
-28.8999914012
 20
7.8973452043
 30
0.0
 11
-28.8999914012
 21
9.6839022305
 31
0.0
  0
LINE
  5
5C2
100
AcDbEntity
  8
LAYER1
 62
         3
100
AcDbLine
 10
-26.4999912872
 20
11.5747282695
 30
0.0
 11
-26.4999912872
 21
9.6839022305
 31
0.0
  0
LINE
  5
5C3
100
AcDbEntity
  8
LAYER1
 62
         3
100
AcDbLine
 10
-28.8999914012
 20
9.6839022305
 30
0.0
 11
-28.8999914012
 21
11.5747282695
 31
0.0
  0
CIRCLE
  5
5C4
100
AcDbEntity
  8
LAYER1
 62
         3
100
AcDbCircle
 10
-27.6999913442
 20
54.3904671166
 30
0.0
 40
5.4
210
0.0
220
0.0
230
1.0
  0
LINE
  5
5C5
100
AcDbEntity
  8
LAYER1
 62
         3
100
AcDbLine
 10
-26.0999913846
 20
29.6275530424
 30
0.0
 11
-26.0999913846
 21
30.3904664185
 31
0.0
  0
ARC
  5
5C6
100
AcDbEntity
  8
LAYER1
 62
         3
100
AcDbCircle
 10
-25.5999913442
 20
29.9737731275
 30
0.0
 40
2.0
210
0.0
220
0.0
230
1.0
100
AcDbArc
 50
179.9999969295
 51
247.5536475005
  0
LINE
  5
5C7
100
AcDbEntity
  8
LAYER1
 62
         3
100
AcDbLine
 10
-27.7999913417
 20
29.9737740722
 30
0.0
 11
-27.7999913417
 21
30.3904664185
 31
0.0
  0
LINE
  5
5C8
100
AcDbEntity
  8
LAYER1
 62
         3
100
AcDbLine
 10
-18.1776548091
 20
55.3590681817
 30
0.0
 11
-17.7191218647
 21
31.3904684451
 31
0.0
  0
LINE
  5
5C9
100
AcDbEntity
  8
LAYER1
 62
         3
100
AcDbLine
 10
-18.6999917316
 20
56.8153400388
 30
0.0
 11
-18.1999916497
 21
56.5266635683
 31
0.0
  0
LINE
  5
5CA
100
AcDbEntity
  8
LAYER1
 62
         3
100
AcDbLine
 10
-17.6999915677
 20
30.3904664185
 30
0.0
 11
-18.1999916497
 21
30.3904664185
 31
0.0
  0
LINE
  5
5CB
100
AcDbEntity
  8
LAYER1
 62
         3
100
AcDbLine
 10
-33.7621692854
 20
36.5762550797
 30
0.0
 11
-33.3291564423
 21
36.5762550797
 31
0.0
  0
LINE
  5
5CC
100
AcDbEntity
  8
LAYER1
 62
         3
100
AcDbLine
 10
-22.0708262461
 20
36.5762550797
 30
0.0
 11
-21.637813403
 21
36.5762550797
 31
0.0
  0
LINE
  5
5CD
100
AcDbEntity
  8
LAYER1
 62
         3
100
AcDbLine
 10
-25.2019921138
 20
47.0904659893
 30
0.0
 11
-25.4924571893
 21
47.0904659893
 31
0.0
  0
LINE
  5
5CE
100
AcDbEntity
  8
LAYER1
 62
         3
100
AcDbLine
 10
-30.1979905746
 20
47.0904659893
 30
0.0
 11
-29.9075254991
 21
47.0904659893
 31
0.0
  0
ARC
  5
5CF
100
AcDbEntity
  8
LAYER1
 62
         3
100
AcDbCircle
 10
-29.7999913442
 20
29.9737731275
 30
0.0
 40
2.0
210
-0.0
220
0.0
230
1.0
100
AcDbArc
 50
292.4463494292
 51
0.0
  0
LINE
  5
5D0
100
AcDbEntity
  8
LAYER1
 62
         3
100
AcDbLine
 10
-27.5999913467
 20
30.3904664185
 30
0.0
 11
-27.5999913467
 21
29.9737740722
 31
0.0
  0
ARC
  5
5D1
100
AcDbEntity
  8
LAYER1
 62
         3
100
AcDbCircle
 10
-27.6999913442
 20
24.8904671166
 30
0.0
 40
3.5
210
-0.0
220
0.0
230
1.0
100
AcDbArc
 50
315.5846906452
 51
67.5536505709
  0
ARC
  5
5D2
100
AcDbEntity
  8
LAYER1
 62
         3
100
AcDbCircle
 10
-27.6999913442
 20
24.8904671166
 30
0.0
 40
3.5
210
0.0
220
0.0
230
1.0
100
AcDbArc
 50
112.4463524995
 51
224.4153062844
  0
ARC
  5
5D3
100
AcDbEntity
  8
LAYER1
 62
         3
100
AcDbCircle
 10
-36.8420963616
 20
33.337921035
 30
0.0
 40
1.000081541
210
0.0
220
0.0
230
1.0
100
AcDbArc
 50
180.1330306103
 51
215.6499211283
  0
ARC
  5
5D4
100
AcDbEntity
  8
LAYER1
 62
         3
100
AcDbCircle
 10
-36.4637468267
 20
53.3378947853
 30
0.0
 40
1.0
210
0.0
220
0.0
230
1.0
100
AcDbArc
 50
180.1316373386
 51
216.0498222523
  0
ARC
  5
5D5
100
AcDbEntity
  8
LAYER1
 62
         3
100
AcDbCircle
 10
-36.4639741933
 20
53.4310231822
 30
0.0
 40
1.0
210
0.0
220
0.0
230
1.0
100
AcDbArc
 50
141.5680754253
 51
180.1504228898
  0
LINE
  5
5D6
100
AcDbEntity
  8
LAYER1
 62
         3
100
AcDbLine
 10
-37.8421509924
 20
33.4539253678
 30
0.0
 11
-37.8433523986
 21
33.3904687729
 31
0.0
  0
LINE
  5
5D7
100
AcDbEntity
  8
LAYER1
 62
         3
100
AcDbLine
 10
-37.8433523986
 20
33.3904687729
 30
0.0
 11
-37.8419237497
 21
33.3149906661
 31
0.0
  0
LINE
  5
5D8
100
AcDbEntity
  8
LAYER1
 62
         3
100
AcDbLine
 10
-37.4637201714
 20
53.4538876679
 30
0.0
 11
-37.4649206462
 21
53.3904683258
 31
0.0
  0
LINE
  5
5D9
100
AcDbEntity
  8
LAYER1
 62
         3
100
AcDbLine
 10
-37.4649206462
 20
53.3904683258
 30
0.0
 11
-37.4634929287
 21
53.3150311973
 31
0.0
  0
LINE
  5
5DA
100
AcDbEntity
  8
LAYER1
 62
         3
100
AcDbLine
 10
-22.0708262461
 20
30.3904664185
 30
0.0
 11
-33.3291564423
 21
30.3904664185
 31
0.0
  0
LINE
  5
5DB
100
AcDbEntity
  8
LAYER1
 62
         3
100
AcDbLine
 10
-21.637813403
 20
30.3904664185
 30
0.0
 11
-22.0708262461
 21
30.3904664185
 31
0.0
  0
LINE
  5
5DC
100
AcDbEntity
  8
LAYER1
 62
         3
100
AcDbLine
 10
-33.3291564423
 20
30.3904664185
 30
0.0
 11
-33.7621692854
 21
30.3904664185
 31
0.0
  0
ARC
  5
5DD
100
AcDbEntity
  8
LAYER1
 62
         3
100
AcDbCircle
 10
-27.6999913442
 20
54.3904671166
 30
0.0
 40
6.6
210
0.0
220
-0.0
230
1.0
100
AcDbArc
 50
60.0000010235
 51
120.000002047
  0
LINE
  5
5DE
100
AcDbEntity
  8
LAYER1
 62
         3
100
AcDbLine
 10
-33.7621692854
 20
30.3904664185
 30
0.0
 11
-33.7621692854
 21
36.5762550797
 31
0.0
  0
LINE
  5
5DF
100
AcDbEntity
  8
LAYER1
 62
         3
100
AcDbLine
 10
-25.4924571893
 20
39.8975748982
 30
0.0
 11
-25.2019921138
 21
39.8975748982
 31
0.0
  0
LINE
  5
5E0
100
AcDbEntity
  8
LAYER1
 62
         3
100
AcDbLine
 10
-30.1979905746
 20
39.8975748982
 30
0.0
 11
-29.9075254991
 21
39.8975748982
 31
0.0
  0
LINE
  5
5E1
100
AcDbEntity
  8
LAYER1
 62
         3
100
AcDbLine
 10
-30.1979905746
 20
39.8975748982
 30
0.0
 11
-30.1979905746
 21
47.0904659893
 31
0.0
  0
LINE
  5
5E2
100
AcDbEntity
  8
LAYER1
 62
         3
100
AcDbLine
 10
-25.2019921138
 20
47.0904659893
 30
0.0
 11
-25.2019921138
 21
39.8975748982
 31
0.0
  0
ARC
  5
5E3
100
AcDbEntity
  8
LAYER1
 62
         3
100
AcDbCircle
 10
-27.6999913442
 20
0.6807268631
 30
0.0
 40
10.9598935569
210
0.0
220
-0.0
230
1.0
100
AcDbArc
 50
83.7140773822
 51
96.2859256883
  0
LINE
  5
5E4
100
AcDbEntity
  8
LAYER1
 62
         3
100
AcDbLine
 10
-26.4499913721
 20
10.6486397278
 30
0.0
 11
-26.4999912872
 21
10.6426671561
 31
0.0
  0
LINE
  5
5E5
100
AcDbEntity
  8
LAYER1
 62
         3
100
AcDbLine
 10
-28.8999914012
 20
10.6426671561
 30
0.0
 11
-28.9499913163
 21
10.6486397278
 31
0.0
  0
LINE
  5
5E6
100
AcDbEntity
  8
LAYER1
 62
         3
100
AcDbLine
 10
-18.1776548091
 20
55.3590681817
 30
0.0
 11
-18.6779016915
 21
55.647882488
 31
0.0
  0
LINE
  5
5E7
100
AcDbEntity
  8
LAYER1
 62
         3
100
AcDbLine
 10
-18.2189133304
 20
31.3904684451
 30
0.0
 11
-17.7191218647
 21
31.3904684451
 31
0.0
  0
ARC
  5
5E8
100
AcDbEntity
  8
LAYER1
 62
         3
100
AcDbCircle
 10
-26.1701920446
 20
20.5494208481
 30
0.0
 40
7.1140848434
210
0.0
220
0.0
230
1.0
100
AcDbArc
 50
267.3428921298
 51
277.8382764306
  0
LINE
  5
5E9
100
AcDbEntity
  8
LAYER1
 62
         3
100
AcDbLine
 10
-26.4999912872
 20
13.4429846373
 30
0.0
 11
-26.4999912872
 21
11.5747282695
 31
0.0
  0
LINE
  5
5EA
100
AcDbEntity
  8
LAYER1
 62
         3
100
AcDbLine
 10
-28.8999914012
 20
11.5747282695
 30
0.0
 11
-28.8999914012
 21
13.4429846373
 31
0.0
  0
ARC
  5
5EB
100
AcDbEntity
  8
LAYER1
 62
         3
100
AcDbCircle
 10
-29.2297906438
 20
20.5494208481
 30
0.0
 40
7.1140848434
210
0.0
220
0.0
230
1.0
100
AcDbArc
 50
262.161720499
 51
272.6571047997
  0
LINE
  5
5EC
100
AcDbEntity
  8
LAYER1
 62
         3
100
AcDbLine
 10
-33.3291564423
 20
36.5762550797
 30
0.0
 11
-33.3291564423
 21
30.3904664185
 31
0.0
  0
LINE
  5
5ED
100
AcDbEntity
  8
LAYER1
 62
         3
100
AcDbLine
 10
-22.0708262461
 20
36.5762550797
 30
0.0
 11
-33.3291564423
 21
36.5762550797
 31
0.0
  0
LINE
  5
5EE
100
AcDbEntity
  8
LAYER1
 62
         3
100
AcDbLine
 10
-22.0708262461
 20
30.3904664185
 30
0.0
 11
-22.0708262461
 21
36.5762550797
 31
0.0
  0
LINE
  5
5EF
100
AcDbEntity
  8
LAYER1
 62
         3
100
AcDbLine
 10
-32.9500294577
 20
37.2833598819
 30
0.0
 11
-22.4499532308
 21
37.2833598819
 31
0.0
  0
LINE
  5
5F0
100
AcDbEntity
  8
LAYER1
 62
         3
100
AcDbLine
 10
-25.4073820363
 20
39.5440187719
 30
0.0
 11
-29.9926006521
 21
39.5440187719
 31
0.0
  0
LINE
  5
5F1
100
AcDbEntity
  8
LAYER1
 62
         3
100
AcDbLine
 10
-29.9075254991
 20
39.8975748982
 30
0.0
 11
-25.4924571893
 21
39.8975748982
 31
0.0
  0
ARC
  5
5F2
100
AcDbEntity
  8
LAYER1
 62
         3
100
AcDbCircle
 10
-24.7747503752
 20
39.883260789
 30
0.0
 40
0.7178495418
210
0.0
220
0.0
230
1.0
100
AcDbArc
 50
178.8574343638
 51
208.2019597174
  0
ARC
  5
5F3
100
AcDbEntity
  8
LAYER1
 62
         3
100
AcDbCircle
 10
-30.6252323132
 20
39.883260789
 30
0.0
 40
0.7178495418
210
-0.0
220
0.0
230
1.0
100
AcDbArc
 50
331.7980372121
 51
1.1425687067
  0
LINE
  5
5F4
100
AcDbEntity
  8
LAYER1
 62
         3
100
AcDbLine
 10
-29.9075254991
 20
47.0904659893
 30
0.0
 11
-29.9075254991
 21
39.8975748982
 31
0.0
  0
LINE
  5
5F5
100
AcDbEntity
  8
LAYER1
 62
         3
100
AcDbLine
 10
-25.4924571893
 20
47.0904659893
 30
0.0
 11
-29.9075254991
 21
47.0904659893
 31
0.0
  0
LINE
  5
5F6
100
AcDbEntity
  8
LAYER1
 62
         3
100
AcDbLine
 10
-25.4924571893
 20
39.8975748982
 30
0.0
 11
-25.4924571893
 21
47.0904659893
 31
0.0
  0
LINE
  5
5F7
100
AcDbEntity
  8
LAYER0
 62
         3
100
AcDbLine
 10
95.0
 20
-125.5
 30
0.0
 11
-40.0
 21
-125.5
 31
0.0
  0
LINE
  5
5F8
100
AcDbEntity
  8
LAYER0
 62
         3
100
AcDbLine
 10
95.0
 20
-130.5
 30
0.0
 11
-40.0
 21
-130.5
 31
0.0
  0
LINE
  5
5F9
100
AcDbEntity
  8
LAYER0
 62
         3
100
AcDbLine
 10
95.0
 20
-138.5
 30
0.0
 11
-40.0
 21
-138.5
 31
0.0
  0
LINE
  5
5FA
100
AcDbEntity
  8
LAYER1
 62
         3
100
AcDbLine
 10
-30.1999912883
 20
9.4228478562
 30
0.0
 11
-30.1999912883
 21
-4.5531288773
 31
0.0
  0
LINE
  5
5FB
100
AcDbEntity
  8
LAYER1
 62
         3
100
AcDbLine
 10
-25.1999914001
 20
-4.5531288773
 30
0.0
 11
-25.1999914001
 21
9.4112296071
 31
0.0
  0
LINE
  5
5FC
100
AcDbEntity
  8
LAYER1
 62
         3
100
AcDbLine
 10
11.7283698054
 20
7.9595435824
 30
0.0
 11
9.241325024
 21
-4.0543492936
 31
0.0
  0
LINE
  5
5FD
100
AcDbEntity
  8
LAYER1
 62
         3
100
AcDbLine
 10
13.1783869
 20
-9.7010747116
 30
0.0
 11
16.6245579602
 21
6.9459647354
 31
0.0
  0
LINE
  5
5FE
100
AcDbEntity
  8
LAYER1
 62
         3
100
AcDbLine
 10
23.9546300726
 20
10.5774689879
 30
0.0
 11
27.9978887992
 21
-8.0158465128
 31
0.0
  0
LINE
  5
5FF
100
AcDbEntity
  8
LAYER1
 62
         3
100
AcDbLine
 10
32.8837031847
 20
-6.9533885974
 30
0.0
 11
28.8404451566
 21
11.6399264377
 31
0.0
  0
LINE
  5
600
100
AcDbEntity
  8
LAYER3
 62
         4
100
AcDbLine
 10
48.8774213034
 20
47.8904683556
 30
0.0
 11
48.8774213034
 21
-17.1095328834
 31
0.0
  0
LINE
  5
601
100
AcDbEntity
  8
LAYER3
 62
         4
100
AcDbLine
 10
57.015088976
 20
-22.1095328834
 30
0.0
 11
57.015088976
 21
60.8904648986
 31
0.0
  0
MTEXT
  5
602
100
AcDbEntity
  8
LAYER0
100
AcDbMText
 10
-13.9221737419
 20
-132.5157576176
 30
0.0
 40
3.0922104359
 41
7.3861805462
 71
         1
 72
         1
  1
\W0.8;S-5C
  0
MTEXT
  5
603
100
AcDbEntity
  8
LAYER0
100
AcDbMText
 10
-35.7051459079
 20
-126.6461242782
 30
0.0
 40
2.1473683357
 41
6.4116149902
 71
         1
 72
         1
  1
\W0.8;Ｎｏ.
  0
LINE
  5
604
100
AcDbEntity
  8
LAYER0
 62
         3
100
AcDbLine
 10
-25.0
 20
-125.5
 30
0.0
 11
-25.0
 21
-138.5
 31
0.0
  0
MTEXT
  5
605
100
AcDbEntity
  8
LAYER0
100
AcDbMText
 10
-10.6564309049
 20
-126.7970201517
 30
0.0
 40
2.1473683357
 41
7.6538653946
 71
         1
 72
         1
  1
\W0.8;品　番
  0
LINE
  5
606
100
AcDbEntity
  8
LAYER0
 62
         3
100
AcDbLine
 10
-40.0
 20
-138.5
 30
0.0
 11
-40.0
 21
-125.5
 31
0.0
  0
ARC
  5
607
100
AcDbEntity
  8
LAYER1
 62
         3
100
AcDbCircle
 10
-27.6999913442
 20
-19.6095328834
 30
0.0
 40
2.5
210
0.0
220
-0.0
230
1.0
100
AcDbArc
 50
179.9999969295
 51
0.0
  0
LINE
  5
608
100
AcDbEntity
  8
LAYER1
 62
         3
100
AcDbLine
 10
-25.1999914001
 20
-19.6095324639
 30
0.0
 11
-25.1999914001
 21
-7.484617788
 31
0.0
  0
LINE
  5
609
100
AcDbEntity
  8
LAYER1
 62
         3
100
AcDbLine
 10
-30.1999912883
 20
-7.484617788
 30
0.0
 11
-30.1999912883
 21
-19.6095324639
 31
0.0
  0
LINE
  5
60A
100
AcDbEntity
  8
LAYER1
 62
         3
100
AcDbLine
 10
-25.1999914001
 20
-6.5074548177
 30
0.0
 11
-25.1999914001
 21
-4.5531288773
 31
0.0
  0
LINE
  5
60B
100
AcDbEntity
  8
LAYER1
 62
         3
100
AcDbLine
 10
-25.1999914001
 20
-7.484617788
 30
0.0
 11
-25.1999914001
 21
-6.5074548177
 31
0.0
  0
LINE
  5
60C
100
AcDbEntity
  8
LAYER1
 62
         3
100
AcDbLine
 10
-30.1999912883
 20
-6.5074548177
 30
0.0
 11
-30.1999912883
 21
-7.484617788
 31
0.0
  0
LINE
  5
60D
100
AcDbEntity
  8
LAYER1
 62
         3
100
AcDbLine
 10
-30.1999912883
 20
-4.5531288773
 30
0.0
 11
-30.1999912883
 21
-6.5074548177
 31
0.0
  0
INSERT
  5
60F
100
AcDbEntity
  8
0
100
AcDbBlockReference
  2
CLUMP128
 10
0.0
 20
0.0
 30
0.0
  0
LINE
  5
62A
100
AcDbEntity
  8
LAYER1
 62
         3
100
AcDbLine
 10
-21.637813403
 20
36.5762550797
 30
0.0
 11
-21.637813403
 21
30.3904664185
 31
0.0
  0
ENDSEC
  0
SECTION
  2
OBJECTS
  0
DICTIONARY
  5
19
100
AcDbDictionary
280
         0
281
         1
  3
ACAD_GROUP
350
1A
  3
ACAD_MLINESTYLE
350
1B
  3
ACAD_LAYOUT
350
1E
  3
ACAD_PLOTSETTINGS
350
22
  3
ACAD_PLOTSTYLENAME
350
1F
  3
ACAD_WIPEOUT_VARS
350
23
  0
DICTIONARY
  5
1A
102
{ACAD_REACTORS
330
19
102
}
100
AcDbDictionary
280
         0
281
         1
  0
DICTIONARY
  5
1B
102
{ACAD_REACTORS
330
19
102
}
100
AcDbDictionary
280
         0
281
         1
  3
Standard
350
1C
  0
MLINESTYLE
  5
1C
102
{ACAD_REACTORS
330
1B
102
}
100
AcDbMlineStyle
  2
Standard
 70
         0
  3

 62
         0
 51
90.0
 52
90.0
 71
         2
 49
0.5
 62
       256
  6
BYLAYER
 49
-0.5
 62
       256
  6
BYLAYER
  0
ACDBDICTIONARYWDFLT
  5
1F
102
{ACAD_REACTORS
330
19
102
}
100
AcDbDictionary
281
         1
  3
Normal
350
1D
100
AcDbDictionaryWithDefault
340
1D
  0
ACDBPLACEHOLDER
  5
1D
102
{ACAD_REACTORS
330
1F
102
}
  0
LAYOUT
  5
20
102
{ACAD_REACTORS
330
1E
102
}
100
AcDbPlotSettings
  1

  2

  4

  6

 40
0.0
 41
0.0
 42
0.0
 43
0.0
 44
0.0
 45
0.0
 46
0.0
 47
0.0
 48
0.0
 49
0.0
140
0.0
141
0.0
142
1.0
143
1.0
 70
         0
 72
         0
 73
         0
 74
         0
  7

 75
         0
147
1.0
148
0.0
149
0.0
100
AcDbLayout
  1
Model
 70
         0
 71
         0
 10
0.0
 20
0.0
 11
0.0
 21
0.0
 12
0.0
 22
0.0
 32
0.0
 14
0.0
 24
0.0
 34
0.0
 15
0.0
 25
0.0
 35
0.0
146
0.0
 13
0.0
 23
0.0
 33
0.0
 16
0.0
 26
0.0
 36
0.0
 17
0.0
 27
0.0
 37
0.0
 76
         0
330
A
331
0
345
0
346
0
  0
LAYOUT
  5
21
102
{ACAD_REACTORS
330
1E
102
}
100
AcDbPlotSettings
  1

  2

  4

  6

 40
0.0
 41
0.0
 42
0.0
 43
0.0
 44
0.0
 45
0.0
 46
0.0
 47
0.0
 48
0.0
 49
0.0
140
0.0
141
0.0
142
1.0
143
1.0
 70
         0
 72
         0
 73
         0
 74
         0
  7

 75
         0
147
1.0
148
0.0
149
0.0
100
AcDbLayout
  1
Layout1
 70
         0
 71
         0
 10
0.0
 20
0.0
 11
0.0
 21
0.0
 12
0.0
 22
0.0
 32
0.0
 14
0.0
 24
0.0
 34
0.0
 15
0.0
 25
0.0
 35
0.0
146
0.0
 13
0.0
 23
0.0
 33
0.0
 16
0.0
 26
0.0
 36
0.0
 17
0.0
 27
0.0
 37
0.0
 76
         0
330
B
331
0
345
0
346
0
  0
DICTIONARY
  5
1E
102
{ACAD_REACTORS
330
19
102
}
100
AcDbDictionary
280
         0
281
         1
  3
Layout1
350
21
  3
Model
350
20
  0
DICTIONARY
  5
22
102
{ACAD_REACTORS
330
19
102
}
100
AcDbDictionary
280
         0
281
         1
  0
WIPEOUTVARIABLES
  5
23
100
AcDbWipeoutVariables
 70
         1
  0
ENDSEC
  0
EOF
