  0
SECTION
  2
HEADER
  9
$ACADVER
  1
AC1015
  9
$ACADMAINTVER
 70
         6
  9
$DWGCODEPAGE
  3
ANSI_932
  9
$INSBASE
 10
0.0
 20
0.0
 30
0.0
  9
$EXTMIN
 10
1.0000000000E+20
 20
1.0000000000E+20
 30
1.0000000000E+20
  9
$EXTMAX
 10
-1.0000000000E+20
 20
-1.0000000000E+20
 30
-1.0000000000E+20
  9
$LIMMIN
 10
0.0
 20
0.0
  9
$LIMMAX
 10
0.0
 20
0.0
  9
$ORTHOMODE
 70
         0
  9
$REGENMODE
 70
         1
  9
$FILLMODE
 70
         1
  9
$QTEXTMODE
 70
         0
  9
$MIRRTEXT
 70
         1
  9
$LTSCALE
 40
1.0
  9
$ATTMODE
 70
         1
  9
$TEXTSIZE
 40
0.2
  9
$TRACEWID
 40
0.05
  9
$TEXTSTYLE
  7
Standard
  9
$CLAYER
  8
0
  9
$CELTYPE
  6
Continuous
  9
$CECOLOR
 62
       256
  9
$CELTSCALE
 40
1.0
  9
$DISPSILH
 70
         0
  9
$DIMSCALE
 40
1.0
  9
$DIMASZ
 40
0.18
  9
$DIMEXO
 40
0.0625
  9
$DIMDLI
 40
0.38
  9
$DIMRND
 40
0.0
  9
$DIMDLE
 40
0.0
  9
$DIMEXE
 40
0.18
  9
$DIMTP
 40
0.0
  9
$DIMTM
 40
0.0
  9
$DIMTXT
 40
0.18
  9
$DIMCEN
 40
0.09
  9
$DIMTSZ
 40
0.0
  9
$DIMTOL
 70
         0
  9
$DIMLIM
 70
         0
  9
$DIMTIH
 70
         1
  9
$DIMTOH
 70
         1
  9
$DIMSE1
 70
         0
  9
$DIMSE2
 70
         0
  9
$DIMTAD
 70
         0
  9
$DIMZIN
 70
         0
  9
$DIMBLK
  1

  9
$DIMASO
 70
         1
  9
$DIMSHO
 70
         1
  9
$DIMPOST
  1

  9
$DIMAPOST
  1

  9
$DIMALT
 70
         0
  9
$DIMALTD
 70
         2
  9
$DIMALTF
 40
25.4
  9
$DIMLFAC
 40
1.0
  9
$DIMTOFL
 70
         0
  9
$DIMTVP
 40
0.0
  9
$DIMTIX
 70
         0
  9
$DIMSOXD
 70
         0
  9
$DIMSAH
 70
         0
  9
$DIMBLK1
  1

  9
$DIMBLK2
  1

  9
$DIMSTYLE
  2
Standard
  9
$DIMCLRD
 70
         0
  9
$DIMCLRE
 70
         0
  9
$DIMCLRT
 70
         0
  9
$DIMTFAC
 40
1.0
  9
$DIMGAP
 40
0.09
  9
$DIMJUST
 70
         0
  9
$DIMSD1
 70
         0
  9
$DIMSD2
 70
         0
  9
$DIMTOLJ
 70
         1
  9
$DIMTZIN
 70
         0
  9
$DIMALTZ
 70
         0
  9
$DIMALTTZ
 70
         0
  9
$DIMUPT
 70
         0
  9
$DIMDEC
 70
         4
  9
$DIMTDEC
 70
         4
  9
$DIMALTU
 70
         2
  9
$DIMALTTD
 70
         2
  9
$DIMTXSTY
  7
Standard
  9
$DIMAUNIT
 70
         0
  9
$DIMADEC
 70
         0
  9
$DIMALTRND
 40
0.0
  9
$DIMAZIN
 70
         0
  9
$DIMDSEP
 70
         0
  9
$DIMATFIT
 70
         3
  9
$DIMFRAC
 70
         0
  9
$DIMLDRBLK
  1

  9
$DIMLUNIT
 70
         2
  9
$DIMLWD
 70
         0
  9
$DIMLWE
 70
         0
  9
$DIMTMOVE
 70
         0
  9
$LUNITS
 70
         2
  9
$LUPREC
 70
         4
  9
$SKETCHINC
 40
0.1
  9
$FILLETRAD
 40
0.0
  9
$AUNITS
 70
         0
  9
$AUPREC
 70
         0
  9
$MENU
  1
acad
  9
$ELEVATION
 40
0.0
  9
$PELEVATION
 40
0.0
  9
$THICKNESS
 40
0.0
  9
$LIMCHECK
 70
         0
  9
$CHAMFERA
 40
0.0
  9
$CHAMFERB
 40
0.0
  9
$CHAMFERC
 40
0.0
  9
$CHAMFERD
 40
0.0
  9
$SKPOLY
 70
         0
  9
$TDCREATE
 40
0.000000000
  9
$TDUCREATE
 40
0.000000000
  9
$TDUPDATE
 40
0.000000000
  9
$TDUUPDATE
 40
0.000000000
  9
$TDINDWG
 40
0.0000000000
  9
$TDUSRTIMER
 40
0.0000000000
  9
$USRTIMER
 70
         1
  9
$ANGBASE
 50
0.0
  9
$ANGDIR
 70
         0
  9
$PDMODE
 70
         3
  9
$PDSIZE
 40
-1.0
  9
$PLINEWID
 40
0.0
  9
$SPLFRAME
 70
         0
  9
$SPLINETYPE
 70
         6
  9
$SPLINESEGS
 70
         8
  9
$HANDSEED
  5
455
  9
$SURFTAB1
 70
         6
  9
$SURFTAB2
 70
         6
  9
$SURFTYPE
 70
         6
  9
$SURFU
 70
         6
  9
$SURFV
 70
         6
  9
$UCSBASE
  2

  9
$UCSNAME
  2

  9
$UCSORG
 10
0.0
 20
0.0
 30
0.0
  9
$UCSXDIR
 10
1.0
 20
0.0
 30
0.0
  9
$UCSYDIR
 10
0.0
 20
1.0
 30
0.0
  9
$UCSORTHOREF
  2

  9
$UCSORTHOVIEW
 70
         0
  9
$UCSORGTOP
 10
0.0
 20
0.0
 30
0.0
  9
$UCSORGBOTTOM
 10
0.0
 20
0.0
 30
0.0
  9
$UCSORGLEFT
 10
0.0
 20
0.0
 30
0.0
  9
$UCSORGRIGHT
 10
0.0
 20
0.0
 30
0.0
  9
$UCSORGFRONT
 10
0.0
 20
0.0
 30
0.0
  9
$UCSORGBACK
 10
0.0
 20
0.0
 30
0.0
  9
$PUCSBASE
  2

  9
$PUCSNAME
  2

  9
$PUCSORG
 10
0.0
 20
0.0
 30
0.0
  9
$PUCSXDIR
 10
1.0
 20
0.0
 30
0.0
  9
$PUCSYDIR
 10
0.0
 20
1.0
 30
0.0
  9
$PUCSORTHOREF
  2

  9
$PUCSORTHOVIEW
 70
         0
  9
$PUCSORGTOP
 10
0.0
 20
0.0
 30
0.0
  9
$PUCSORGBOTTOM
 10
0.0
 20
0.0
 30
0.0
  9
$PUCSORGLEFT
 10
0.0
 20
0.0
 30
0.0
  9
$PUCSORGRIGHT
 10
0.0
 20
0.0
 30
0.0
  9
$PUCSORGFRONT
 10
0.0
 20
0.0
 30
0.0
  9
$PUCSORGBACK
 10
0.0
 20
0.0
 30
0.0
  9
$USERI1
 70
         0
  9
$USERI2
 70
         0
  9
$USERI3
 70
         0
  9
$USERI4
 70
         0
  9
$USERI5
 70
         0
  9
$USERR1
 40
0.0
  9
$USERR2
 40
0.0
  9
$USERR3
 40
0.0
  9
$USERR4
 40
0.0
  9
$USERR5
 40
0.0
  9
$WORLDVIEW
 70
         1
  9
$SHADEDGE
 70
         3
  9
$SHADEDIF
 70
        70
  9
$TILEMODE
 70
         1
  9
$MAXACTVP
 70
        16
  9
$PINSBASE
 10
0.0
 20
0.0
 30
0.0
  9
$PLIMCHECK
 70
         0
  9
$PEXTMIN
 10
1.0000000000E+20
 20
1.0000000000E+20
 30
1.0000000000E+20
  9
$PEXTMAX
 10
-1.0000000000E+20
 20
-1.0000000000E+20
 30
-1.0000000000E+20
  9
$PLIMMIN
 10
0.0
 20
0.0
  9
$PLIMMAX
 10
12.0
 20
9.0
  9
$UNITMODE
 70
         0
  9
$VISRETAIN
 70
         0
  9
$PLINEGEN
 70
         1
  9
$PSLTSCALE
 70
         0
  9
$TREEDEPTH
 70
      3020
  9
$CMLSTYLE
  2
Standard
  9
$CMLJUST
 70
         0
  9
$CMLSCALE
 40
1.0
  9
$PROXYGRAPHICS
 70
         0
  9
$MEASUREMENT
 70
         0
  9
$CELWEIGHT
370
         0
  9
$ENDCAPS
280
         0
  9
$JOINSTYLE
280
         0
  9
$LWDISPLAY
290
         0
  9
$INSUNITS
 70
         0
  9
$HYPERLINKBASE
  1

  9
$XEDIT
290
         1
  9
$CEPSNTYPE
380
         0
  9
$PSTYLEMODE
290
         0
  9
$FINGERPRINTGUID
  2

  9
$VERSIONGUID
  2

  9
$EXTNAMES
290
         1
  9
$PSVPSCALE
 40
0.0
  0
ENDSEC
  0
SECTION
  2
CLASSES
  0
CLASS
  1
LWPOLYLINE
  2
AcDbPolyline
  3
"AutoCAD"
 90
        0
280
         0
281
         1
  0
CLASS
  1
IMAGE
  2
AcDbRasterImage
  3
ISM
 90
      127
280
         0
281
         1
  0
CLASS
  1
OLE2FRAME
  2
AcDbOle2Frame
  3
""
 90
        0
280
         0
281
         1
  0
CLASS
  1
HATCH
  2
AcDbHatch
  3
"ACAD_SEDONA"
 90
        0
280
         0
281
         1
  0
CLASS
  1
DICTIONARYVAR
  2
AcDbDictionaryVar
  3
"AutoCAD"
 90
        0
280
         0
281
         0
  0
CLASS
  1
RASTERVARIABLES
  2
AcDbRasterVariables
  3
ISM
 90
        0
280
         0
281
         0
  0
CLASS
  1
IMAGEDEF
  2
AcDbRasterImageDef
  3
ISM
 90
        0
280
         0
281
         0
  0
CLASS
  1
IMAGEDEF_REACTOR
  2
AcDbRasterImageDefReactor
  3
ISM
 90
        1
280
         0
281
         0
  0
CLASS
  1
IDBUFFER
  2
AcDbIdBuffer
  3
"Acad"
 90
        0
280
         0
281
         0
  0
CLASS
  1
SPATIAL_FILTER
  2
AcDbSpatialFilter
  3
"Acad"
 90
        0
280
         0
281
         0
  0
CLASS
  1
XRECORD
  2
AcDbXrecord
  3
"<Built In>"
 90
        0
280
         0
281
         0
  0
CLASS
  1
SORTENTSTABLE
  2
AcDbSortentsTable
  3
"AutoCAD"
 90
        0
280
         0
281
         0
  0
CLASS
  1
LAYER_INDEX
  2
AcDbLayerIndex
  3
"Acad"
 90
        0
280
         0
281
         0
  0
CLASS
  1
SPATIAL_INDEX
  2
AcDbSpatialIndex
  3
"Acad"
 90
        0
280
         0
281
         0
  0
CLASS
  1
OBJECT_PTR
  2
CAseDLPNTableRecord
  3
"ASE-LPNTableRecord"
 90
        1
280
         0
281
         0
  0
CLASS
  1
LAYOUT
  2
AcDbLayout
  3
"AutoCAD 2000"
 90
        1
280
         0
281
         0
  0
CLASS
  1
PLOTSETTINGS
  2
AcDbPlotSettings
  3
"AutoCAD 2000"
 90
        1
280
         0
281
         0
  0
CLASS
  1
ACDBDICTIONARYWDFLT
  2
AcDbDictionaryWithDefault
  3
"AutoCAD 2000"
 90
        1
280
         0
281
         0
  0
CLASS
  1
ACDBPLACEHOLDER
  2
AcDbPlaceHolder
  3
"AutoCAD 2000"
 90
        1
280
         0
281
         0
  0
CLASS
  1
VBA_PROJECT
  2
AcDbVbaProject
  3
"acadvba"
 90
        1
280
         0
281
         0
  0
CLASS
  1
WIPEOUT
  2
AcDbWipeout
  3
WipeOut|AutoCAD Express Tool|expresstools@autodesk.com
 90
      127
280
         0
281
         1
  0
CLASS
  1
WIPEOUTVARIABLES
  2
AcDbWipeoutVariables
  3
WipeOut|AutoCAD Express Tool|expresstools@autodesk.com
 90
        0
280
         0
281
         0
  0
CLASS
  1
RTEXT
  2
RText
  3
RText|AutoCAD Express Tool|expresstools@autodesk.com
 90
        0
280
         0
281
         1
  0
CLASS
  1
ARCALIGNEDTEXT
  2
AcDbArcAlignedText
  3
ATEXT|AutoCAD Express Tool|expresstools@autodesk.com
 90
        0
280
         0
281
         1
  0
ENDSEC
  0
SECTION
  2
TABLES
  0
TABLE
  2
VPORT
  5
7
100
AcDbSymbolTable
 70
         1
  0
VPORT
  5
15
100
AcDbSymbolTableRecord
100
AcDbViewportTableRecord
  2
*ACTIVE
 70
         0
 10
0.0
 20
0.0
 11
1.0
 21
1.0
 12
6.591288
 22
4.579184
 13
0.0
 23
0.0
 14
1.0
 24
1.0
 15
0.0
 25
0.0
 16
0.0
 26
0.0
 36
1.0
 17
0.0
 27
0.0
 37
0.0
 40
9.158369
 41
0.688564
 42
50.0
 43
0.0
 44
0.0
 50
0.0
 51
0.0
 71
         0
 72
       100
 73
         1
 74
         1
 75
         0
 76
         0
 77
         0
 78
         0
281
         0
 65
         0
110
0.0
120
0.0
130
0.0
111
1.0
121
0.0
131
0.0
112
0.0
122
1.0
132
0.0
345
0
346
0
 79
         0
146
0.0
  0
ENDTAB
  0
TABLE
  2
LTYPE
  5
4
100
AcDbSymbolTable
 70
        13
  0
LTYPE
  5
11
100
AcDbSymbolTableRecord
100
AcDbLinetypeTableRecord
  2
ByBlock
 70
        64
  3

 72
        65
 73
         0
 40
0.0
  0
LTYPE
  5
12
100
AcDbSymbolTableRecord
100
AcDbLinetypeTableRecord
  2
ByLayer
 70
        64
  3

 72
        65
 73
         0
 40
0.0
  0
LTYPE
  5
13
100
AcDbSymbolTableRecord
100
AcDbLinetypeTableRecord
  2
Continuous
 70
        64
  3
Solid line
 72
        65
 73
         0
 40
0.0
  0
LTYPE
  5
24
100
AcDbSymbolTableRecord
100
AcDbLinetypeTableRecord
  2
DOT
 70
        64
  3
. . . . . . . . 
 72
        65
 73
         2
 40
1.0
 49
0.0
 74
         0
 49
-1.0
 74
         0
  0
LTYPE
  5
25
100
AcDbSymbolTableRecord
100
AcDbLinetypeTableRecord
  2
DASHED
 70
        64
  3
___  ___  ___  ___  
 72
        65
 73
         2
 40
4.0
 49
3.0
 74
         0
 49
-1.0
 74
         0
  0
LTYPE
  5
26
100
AcDbSymbolTableRecord
100
AcDbLinetypeTableRecord
  2
HIDDEN
 70
        64
  3
__ __ __ __ 
 72
        65
 73
         2
 40
3.0
 49
2.0
 74
         0
 49
-1.0
 74
         0
  0
LTYPE
  5
27
100
AcDbSymbolTableRecord
100
AcDbLinetypeTableRecord
  2
STITCH
 70
        64
  3
_ _ _ _ 
 72
        65
 73
         2
 40
2.0
 49
1.0
 74
         0
 49
-1.0
 74
         0
  0
LTYPE
  5
28
100
AcDbSymbolTableRecord
100
AcDbLinetypeTableRecord
  2
CENTER
 70
        64
  3
______  __  ______  __  
 72
        65
 73
         4
 40
43.0
 49
40.0
 74
         0
 49
-1.0
 74
         0
 49
1.0
 74
         0
 49
-1.0
 74
         0
  0
LTYPE
  5
29
100
AcDbSymbolTableRecord
100
AcDbLinetypeTableRecord
  2
DASHDOT
 70
        64
  3
____ . ____ . 
 72
        65
 73
         4
 40
32.0
 49
30.0
 74
         0
 49
-1.0
 74
         0
 49
0.0
 74
         0
 49
-1.0
 74
         0
  0
LTYPE
  5
2A
100
AcDbSymbolTableRecord
100
AcDbLinetypeTableRecord
  2
BORDER
 70
        64
  3
__ . __ . 
 72
        65
 73
         4
 40
22.0
 49
20.0
 74
         0
 49
-1.0
 74
         0
 49
0.0
 74
         0
 49
-1.0
 74
         0
  0
LTYPE
  5
2B
100
AcDbSymbolTableRecord
100
AcDbLinetypeTableRecord
  2
CUTTING
 70
        64
  3
________   ___   ___   
 72
        65
 73
         6
 40
45.0
 49
40.0
 74
         0
 49
-1.0
 74
         0
 49
1.0
 74
         0
 49
-1.0
 74
         0
 49
1.0
 74
         0
 49
-1.0
 74
         0
  0
LTYPE
  5
2C
100
AcDbSymbolTableRecord
100
AcDbLinetypeTableRecord
  2
PHANTOM
 70
        64
  3
______  __  __  
 72
        65
 73
         6
 40
35.0
 49
30.0
 74
         0
 49
-1.0
 74
         0
 49
1.0
 74
         0
 49
-1.0
 74
         0
 49
1.0
 74
         0
 49
-1.0
 74
         0
  0
LTYPE
  5
2D
100
AcDbSymbolTableRecord
100
AcDbLinetypeTableRecord
  2
DIVIDE
 70
        64
  3
____ . . ____ . . 
 72
        65
 73
         6
 40
23.0
 49
20.0
 74
         0
 49
-1.0
 74
         0
 49
0.0
 74
         0
 49
-1.0
 74
         0
 49
0.0
 74
         0
 49
-1.0
 74
         0
  0
ENDTAB
  0
TABLE
  2
LAYER
  5
2
100
AcDbSymbolTable
 70
         4
  0
LAYER
  5
14
100
AcDbSymbolTableRecord
100
AcDbLayerTableRecord
  2
0
 70
         0
 62
         7
  6
Continuous
290
         1
370
        -3
390
1D
  0
LAYER
  5
2E
100
AcDbSymbolTableRecord
100
AcDbLayerTableRecord
  2
LAYER3
 70
         0
 62
         7
  6
Continuous
290
         1
370
        -3
390
1F
  0
LAYER
  5
36
100
AcDbSymbolTableRecord
100
AcDbLayerTableRecord
  2
LAYER1
 70
         0
 62
         7
  6
Continuous
290
         1
370
        -3
390
1F
  0
LAYER
  5
42
100
AcDbSymbolTableRecord
100
AcDbLayerTableRecord
  2
LAYER0
 70
         0
 62
         7
  6
Continuous
290
         1
370
        -3
390
1F
  0
ENDTAB
  0
TABLE
  2
STYLE
  5
3
100
AcDbSymbolTable
 70
         1
  0
STYLE
  5
17
100
AcDbSymbolTableRecord
100
AcDbTextStyleTableRecord
  2
Standard
 70
         0
 40
0.0
 41
1.0
 50
0.0
 71
         0
 42
0.0
  3
txt
  4
extfont
  0
ENDTAB
  0
TABLE
  2
VIEW
  5
5
100
AcDbSymbolTable
 70
         0
  0
ENDTAB
  0
TABLE
  2
UCS
  5
6
100
AcDbSymbolTable
 70
         0
  0
ENDTAB
  0
TABLE
  2
APPID
  5
8
100
AcDbSymbolTable
 70
         1
  0
APPID
  5
16
100
AcDbSymbolTableRecord
100
AcDbRegAppTableRecord
  2
ACAD
 70
         0
  0
ENDTAB
  0
TABLE
  2
DIMSTYLE
  5
9
100
AcDbSymbolTable
 70
         1
100
AcDbDimStyleTable
 71
         0
  0
DIMSTYLE
105
18
100
AcDbSymbolTableRecord
100
AcDbDimStyleTableRecord
  2
Standard
 70
         0
  3

  4

 40
1.0
 41
0.18
 42
0.0625
 43
0.38
 44
0.18
 45
0.0
 46
0.0
 47
0.0
 48
0.0
 71
         0
 72
         0
 73
         1
 74
         1
 75
         0
 76
         0
 77
         0
 78
         0
 79
         0
140
0.18
141
0.09
142
0.0
143
25.4
144
1.0
145
0.0
146
1.0
147
0.09
148
0.0
170
         0
171
         2
172
         0
173
         0
174
         0
175
         0
176
         0
177
         0
178
         0
179
         0
271
         4
272
         4
273
         2
274
         2
275
         0
276
         0
277
         2
278
        46
279
         0
280
         0
281
         0
282
         0
283
         1
284
         0
285
         0
286
         0
288
         0
340
17
341
0
342
0
343
0
344
0
371
        -2
372
        -2
  0
ENDTAB
  0
TABLE
  2
BLOCK_RECORD
  5
1
100
AcDbSymbolTable
 70
        82
  0
BLOCK_RECORD
  5
A
100
AcDbSymbolTableRecord
100
AcDbBlockTableRecord
  2
*MODEL_SPACE
340
20
  0
BLOCK_RECORD
  5
B
100
AcDbSymbolTableRecord
100
AcDbBlockTableRecord
  2
*PAPER_SPACE
340
21
  0
BLOCK_RECORD
  5
3C
100
AcDbSymbolTableRecord
100
AcDbBlockTableRecord
  2
CLUMP0
340
0
  0
BLOCK_RECORD
  5
3F
100
AcDbSymbolTableRecord
100
AcDbBlockTableRecord
  2
CLUMP1
340
0
  0
BLOCK_RECORD
  5
6C
100
AcDbSymbolTableRecord
100
AcDbBlockTableRecord
  2
CLUMP2
340
0
  0
BLOCK_RECORD
  5
6F
100
AcDbSymbolTableRecord
100
AcDbBlockTableRecord
  2
CLUMP3
340
0
  0
BLOCK_RECORD
  5
7C
100
AcDbSymbolTableRecord
100
AcDbBlockTableRecord
  2
CLUMP4
340
0
  0
BLOCK_RECORD
  5
7F
100
AcDbSymbolTableRecord
100
AcDbBlockTableRecord
  2
CLUMP5
340
0
  0
BLOCK_RECORD
  5
88
100
AcDbSymbolTableRecord
100
AcDbBlockTableRecord
  2
CLUMP6
340
0
  0
BLOCK_RECORD
  5
8B
100
AcDbSymbolTableRecord
100
AcDbBlockTableRecord
  2
CLUMP7
340
0
  0
BLOCK_RECORD
  5
A3
100
AcDbSymbolTableRecord
100
AcDbBlockTableRecord
  2
CLUMP8
340
0
  0
BLOCK_RECORD
  5
A6
100
AcDbSymbolTableRecord
100
AcDbBlockTableRecord
  2
CLUMP9
340
0
  0
BLOCK_RECORD
  5
B4
100
AcDbSymbolTableRecord
100
AcDbBlockTableRecord
  2
CLUMP10
340
0
  0
BLOCK_RECORD
  5
B7
100
AcDbSymbolTableRecord
100
AcDbBlockTableRecord
  2
CLUMP11
340
0
  0
BLOCK_RECORD
  5
C1
100
AcDbSymbolTableRecord
100
AcDbBlockTableRecord
  2
CLUMP12
340
0
  0
BLOCK_RECORD
  5
C4
100
AcDbSymbolTableRecord
100
AcDbBlockTableRecord
  2
CLUMP13
340
0
  0
BLOCK_RECORD
  5
D2
100
AcDbSymbolTableRecord
100
AcDbBlockTableRecord
  2
CLUMP14
340
0
  0
BLOCK_RECORD
  5
D5
100
AcDbSymbolTableRecord
100
AcDbBlockTableRecord
  2
CLUMP15
340
0
  0
BLOCK_RECORD
  5
E3
100
AcDbSymbolTableRecord
100
AcDbBlockTableRecord
  2
CLUMP16
340
0
  0
BLOCK_RECORD
  5
E6
100
AcDbSymbolTableRecord
100
AcDbBlockTableRecord
  2
CLUMP17
340
0
  0
BLOCK_RECORD
  5
F4
100
AcDbSymbolTableRecord
100
AcDbBlockTableRecord
  2
CLUMP18
340
0
  0
BLOCK_RECORD
  5
F7
100
AcDbSymbolTableRecord
100
AcDbBlockTableRecord
  2
CLUMP19
340
0
  0
BLOCK_RECORD
  5
105
100
AcDbSymbolTableRecord
100
AcDbBlockTableRecord
  2
CLUMP20
340
0
  0
BLOCK_RECORD
  5
108
100
AcDbSymbolTableRecord
100
AcDbBlockTableRecord
  2
CLUMP21
340
0
  0
BLOCK_RECORD
  5
116
100
AcDbSymbolTableRecord
100
AcDbBlockTableRecord
  2
CLUMP22
340
0
  0
BLOCK_RECORD
  5
119
100
AcDbSymbolTableRecord
100
AcDbBlockTableRecord
  2
CLUMP23
340
0
  0
BLOCK_RECORD
  5
125
100
AcDbSymbolTableRecord
100
AcDbBlockTableRecord
  2
CLUMP24
340
0
  0
BLOCK_RECORD
  5
128
100
AcDbSymbolTableRecord
100
AcDbBlockTableRecord
  2
CLUMP25
340
0
  0
BLOCK_RECORD
  5
131
100
AcDbSymbolTableRecord
100
AcDbBlockTableRecord
  2
CLUMP26
340
0
  0
BLOCK_RECORD
  5
134
100
AcDbSymbolTableRecord
100
AcDbBlockTableRecord
  2
CLUMP27
340
0
  0
BLOCK_RECORD
  5
149
100
AcDbSymbolTableRecord
100
AcDbBlockTableRecord
  2
CLUMP28
340
0
  0
BLOCK_RECORD
  5
14C
100
AcDbSymbolTableRecord
100
AcDbBlockTableRecord
  2
CLUMP29
340
0
  0
BLOCK_RECORD
  5
1F9
100
AcDbSymbolTableRecord
100
AcDbBlockTableRecord
  2
CLUMP30
340
0
  0
BLOCK_RECORD
  5
1FC
100
AcDbSymbolTableRecord
100
AcDbBlockTableRecord
  2
CLUMP31
340
0
  0
BLOCK_RECORD
  5
209
100
AcDbSymbolTableRecord
100
AcDbBlockTableRecord
  2
CLUMP32
340
0
  0
BLOCK_RECORD
  5
20C
100
AcDbSymbolTableRecord
100
AcDbBlockTableRecord
  2
CLUMP33
340
0
  0
BLOCK_RECORD
  5
219
100
AcDbSymbolTableRecord
100
AcDbBlockTableRecord
  2
CLUMP34
340
0
  0
BLOCK_RECORD
  5
21C
100
AcDbSymbolTableRecord
100
AcDbBlockTableRecord
  2
CLUMP35
340
0
  0
BLOCK_RECORD
  5
229
100
AcDbSymbolTableRecord
100
AcDbBlockTableRecord
  2
CLUMP36
340
0
  0
BLOCK_RECORD
  5
22C
100
AcDbSymbolTableRecord
100
AcDbBlockTableRecord
  2
CLUMP37
340
0
  0
BLOCK_RECORD
  5
239
100
AcDbSymbolTableRecord
100
AcDbBlockTableRecord
  2
CLUMP38
340
0
  0
BLOCK_RECORD
  5
23C
100
AcDbSymbolTableRecord
100
AcDbBlockTableRecord
  2
CLUMP39
340
0
  0
BLOCK_RECORD
  5
24C
100
AcDbSymbolTableRecord
100
AcDbBlockTableRecord
  2
CLUMP40
340
0
  0
BLOCK_RECORD
  5
24F
100
AcDbSymbolTableRecord
100
AcDbBlockTableRecord
  2
CLUMP41
340
0
  0
BLOCK_RECORD
  5
258
100
AcDbSymbolTableRecord
100
AcDbBlockTableRecord
  2
CLUMP42
340
0
  0
BLOCK_RECORD
  5
25B
100
AcDbSymbolTableRecord
100
AcDbBlockTableRecord
  2
CLUMP43
340
0
  0
BLOCK_RECORD
  5
264
100
AcDbSymbolTableRecord
100
AcDbBlockTableRecord
  2
CLUMP44
340
0
  0
BLOCK_RECORD
  5
267
100
AcDbSymbolTableRecord
100
AcDbBlockTableRecord
  2
CLUMP45
340
0
  0
BLOCK_RECORD
  5
287
100
AcDbSymbolTableRecord
100
AcDbBlockTableRecord
  2
CLUMP46
340
0
  0
BLOCK_RECORD
  5
28A
100
AcDbSymbolTableRecord
100
AcDbBlockTableRecord
  2
CLUMP47
340
0
  0
BLOCK_RECORD
  5
299
100
AcDbSymbolTableRecord
100
AcDbBlockTableRecord
  2
CLUMP48
340
0
  0
BLOCK_RECORD
  5
29C
100
AcDbSymbolTableRecord
100
AcDbBlockTableRecord
  2
CLUMP49
340
0
  0
BLOCK_RECORD
  5
2AA
100
AcDbSymbolTableRecord
100
AcDbBlockTableRecord
  2
CLUMP50
340
0
  0
BLOCK_RECORD
  5
2AD
100
AcDbSymbolTableRecord
100
AcDbBlockTableRecord
  2
CLUMP51
340
0
  0
BLOCK_RECORD
  5
2BB
100
AcDbSymbolTableRecord
100
AcDbBlockTableRecord
  2
CLUMP52
340
0
  0
BLOCK_RECORD
  5
2BE
100
AcDbSymbolTableRecord
100
AcDbBlockTableRecord
  2
CLUMP53
340
0
  0
BLOCK_RECORD
  5
2D5
100
AcDbSymbolTableRecord
100
AcDbBlockTableRecord
  2
CLUMP54
340
0
  0
BLOCK_RECORD
  5
2D8
100
AcDbSymbolTableRecord
100
AcDbBlockTableRecord
  2
CLUMP55
340
0
  0
BLOCK_RECORD
  5
2F0
100
AcDbSymbolTableRecord
100
AcDbBlockTableRecord
  2
CLUMP56
340
0
  0
BLOCK_RECORD
  5
2F3
100
AcDbSymbolTableRecord
100
AcDbBlockTableRecord
  2
CLUMP57
340
0
  0
BLOCK_RECORD
  5
30C
100
AcDbSymbolTableRecord
100
AcDbBlockTableRecord
  2
CLUMP58
340
0
  0
BLOCK_RECORD
  5
30F
100
AcDbSymbolTableRecord
100
AcDbBlockTableRecord
  2
CLUMP59
340
0
  0
BLOCK_RECORD
  5
327
100
AcDbSymbolTableRecord
100
AcDbBlockTableRecord
  2
CLUMP60
340
0
  0
BLOCK_RECORD
  5
32A
100
AcDbSymbolTableRecord
100
AcDbBlockTableRecord
  2
CLUMP61
340
0
  0
BLOCK_RECORD
  5
338
100
AcDbSymbolTableRecord
100
AcDbBlockTableRecord
  2
CLUMP62
340
0
  0
BLOCK_RECORD
  5
33B
100
AcDbSymbolTableRecord
100
AcDbBlockTableRecord
  2
CLUMP63
340
0
  0
BLOCK_RECORD
  5
349
100
AcDbSymbolTableRecord
100
AcDbBlockTableRecord
  2
CLUMP64
340
0
  0
BLOCK_RECORD
  5
34C
100
AcDbSymbolTableRecord
100
AcDbBlockTableRecord
  2
CLUMP65
340
0
  0
BLOCK_RECORD
  5
355
100
AcDbSymbolTableRecord
100
AcDbBlockTableRecord
  2
CLUMP66
340
0
  0
BLOCK_RECORD
  5
358
100
AcDbSymbolTableRecord
100
AcDbBlockTableRecord
  2
CLUMP67
340
0
  0
BLOCK_RECORD
  5
361
100
AcDbSymbolTableRecord
100
AcDbBlockTableRecord
  2
CLUMP68
340
0
  0
BLOCK_RECORD
  5
364
100
AcDbSymbolTableRecord
100
AcDbBlockTableRecord
  2
CLUMP69
340
0
  0
BLOCK_RECORD
  5
37B
100
AcDbSymbolTableRecord
100
AcDbBlockTableRecord
  2
CLUMP70
340
0
  0
BLOCK_RECORD
  5
37E
100
AcDbSymbolTableRecord
100
AcDbBlockTableRecord
  2
CLUMP71
340
0
  0
BLOCK_RECORD
  5
38C
100
AcDbSymbolTableRecord
100
AcDbBlockTableRecord
  2
CLUMP72
340
0
  0
BLOCK_RECORD
  5
38F
100
AcDbSymbolTableRecord
100
AcDbBlockTableRecord
  2
CLUMP73
340
0
  0
BLOCK_RECORD
  5
39C
100
AcDbSymbolTableRecord
100
AcDbBlockTableRecord
  2
CLUMP74
340
0
  0
BLOCK_RECORD
  5
39F
100
AcDbSymbolTableRecord
100
AcDbBlockTableRecord
  2
CLUMP75
340
0
  0
BLOCK_RECORD
  5
3AC
100
AcDbSymbolTableRecord
100
AcDbBlockTableRecord
  2
CLUMP76
340
0
  0
BLOCK_RECORD
  5
3AF
100
AcDbSymbolTableRecord
100
AcDbBlockTableRecord
  2
CLUMP77
340
0
  0
BLOCK_RECORD
  5
3BC
100
AcDbSymbolTableRecord
100
AcDbBlockTableRecord
  2
CLUMP78
340
0
  0
BLOCK_RECORD
  5
3BF
100
AcDbSymbolTableRecord
100
AcDbBlockTableRecord
  2
CLUMP79
340
0
  0
BLOCK_RECORD
  5
3E3
100
AcDbSymbolTableRecord
100
AcDbBlockTableRecord
  2
CLUMP80
340
0
  0
BLOCK_RECORD
  5
3E6
100
AcDbSymbolTableRecord
100
AcDbBlockTableRecord
  2
CLUMP81
340
0
  0
ENDTAB
  0
ENDSEC
  0
SECTION
  2
BLOCKS
  0
BLOCK
  5
D
100
AcDbEntity
  8
0
100
AcDbBlockBegin
  2
*MODEL_SPACE
 70
         0
 10
0.0
 20
0.0
 30
0.0
  3
*MODEL_SPACE
  1

  0
ENDBLK
  5
E
100
AcDbEntity
  8
0
100
AcDbBlockEnd
  0
BLOCK
  5
F
100
AcDbEntity
 67
         1
  8
0
100
AcDbBlockBegin
  2
*PAPER_SPACE
 70
         0
 10
0.0
 20
0.0
 30
0.0
  3
*PAPER_SPACE
  1

  0
ENDBLK
  5
10
100
AcDbEntity
 67
         1
  8
0
100
AcDbBlockEnd
  0
BLOCK
  5
3E
100
AcDbEntity
  8
0
100
AcDbBlockBegin
  2
CLUMP0
 70
         0
 10
0.0
 20
0.0
 30
0.0
  3

  1

  0
INSERT
  5
40
100
AcDbEntity
  8
0
100
AcDbBlockReference
  2
CLUMP1
 10
0.0
 20
0.0
 30
0.0
  0
ENDBLK
  5
6B
100
AcDbEntity
  8
0
100
AcDbBlockEnd
  0
BLOCK
  5
41
100
AcDbEntity
  8
0
100
AcDbBlockBegin
  2
CLUMP1
 70
         0
 10
0.0
 20
0.0
 30
0.0
  3

  1

  0
LINE
  5
43
100
AcDbEntity
  8
LAYER0
 62
         3
100
AcDbLine
 10
33.1646461364
 20
37.9651915731
 30
0.0
 11
33.1670790713
 21
37.9545127332
 31
0.0
  0
LINE
  5
44
100
AcDbEntity
  8
LAYER0
 62
         3
100
AcDbLine
 10
33.1670790713
 20
37.9545127332
 30
0.0
 11
33.1711877087
 21
37.9445215164
 31
0.0
  0
LINE
  5
45
100
AcDbEntity
  8
LAYER0
 62
         3
100
AcDbLine
 10
33.1711877087
 20
37.9445215164
 30
0.0
 11
33.1768765848
 21
37.935338664
 31
0.0
  0
LINE
  5
46
100
AcDbEntity
  8
LAYER0
 62
         3
100
AcDbLine
 10
33.1768765848
 20
37.935338664
 30
0.0
 11
33.1839148277
 21
37.9273030447
 31
0.0
  0
LINE
  5
47
100
AcDbEntity
  8
LAYER0
 62
         3
100
AcDbLine
 10
33.1839148277
 20
37.9273030447
 30
0.0
 11
33.1921670389
 21
37.9205194592
 31
0.0
  0
LINE
  5
48
100
AcDbEntity
  8
LAYER0
 62
         3
100
AcDbLine
 10
33.1921670389
 20
37.9205194592
 30
0.0
 11
33.201354904
 21
37.9152089756
 31
0.0
  0
LINE
  5
49
100
AcDbEntity
  8
LAYER0
 62
         3
100
AcDbLine
 10
33.201354904
 20
37.9152089756
 30
0.0
 11
33.2112787094
 21
37.9114595532
 31
0.0
  0
LINE
  5
4A
100
AcDbEntity
  8
LAYER0
 62
         3
100
AcDbLine
 10
33.2112787094
 20
37.9114595532
 30
0.0
 11
33.2201412959
 21
37.9095774548
 31
0.0
  0
LINE
  5
4B
100
AcDbEntity
  8
LAYER0
 62
         3
100
AcDbLine
 10
33.2201412959
 20
37.9095774548
 30
0.0
 11
33.2291740727
 21
37.9089449822
 31
0.0
  0
LINE
  5
4C
100
AcDbEntity
  8
LAYER0
 62
         3
100
AcDbLine
 10
33.2291740727
 20
37.9089449822
 30
0.0
 11
33.2373220333
 21
37.9094573758
 31
0.0
  0
LINE
  5
4D
100
AcDbEntity
  8
LAYER0
 62
         3
100
AcDbLine
 10
33.2373220333
 20
37.9094573758
 30
0.0
 11
33.2453436952
 21
37.9109901666
 31
0.0
  0
LINE
  5
4E
100
AcDbEntity
  8
LAYER0
 62
         3
100
AcDbLine
 10
33.2453436952
 20
37.9109901666
 30
0.0
 11
33.2554184459
 21
37.9144904207
 31
0.0
  0
LINE
  5
4F
100
AcDbEntity
  8
LAYER0
 62
         3
100
AcDbLine
 10
33.2554184459
 20
37.9144904207
 30
0.0
 11
33.2647952985
 21
37.9195881366
 31
0.0
  0
LINE
  5
50
100
AcDbEntity
  8
LAYER0
 62
         3
100
AcDbLine
 10
33.2647952985
 20
37.9195881366
 30
0.0
 11
33.2732741493
 21
37.926208456
 31
0.0
  0
LINE
  5
51
100
AcDbEntity
  8
LAYER0
 62
         3
100
AcDbLine
 10
33.2732741493
 20
37.926208456
 30
0.0
 11
33.2805523452
 21
37.9341279446
 31
0.0
  0
LINE
  5
52
100
AcDbEntity
  8
LAYER0
 62
         3
100
AcDbLine
 10
33.2805523452
 20
37.9341279446
 30
0.0
 11
33.2864804714
 21
37.9432269563
 31
0.0
  0
LINE
  5
53
100
AcDbEntity
  8
LAYER0
 62
         3
100
AcDbLine
 10
33.2864804714
 20
37.9432269563
 30
0.0
 11
33.2908294898
 21
37.9531790792
 31
0.0
  0
LINE
  5
54
100
AcDbEntity
  8
LAYER0
 62
         3
100
AcDbLine
 10
33.2908294898
 20
37.9531790792
 30
0.0
 11
33.2934918823
 21
37.9638168401
 31
0.0
  0
LINE
  5
55
100
AcDbEntity
  8
LAYER0
 62
         3
100
AcDbLine
 10
33.2934918823
 20
37.9638168401
 30
0.0
 11
33.2943536144
 21
37.9747485101
 31
0.0
  0
LINE
  5
56
100
AcDbEntity
  8
LAYER0
 62
         3
100
AcDbLine
 10
33.2943536144
 20
37.9747485101
 30
0.0
 11
33.2933653226
 21
37.9857722596
 31
0.0
  0
LINE
  5
57
100
AcDbEntity
  8
LAYER0
 62
         3
100
AcDbLine
 10
33.2933653226
 20
37.9857722596
 30
0.0
 11
33.2905454364
 21
37.9964781284
 31
0.0
  0
LINE
  5
58
100
AcDbEntity
  8
LAYER0
 62
         3
100
AcDbLine
 10
33.2905454364
 20
37.9964781284
 30
0.0
 11
33.2859123066
 21
38.0066511613
 31
0.0
  0
LINE
  5
59
100
AcDbEntity
  8
LAYER0
 62
         3
100
AcDbLine
 10
33.2859123066
 20
38.0066511613
 30
0.0
 11
33.2796247479
 21
38.0158831655
 31
0.0
  0
LINE
  5
5A
100
AcDbEntity
  8
LAYER0
 62
         3
100
AcDbLine
 10
33.2796247479
 20
38.0158831655
 30
0.0
 11
33.2717775022
 21
38.0239613038
 31
0.0
  0
LINE
  5
5B
100
AcDbEntity
  8
LAYER0
 62
         3
100
AcDbLine
 10
33.2717775022
 20
38.0239613038
 30
0.0
 11
33.2626523253
 21
38.0306092381
 31
0.0
  0
LINE
  5
5C
100
AcDbEntity
  8
LAYER0
 62
         3
100
AcDbLine
 10
33.2626523253
 20
38.0306092381
 30
0.0
 11
33.2524295103
 21
38.0356629899
 31
0.0
  0
LINE
  5
5D
100
AcDbEntity
  8
LAYER0
 62
         3
100
AcDbLine
 10
33.2524295103
 20
38.0356629899
 30
0.0
 11
33.2415122341
 21
38.0387266456
 31
0.0
  0
LINE
  5
5E
100
AcDbEntity
  8
LAYER0
 62
         3
100
AcDbLine
 10
33.2415122341
 20
38.0387266456
 30
0.0
 11
33.2291647595
 21
38.039911288
 31
0.0
  0
LINE
  5
5F
100
AcDbEntity
  8
LAYER0
 62
         3
100
AcDbLine
 10
33.2291647595
 20
38.039911288
 30
0.0
 11
33.2187590923
 21
38.0390693724
 31
0.0
  0
LINE
  5
60
100
AcDbEntity
  8
LAYER0
 62
         3
100
AcDbLine
 10
33.2187590923
 20
38.0390693724
 30
0.0
 11
33.20812685
 21
38.0364399422
 31
0.0
  0
LINE
  5
61
100
AcDbEntity
  8
LAYER0
 62
         3
100
AcDbLine
 10
33.20812685
 20
38.0364399422
 30
0.0
 11
33.1981042203
 21
38.0319913208
 31
0.0
  0
LINE
  5
62
100
AcDbEntity
  8
LAYER0
 62
         3
100
AcDbLine
 10
33.1981042203
 20
38.0319913208
 30
0.0
 11
33.1972772058
 21
38.0315331101
 31
0.0
  0
LINE
  5
63
100
AcDbEntity
  8
LAYER0
 62
         3
100
AcDbLine
 10
33.1972772058
 20
38.0315331101
 30
0.0
 11
33.1879140499
 21
38.0251108708
 31
0.0
  0
LINE
  5
64
100
AcDbEntity
  8
LAYER0
 62
         3
100
AcDbLine
 10
33.1879140499
 20
38.0251108708
 30
0.0
 11
33.179775792
 21
38.0171423137
 31
0.0
  0
LINE
  5
65
100
AcDbEntity
  8
LAYER0
 62
         3
100
AcDbLine
 10
33.179775792
 20
38.0171423137
 30
0.0
 11
33.1732096742
 21
38.0079874675
 31
0.0
  0
LINE
  5
66
100
AcDbEntity
  8
LAYER0
 62
         3
100
AcDbLine
 10
33.1732096742
 20
38.0079874675
 30
0.0
 11
33.1683102798
 21
37.9978527605
 31
0.0
  0
LINE
  5
67
100
AcDbEntity
  8
LAYER0
 62
         3
100
AcDbLine
 10
33.1683102798
 20
37.9978527605
 30
0.0
 11
33.1652449555
 21
37.9871718641
 31
0.0
  0
LINE
  5
68
100
AcDbEntity
  8
LAYER0
 62
         3
100
AcDbLine
 10
33.1652449555
 20
37.9871718641
 30
0.0
 11
33.1640159514
 21
37.9761268675
 31
0.0
  0
LINE
  5
69
100
AcDbEntity
  8
LAYER0
 62
         3
100
AcDbLine
 10
33.1640159514
 20
37.9761268675
 30
0.0
 11
33.1646461364
 21
37.9651915731
 31
0.0
  0
ENDBLK
  5
6A
100
AcDbEntity
  8
0
100
AcDbBlockEnd
  0
BLOCK
  5
6E
100
AcDbEntity
  8
0
100
AcDbBlockBegin
  2
CLUMP2
 70
         0
 10
0.0
 20
0.0
 30
0.0
  3

  1

  0
INSERT
  5
70
100
AcDbEntity
  8
0
100
AcDbBlockReference
  2
CLUMP3
 10
0.0
 20
0.0
 30
0.0
  0
ENDBLK
  5
7B
100
AcDbEntity
  8
0
100
AcDbBlockEnd
  0
BLOCK
  5
71
100
AcDbEntity
  8
0
100
AcDbBlockBegin
  2
CLUMP3
 70
         0
 10
0.0
 20
0.0
 30
0.0
  3

  1

  0
LINE
  5
72
100
AcDbEntity
  8
LAYER0
 62
         3
100
AcDbLine
 10
29.9791730743
 20
21.1662237822
 30
0.0
 11
29.9760272272
 21
21.3168596275
 31
0.0
  0
LINE
  5
73
100
AcDbEntity
  8
LAYER0
 62
         3
100
AcDbLine
 10
29.9760272272
 20
21.3168596275
 30
0.0
 11
29.9702677678
 21
21.4625147461
 31
0.0
  0
LINE
  5
74
100
AcDbEntity
  8
LAYER0
 62
         3
100
AcDbLine
 10
29.9702677678
 20
21.4625147461
 30
0.0
 11
29.9655386946
 21
21.5335707601
 31
0.0
  0
LINE
  5
75
100
AcDbEntity
  8
LAYER0
 62
         3
100
AcDbLine
 10
29.9655386946
 20
21.5335707601
 30
0.0
 11
29.9595664191
 21
21.6013876404
 31
0.0
  0
LINE
  5
76
100
AcDbEntity
  8
LAYER0
 62
         3
100
AcDbLine
 10
29.9595664191
 20
21.6013876404
 30
0.0
 11
29.9524786455
 21
21.6653387707
 31
0.0
  0
LINE
  5
77
100
AcDbEntity
  8
LAYER0
 62
         3
100
AcDbLine
 10
29.9524786455
 20
21.6653387707
 30
0.0
 11
29.9444030773
 21
21.7247975349
 31
0.0
  0
LINE
  5
78
100
AcDbEntity
  8
LAYER0
 62
         3
100
AcDbLine
 10
29.9444030773
 20
21.7247975349
 30
0.0
 11
29.9315315867
 21
21.8016590486
 31
0.0
  0
LINE
  5
79
100
AcDbEntity
  8
LAYER0
 62
         3
100
AcDbLine
 10
29.9315315867
 20
21.8016590486
 30
0.0
 11
29.9177877408
 21
21.8733285844
 31
0.0
  0
ENDBLK
  5
7A
100
AcDbEntity
  8
0
100
AcDbBlockEnd
  0
BLOCK
  5
7E
100
AcDbEntity
  8
0
100
AcDbBlockBegin
  2
CLUMP4
 70
         0
 10
0.0
 20
0.0
 30
0.0
  3

  1

  0
INSERT
  5
80
100
AcDbEntity
  8
0
100
AcDbBlockReference
  2
CLUMP5
 10
0.0
 20
0.0
 30
0.0
  0
ENDBLK
  5
87
100
AcDbEntity
  8
0
100
AcDbBlockEnd
  0
BLOCK
  5
81
100
AcDbEntity
  8
0
100
AcDbBlockBegin
  2
CLUMP5
 70
         0
 10
0.0
 20
0.0
 30
0.0
  3

  1

  0
LINE
  5
82
100
AcDbEntity
  8
LAYER0
 62
         3
100
AcDbLine
 10
29.9177877408
 20
21.8733285844
 30
0.0
 11
29.9461167108
 21
22.7300335943
 31
0.0
  0
LINE
  5
83
100
AcDbEntity
  8
LAYER0
 62
         3
100
AcDbLine
 10
29.9461167108
 20
22.7300335943
 30
0.0
 11
29.9630040608
 21
23.1470245022
 31
0.0
  0
LINE
  5
84
100
AcDbEntity
  8
LAYER0
 62
         3
100
AcDbLine
 10
29.9630040608
 20
23.1470245022
 30
0.0
 11
29.9823488843
 21
23.5463043033
 31
0.0
  0
LINE
  5
85
100
AcDbEntity
  8
LAYER0
 62
         3
100
AcDbLine
 10
29.9823488843
 20
23.5463043033
 30
0.0
 11
30.0169493806
 21
24.1339874744
 31
0.0
  0
ENDBLK
  5
86
100
AcDbEntity
  8
0
100
AcDbBlockEnd
  0
BLOCK
  5
8A
100
AcDbEntity
  8
0
100
AcDbBlockBegin
  2
CLUMP6
 70
         0
 10
0.0
 20
0.0
 30
0.0
  3

  1

  0
INSERT
  5
8C
100
AcDbEntity
  8
0
100
AcDbBlockReference
  2
CLUMP7
 10
0.0
 20
0.0
 30
0.0
  0
ENDBLK
  5
A2
100
AcDbEntity
  8
0
100
AcDbBlockEnd
  0
BLOCK
  5
8D
100
AcDbEntity
  8
0
100
AcDbBlockBegin
  2
CLUMP7
 70
         0
 10
0.0
 20
0.0
 30
0.0
  3

  1

  0
LINE
  5
8E
100
AcDbEntity
  8
LAYER0
 62
         3
100
AcDbLine
 10
30.1361512195
 20
31.6804346918
 30
0.0
 11
30.1358736854
 21
31.7941901564
 31
0.0
  0
LINE
  5
8F
100
AcDbEntity
  8
LAYER0
 62
         3
100
AcDbLine
 10
30.1358736854
 20
31.7941901564
 30
0.0
 11
30.1340203535
 21
31.9946219503
 31
0.0
  0
LINE
  5
90
100
AcDbEntity
  8
LAYER0
 62
         3
100
AcDbLine
 10
30.1340203535
 20
31.9946219503
 30
0.0
 11
30.130395646
 21
32.1910006284
 31
0.0
  0
LINE
  5
91
100
AcDbEntity
  8
LAYER0
 62
         3
100
AcDbLine
 10
30.130395646
 20
32.1910006284
 30
0.0
 11
30.1292352181
 21
32.2380920231
 31
0.0
  0
LINE
  5
92
100
AcDbEntity
  8
LAYER0
 62
         3
100
AcDbLine
 10
30.1292352181
 20
32.2380920231
 30
0.0
 11
30.1263733687
 21
32.3376506448
 31
0.0
  0
LINE
  5
93
100
AcDbEntity
  8
LAYER0
 62
         3
100
AcDbLine
 10
30.1263733687
 20
32.3376506448
 30
0.0
 11
30.1231350552
 21
32.431311655
 31
0.0
  0
LINE
  5
94
100
AcDbEntity
  8
LAYER0
 62
         3
100
AcDbLine
 10
30.1231350552
 20
32.431311655
 30
0.0
 11
30.1194676157
 21
32.5212004947
 31
0.0
  0
LINE
  5
95
100
AcDbEntity
  8
LAYER0
 62
         3
100
AcDbLine
 10
30.1194676157
 20
32.5212004947
 30
0.0
 11
30.1155373257
 21
32.6041576743
 31
0.0
  0
LINE
  5
96
100
AcDbEntity
  8
LAYER0
 62
         3
100
AcDbLine
 10
30.1155373257
 20
32.6041576743
 30
0.0
 11
30.1105926581
 21
32.6942328834
 31
0.0
  0
LINE
  5
97
100
AcDbEntity
  8
LAYER0
 62
         3
100
AcDbLine
 10
30.1105926581
 20
32.6942328834
 30
0.0
 11
30.1054864925
 21
32.7746716618
 31
0.0
  0
LINE
  5
98
100
AcDbEntity
  8
LAYER0
 62
         3
100
AcDbLine
 10
30.1054864925
 20
32.7746716618
 30
0.0
 11
30.1002066783
 21
32.8474914213
 31
0.0
  0
LINE
  5
99
100
AcDbEntity
  8
LAYER0
 62
         3
100
AcDbLine
 10
30.1002066783
 20
32.8474914213
 30
0.0
 11
30.0950370532
 21
32.9108421981
 31
0.0
  0
LINE
  5
9A
100
AcDbEntity
  8
LAYER0
 62
         3
100
AcDbLine
 10
30.0950370532
 20
32.9108421981
 30
0.0
 11
30.0906639392
 21
32.9594045699
 31
0.0
  0
LINE
  5
9B
100
AcDbEntity
  8
LAYER0
 62
         3
100
AcDbLine
 10
30.0906639392
 20
32.9594045699
 30
0.0
 11
30.0865310554
 21
33.0014913984
 31
0.0
  0
LINE
  5
9C
100
AcDbEntity
  8
LAYER0
 62
         3
100
AcDbLine
 10
30.0865310554
 20
33.0014913984
 30
0.0
 11
30.0790890854
 21
33.0691148817
 31
0.0
  0
LINE
  5
9D
100
AcDbEntity
  8
LAYER0
 62
         3
100
AcDbLine
 10
30.0790890854
 20
33.0691148817
 30
0.0
 11
30.07298808
 21
33.1184605598
 31
0.0
  0
LINE
  5
9E
100
AcDbEntity
  8
LAYER0
 62
         3
100
AcDbLine
 10
30.07298808
 20
33.1184605598
 30
0.0
 11
30.0709979668
 21
33.1335398865
 31
0.0
  0
LINE
  5
9F
100
AcDbEntity
  8
LAYER0
 62
         3
100
AcDbLine
 10
30.0709979668
 20
33.1335398865
 30
0.0
 11
30.0700086903
 21
33.1408006429
 31
0.0
  0
LINE
  5
A0
100
AcDbEntity
  8
LAYER0
 62
         3
100
AcDbLine
 10
30.0700086903
 20
33.1408006429
 30
0.0
 11
30.0703700435
 21
33.1381296098
 31
0.0
  0
ENDBLK
  5
A1
100
AcDbEntity
  8
0
100
AcDbBlockEnd
  0
BLOCK
  5
A5
100
AcDbEntity
  8
0
100
AcDbBlockBegin
  2
CLUMP8
 70
         0
 10
0.0
 20
0.0
 30
0.0
  3

  1

  0
INSERT
  5
A7
100
AcDbEntity
  8
0
100
AcDbBlockReference
  2
CLUMP9
 10
0.0
 20
0.0
 30
0.0
  0
ENDBLK
  5
B3
100
AcDbEntity
  8
0
100
AcDbBlockEnd
  0
BLOCK
  5
A8
100
AcDbEntity
  8
0
100
AcDbBlockBegin
  2
CLUMP9
 70
         0
 10
0.0
 20
0.0
 30
0.0
  3

  1

  0
LINE
  5
A9
100
AcDbEntity
  8
LAYER0
 62
         3
100
AcDbLine
 10
30.7291737916
 20
41.9891385567
 30
0.0
 11
30.7387811514
 21
41.9321886086
 31
0.0
  0
LINE
  5
AA
100
AcDbEntity
  8
LAYER0
 62
         3
100
AcDbLine
 10
30.7387811514
 20
41.9321886086
 30
0.0
 11
30.7672340253
 21
41.8774272151
 31
0.0
  0
LINE
  5
AB
100
AcDbEntity
  8
LAYER0
 62
         3
100
AcDbLine
 10
30.7672340253
 20
41.8774272151
 30
0.0
 11
30.8134389854
 21
41.8269588257
 31
0.0
  0
LINE
  5
AC
100
AcDbEntity
  8
LAYER0
 62
         3
100
AcDbLine
 10
30.8134389854
 20
41.8269588257
 30
0.0
 11
30.875620401
 21
41.7827229125
 31
0.0
  0
LINE
  5
AD
100
AcDbEntity
  8
LAYER0
 62
         3
100
AcDbLine
 10
30.875620401
 20
41.7827229125
 30
0.0
 11
30.9513886751
 21
41.7464194367
 31
0.0
  0
LINE
  5
AE
100
AcDbEntity
  8
LAYER0
 62
         3
100
AcDbLine
 10
30.9513886751
 20
41.7464194367
 30
0.0
 11
31.0378320754
 21
41.7194435206
 31
0.0
  0
LINE
  5
AF
100
AcDbEntity
  8
LAYER0
 62
         3
100
AcDbLine
 10
31.0378320754
 20
41.7194435206
 30
0.0
 11
31.1316286306
 21
41.7028318335
 31
0.0
  0
LINE
  5
B0
100
AcDbEntity
  8
LAYER0
 62
         3
100
AcDbLine
 10
31.1316286306
 20
41.7028318335
 30
0.0
 11
31.2291737916
 21
41.6972227532
 31
0.0
  0
LINE
  5
B1
100
AcDbEntity
  8
LAYER0
 62
         3
100
AcDbLine
 10
31.2291737916
 20
41.6972227532
 30
0.0
 11
30.7291737916
 21
41.9891385567
 31
0.0
  0
ENDBLK
  5
B2
100
AcDbEntity
  8
0
100
AcDbBlockEnd
  0
BLOCK
  5
B6
100
AcDbEntity
  8
0
100
AcDbBlockBegin
  2
CLUMP10
 70
         0
 10
0.0
 20
0.0
 30
0.0
  3

  1

  0
INSERT
  5
B8
100
AcDbEntity
  8
0
100
AcDbBlockReference
  2
CLUMP11
 10
0.0
 20
0.0
 30
0.0
  0
ENDBLK
  5
C0
100
AcDbEntity
  8
0
100
AcDbBlockEnd
  0
BLOCK
  5
B9
100
AcDbEntity
  8
0
100
AcDbBlockBegin
  2
CLUMP11
 70
         0
 10
0.0
 20
0.0
 30
0.0
  3

  1

  0
LINE
  5
BA
100
AcDbEntity
  8
LAYER0
 62
         3
100
AcDbLine
 10
34.887465882
 20
41.408584395
 30
0.0
 11
34.7423752073
 21
41.5317573644
 31
0.0
  0
LINE
  5
BB
100
AcDbEntity
  8
LAYER0
 62
         3
100
AcDbLine
 10
34.7423752073
 20
41.5317573644
 30
0.0
 11
34.5807683063
 21
41.6226835899
 31
0.0
  0
LINE
  5
BC
100
AcDbEntity
  8
LAYER0
 62
         3
100
AcDbLine
 10
34.5807683063
 20
41.6226835899
 30
0.0
 11
34.4078461314
 21
41.6784368166
 31
0.0
  0
LINE
  5
BD
100
AcDbEntity
  8
LAYER0
 62
         3
100
AcDbLine
 10
34.4078461314
 20
41.6784368166
 30
0.0
 11
34.2291737916
 21
41.6972227532
 31
0.0
  0
LINE
  5
BE
100
AcDbEntity
  8
LAYER0
 62
         3
100
AcDbLine
 10
34.2291737916
 20
41.6972227532
 30
0.0
 11
34.887465882
 21
41.408584395
 31
0.0
  0
ENDBLK
  5
BF
100
AcDbEntity
  8
0
100
AcDbBlockEnd
  0
BLOCK
  5
C3
100
AcDbEntity
  8
0
100
AcDbBlockBegin
  2
CLUMP12
 70
         0
 10
0.0
 20
0.0
 30
0.0
  3

  1

  0
INSERT
  5
C5
100
AcDbEntity
  8
0
100
AcDbBlockReference
  2
CLUMP13
 10
0.0
 20
0.0
 30
0.0
  0
ENDBLK
  5
D1
100
AcDbEntity
  8
0
100
AcDbBlockEnd
  0
BLOCK
  5
C6
100
AcDbEntity
  8
0
100
AcDbBlockBegin
  2
CLUMP13
 70
         0
 10
0.0
 20
0.0
 30
0.0
  3

  1

  0
LINE
  5
C7
100
AcDbEntity
  8
LAYER0
 62
         3
100
AcDbLine
 10
30.2291737916
 20
41.9891385567
 30
0.0
 11
30.2483885112
 21
41.8752386605
 31
0.0
  0
LINE
  5
C8
100
AcDbEntity
  8
LAYER0
 62
         3
100
AcDbLine
 10
30.2483885112
 20
41.8752386605
 30
0.0
 11
30.3052942591
 21
41.7657158734
 31
0.0
  0
LINE
  5
C9
100
AcDbEntity
  8
LAYER0
 62
         3
100
AcDbLine
 10
30.3052942591
 20
41.7657158734
 30
0.0
 11
30.3977041793
 21
41.6647790948
 31
0.0
  0
LINE
  5
CA
100
AcDbEntity
  8
LAYER0
 62
         3
100
AcDbLine
 10
30.3977041793
 20
41.6647790948
 30
0.0
 11
30.5220670104
 21
41.5763072683
 31
0.0
  0
LINE
  5
CB
100
AcDbEntity
  8
LAYER0
 62
         3
100
AcDbLine
 10
30.5220670104
 20
41.5763072683
 30
0.0
 11
30.6736035586
 21
41.5037003168
 31
0.0
  0
LINE
  5
CC
100
AcDbEntity
  8
LAYER0
 62
         3
100
AcDbLine
 10
30.6736035586
 20
41.5037003168
 30
0.0
 11
30.8464903592
 21
41.4497484846
 31
0.0
  0
LINE
  5
CD
100
AcDbEntity
  8
LAYER0
 62
         3
100
AcDbLine
 10
30.8464903592
 20
41.4497484846
 30
0.0
 11
31.0340834696
 21
41.4165251103
 31
0.0
  0
LINE
  5
CE
100
AcDbEntity
  8
LAYER0
 62
         3
100
AcDbLine
 10
31.0340834696
 20
41.4165251103
 30
0.0
 11
31.2291737916
 21
41.4053069497
 31
0.0
  0
LINE
  5
CF
100
AcDbEntity
  8
LAYER0
 62
         3
100
AcDbLine
 10
31.2291737916
 20
41.4053069497
 30
0.0
 11
30.2291737916
 21
41.9891385567
 31
0.0
  0
ENDBLK
  5
D0
100
AcDbEntity
  8
0
100
AcDbBlockEnd
  0
BLOCK
  5
D4
100
AcDbEntity
  8
0
100
AcDbBlockBegin
  2
CLUMP14
 70
         0
 10
0.0
 20
0.0
 30
0.0
  3

  1

  0
INSERT
  5
D6
100
AcDbEntity
  8
0
100
AcDbBlockReference
  2
CLUMP15
 10
0.0
 20
0.0
 30
0.0
  0
ENDBLK
  5
E2
100
AcDbEntity
  8
0
100
AcDbBlockEnd
  0
BLOCK
  5
D7
100
AcDbEntity
  8
0
100
AcDbBlockBegin
  2
CLUMP15
 70
         0
 10
0.0
 20
0.0
 30
0.0
  3

  1

  0
LINE
  5
D8
100
AcDbEntity
  8
LAYER0
 62
         3
100
AcDbLine
 10
35.2291737916
 20
41.408584395
 30
0.0
 11
35.3267189526
 21
41.414194182
 31
0.0
  0
LINE
  5
D9
100
AcDbEntity
  8
LAYER0
 62
         3
100
AcDbLine
 10
35.3267189526
 20
41.414194182
 30
0.0
 11
35.4205155078
 21
41.4308079619
 31
0.0
  0
LINE
  5
DA
100
AcDbEntity
  8
LAYER0
 62
         3
100
AcDbLine
 10
35.4205155078
 20
41.4308079619
 30
0.0
 11
35.5069589081
 21
41.4577872765
 31
0.0
  0
LINE
  5
DB
100
AcDbEntity
  8
LAYER0
 62
         3
100
AcDbLine
 10
35.5069589081
 20
41.4577872765
 30
0.0
 11
35.5827271822
 21
41.4940953259
 31
0.0
  0
LINE
  5
DC
100
AcDbEntity
  8
LAYER0
 62
         3
100
AcDbLine
 10
35.5827271822
 20
41.4940953259
 30
0.0
 11
35.6449085978
 21
41.5383368121
 31
0.0
  0
LINE
  5
DD
100
AcDbEntity
  8
LAYER0
 62
         3
100
AcDbLine
 10
35.6449085978
 20
41.5383368121
 30
0.0
 11
35.6911135579
 21
41.5888115595
 31
0.0
  0
LINE
  5
DE
100
AcDbEntity
  8
LAYER0
 62
         3
100
AcDbLine
 10
35.6911135579
 20
41.5888115595
 30
0.0
 11
35.7195664318
 21
41.6435798521
 31
0.0
  0
LINE
  5
DF
100
AcDbEntity
  8
LAYER0
 62
         3
100
AcDbLine
 10
35.7195664318
 20
41.6435798521
 30
0.0
 11
35.7291737916
 21
41.7005369749
 31
0.0
  0
LINE
  5
E0
100
AcDbEntity
  8
LAYER0
 62
         3
100
AcDbLine
 10
35.7291737916
 20
41.7005369749
 30
0.0
 11
35.2291737916
 21
41.408584395
 31
0.0
  0
ENDBLK
  5
E1
100
AcDbEntity
  8
0
100
AcDbBlockEnd
  0
BLOCK
  5
E5
100
AcDbEntity
  8
0
100
AcDbBlockBegin
  2
CLUMP16
 70
         0
 10
0.0
 20
0.0
 30
0.0
  3

  1

  0
INSERT
  5
E7
100
AcDbEntity
  8
0
100
AcDbBlockReference
  2
CLUMP17
 10
0.0
 20
0.0
 30
0.0
  0
ENDBLK
  5
F3
100
AcDbEntity
  8
0
100
AcDbBlockEnd
  0
BLOCK
  5
E8
100
AcDbEntity
  8
0
100
AcDbBlockBegin
  2
CLUMP17
 70
         0
 10
0.0
 20
0.0
 30
0.0
  3

  1

  0
LINE
  5
E9
100
AcDbEntity
  8
LAYER0
 62
         3
100
AcDbLine
 10
32.2291737916
 20
41.408584395
 30
0.0
 11
32.0340834696
 21
41.3861493522
 31
0.0
  0
LINE
  5
EA
100
AcDbEntity
  8
LAYER0
 62
         3
100
AcDbLine
 10
32.0340834696
 20
41.3861493522
 30
0.0
 11
31.8464903593
 21
41.3197063897
 31
0.0
  0
LINE
  5
EB
100
AcDbEntity
  8
LAYER0
 62
         3
100
AcDbLine
 10
31.8464903593
 20
41.3197063897
 30
0.0
 11
31.6736035586
 21
41.2118088736
 31
0.0
  0
LINE
  5
EC
100
AcDbEntity
  8
LAYER0
 62
         3
100
AcDbLine
 10
31.6736035586
 20
41.2118088736
 30
0.0
 11
31.5220670104
 21
41.0666032446
 31
0.0
  0
LINE
  5
ED
100
AcDbEntity
  8
LAYER0
 62
         3
100
AcDbLine
 10
31.5220670104
 20
41.0666032446
 30
0.0
 11
31.3977041793
 21
40.8896696738
 31
0.0
  0
LINE
  5
EE
100
AcDbEntity
  8
LAYER0
 62
         3
100
AcDbLine
 10
31.3977041793
 20
40.8896696738
 30
0.0
 11
31.3052942591
 21
40.6878076191
 31
0.0
  0
LINE
  5
EF
100
AcDbEntity
  8
LAYER0
 62
         3
100
AcDbLine
 10
31.3052942591
 20
40.6878076191
 30
0.0
 11
31.2483885112
 21
40.4687745259
 31
0.0
  0
LINE
  5
F0
100
AcDbEntity
  8
LAYER0
 62
         3
100
AcDbLine
 10
31.2483885112
 20
40.4687745259
 30
0.0
 11
31.2291737916
 21
40.2409877133
 31
0.0
  0
LINE
  5
F1
100
AcDbEntity
  8
LAYER0
 62
         3
100
AcDbLine
 10
31.2291737916
 20
40.2409877133
 30
0.0
 11
32.2291737916
 21
41.408584395
 31
0.0
  0
ENDBLK
  5
F2
100
AcDbEntity
  8
0
100
AcDbBlockEnd
  0
BLOCK
  5
F6
100
AcDbEntity
  8
0
100
AcDbBlockBegin
  2
CLUMP18
 70
         0
 10
0.0
 20
0.0
 30
0.0
  3

  1

  0
INSERT
  5
F8
100
AcDbEntity
  8
0
100
AcDbBlockReference
  2
CLUMP19
 10
0.0
 20
0.0
 30
0.0
  0
ENDBLK
  5
104
100
AcDbEntity
  8
0
100
AcDbBlockEnd
  0
BLOCK
  5
F9
100
AcDbEntity
  8
0
100
AcDbBlockBegin
  2
CLUMP19
 70
         0
 10
0.0
 20
0.0
 30
0.0
  3

  1

  0
LINE
  5
FA
100
AcDbEntity
  8
LAYER0
 62
         3
100
AcDbLine
 10
32.2291737916
 20
41.1166318151
 30
0.0
 11
32.0340834696
 21
41.0941967723
 31
0.0
  0
LINE
  5
FB
100
AcDbEntity
  8
LAYER0
 62
         3
100
AcDbLine
 10
32.0340834696
 20
41.0941967723
 30
0.0
 11
31.8464903593
 21
41.0277538098
 31
0.0
  0
LINE
  5
FC
100
AcDbEntity
  8
LAYER0
 62
         3
100
AcDbLine
 10
31.8464903593
 20
41.0277538098
 30
0.0
 11
31.6736035586
 21
40.9198562937
 31
0.0
  0
LINE
  5
FD
100
AcDbEntity
  8
LAYER0
 62
         3
100
AcDbLine
 10
31.6736035586
 20
40.9198562937
 30
0.0
 11
31.5220670104
 21
40.7746506647
 31
0.0
  0
LINE
  5
FE
100
AcDbEntity
  8
LAYER0
 62
         3
100
AcDbLine
 10
31.5220670104
 20
40.7746506647
 30
0.0
 11
31.3977041793
 21
40.5977170939
 31
0.0
  0
LINE
  5
FF
100
AcDbEntity
  8
LAYER0
 62
         3
100
AcDbLine
 10
31.3977041793
 20
40.5977170939
 30
0.0
 11
31.3052942591
 21
40.3958550392
 31
0.0
  0
LINE
  5
100
100
AcDbEntity
  8
LAYER0
 62
         3
100
AcDbLine
 10
31.3052942591
 20
40.3958550392
 30
0.0
 11
31.2483885112
 21
40.176821946
 31
0.0
  0
LINE
  5
101
100
AcDbEntity
  8
LAYER0
 62
         3
100
AcDbLine
 10
31.2483885112
 20
40.176821946
 30
0.0
 11
31.2291737916
 21
39.9490351334
 31
0.0
  0
LINE
  5
102
100
AcDbEntity
  8
LAYER0
 62
         3
100
AcDbLine
 10
31.2291737916
 20
39.9490351334
 30
0.0
 11
32.2291737916
 21
41.1166318151
 31
0.0
  0
ENDBLK
  5
103
100
AcDbEntity
  8
0
100
AcDbBlockEnd
  0
BLOCK
  5
107
100
AcDbEntity
  8
0
100
AcDbBlockBegin
  2
CLUMP20
 70
         0
 10
0.0
 20
0.0
 30
0.0
  3

  1

  0
INSERT
  5
109
100
AcDbEntity
  8
0
100
AcDbBlockReference
  2
CLUMP21
 10
0.0
 20
0.0
 30
0.0
  0
ENDBLK
  5
115
100
AcDbEntity
  8
0
100
AcDbBlockEnd
  0
BLOCK
  5
10A
100
AcDbEntity
  8
0
100
AcDbBlockBegin
  2
CLUMP21
 70
         0
 10
0.0
 20
0.0
 30
0.0
  3

  1

  0
LINE
  5
10B
100
AcDbEntity
  8
LAYER0
 62
         3
100
AcDbLine
 10
35.2291737916
 20
41.1166318151
 30
0.0
 11
35.4242641136
 21
41.127851389
 31
0.0
  0
LINE
  5
10C
100
AcDbEntity
  8
LAYER0
 62
         3
100
AcDbLine
 10
35.4242641136
 20
41.127851389
 30
0.0
 11
35.611857224
 21
41.1610789488
 31
0.0
  0
LINE
  5
10D
100
AcDbEntity
  8
LAYER0
 62
         3
100
AcDbLine
 10
35.611857224
 20
41.1610789488
 30
0.0
 11
35.7847440246
 21
41.2150375781
 31
0.0
  0
LINE
  5
10E
100
AcDbEntity
  8
LAYER0
 62
         3
100
AcDbLine
 10
35.7847440246
 20
41.2150375781
 30
0.0
 11
35.9362805728
 21
41.2876536768
 31
0.0
  0
LINE
  5
10F
100
AcDbEntity
  8
LAYER0
 62
         3
100
AcDbLine
 10
35.9362805728
 20
41.2876536768
 30
0.0
 11
36.0606434039
 21
41.3761366492
 31
0.0
  0
LINE
  5
110
100
AcDbEntity
  8
LAYER0
 62
         3
100
AcDbLine
 10
36.0606434039
 20
41.3761366492
 30
0.0
 11
36.1530533241
 21
41.4770861442
 31
0.0
  0
LINE
  5
111
100
AcDbEntity
  8
LAYER0
 62
         3
100
AcDbLine
 10
36.1530533241
 20
41.4770861442
 30
0.0
 11
36.209959072
 21
41.5866227292
 31
0.0
  0
LINE
  5
112
100
AcDbEntity
  8
LAYER0
 62
         3
100
AcDbLine
 10
36.209959072
 20
41.5866227292
 30
0.0
 11
36.2291737916
 21
41.7005369749
 31
0.0
  0
LINE
  5
113
100
AcDbEntity
  8
LAYER0
 62
         3
100
AcDbLine
 10
36.2291737916
 20
41.7005369749
 30
0.0
 11
35.2291737916
 21
41.1166318151
 31
0.0
  0
ENDBLK
  5
114
100
AcDbEntity
  8
0
100
AcDbBlockEnd
  0
BLOCK
  5
118
100
AcDbEntity
  8
0
100
AcDbBlockBegin
  2
CLUMP22
 70
         0
 10
0.0
 20
0.0
 30
0.0
  3

  1

  0
INSERT
  5
11A
100
AcDbEntity
  8
0
100
AcDbBlockReference
  2
CLUMP23
 10
0.0
 20
0.0
 30
0.0
  0
ENDBLK
  5
124
100
AcDbEntity
  8
0
100
AcDbBlockEnd
  0
BLOCK
  5
11B
100
AcDbEntity
  8
0
100
AcDbBlockBegin
  2
CLUMP23
 70
         0
 10
0.0
 20
0.0
 30
0.0
  3

  1

  0
LINE
  5
11C
100
AcDbEntity
  8
LAYER0
 62
         3
100
AcDbLine
 10
36.5405594733
 20
21.8733285844
 30
0.0
 11
36.519841151
 21
21.7561246519
 31
0.0
  0
LINE
  5
11D
100
AcDbEntity
  8
LAYER0
 62
         3
100
AcDbLine
 10
36.519841151
 20
21.7561246519
 30
0.0
 11
36.5102990096
 21
21.6935708304
 31
0.0
  0
LINE
  5
11E
100
AcDbEntity
  8
LAYER0
 62
         3
100
AcDbLine
 10
36.5102990096
 20
21.6935708304
 30
0.0
 11
36.5017372918
 21
21.6262747824
 31
0.0
  0
LINE
  5
11F
100
AcDbEntity
  8
LAYER0
 62
         3
100
AcDbLine
 10
36.5017372918
 20
21.6262747824
 30
0.0
 11
36.4946748551
 21
21.5557936298
 31
0.0
  0
LINE
  5
120
100
AcDbEntity
  8
LAYER0
 62
         3
100
AcDbLine
 10
36.4946748551
 20
21.5557936298
 30
0.0
 11
36.488904901
 21
21.4806095676
 31
0.0
  0
LINE
  5
121
100
AcDbEntity
  8
LAYER0
 62
         3
100
AcDbLine
 10
36.488904901
 20
21.4806095676
 30
0.0
 11
36.4815434244
 21
21.3208717584
 31
0.0
  0
LINE
  5
122
100
AcDbEntity
  8
LAYER0
 62
         3
100
AcDbLine
 10
36.4815434244
 20
21.3208717584
 30
0.0
 11
36.4791741397
 21
21.1662237822
 31
0.0
  0
ENDBLK
  5
123
100
AcDbEntity
  8
0
100
AcDbBlockEnd
  0
BLOCK
  5
127
100
AcDbEntity
  8
0
100
AcDbBlockBegin
  2
CLUMP24
 70
         0
 10
0.0
 20
0.0
 30
0.0
  3

  1

  0
INSERT
  5
129
100
AcDbEntity
  8
0
100
AcDbBlockReference
  2
CLUMP25
 10
0.0
 20
0.0
 30
0.0
  0
ENDBLK
  5
130
100
AcDbEntity
  8
0
100
AcDbBlockEnd
  0
BLOCK
  5
12A
100
AcDbEntity
  8
0
100
AcDbBlockBegin
  2
CLUMP25
 70
         0
 10
0.0
 20
0.0
 30
0.0
  3

  1

  0
LINE
  5
12B
100
AcDbEntity
  8
LAYER0
 62
         3
100
AcDbLine
 10
36.4413978335
 20
24.1339874744
 30
0.0
 11
36.4759992611
 21
23.5463043033
 31
0.0
  0
LINE
  5
12C
100
AcDbEntity
  8
LAYER0
 62
         3
100
AcDbLine
 10
36.4759992611
 20
23.5463043033
 30
0.0
 11
36.4953129813
 21
23.1477044801
 31
0.0
  0
LINE
  5
12D
100
AcDbEntity
  8
LAYER0
 62
         3
100
AcDbLine
 10
36.4953129813
 20
23.1477044801
 30
0.0
 11
36.5121764865
 21
22.731441754
 31
0.0
  0
LINE
  5
12E
100
AcDbEntity
  8
LAYER0
 62
         3
100
AcDbLine
 10
36.5121764865
 20
22.731441754
 30
0.0
 11
36.5405594733
 21
21.8733285844
 31
0.0
  0
ENDBLK
  5
12F
100
AcDbEntity
  8
0
100
AcDbBlockEnd
  0
BLOCK
  5
133
100
AcDbEntity
  8
0
100
AcDbBlockBegin
  2
CLUMP26
 70
         0
 10
0.0
 20
0.0
 30
0.0
  3

  1

  0
INSERT
  5
135
100
AcDbEntity
  8
0
100
AcDbBlockReference
  2
CLUMP27
 10
0.0
 20
0.0
 30
0.0
  0
ENDBLK
  5
148
100
AcDbEntity
  8
0
100
AcDbBlockEnd
  0
BLOCK
  5
136
100
AcDbEntity
  8
0
100
AcDbBlockBegin
  2
CLUMP27
 70
         0
 10
0.0
 20
0.0
 30
0.0
  3

  1

  0
LINE
  5
137
100
AcDbEntity
  8
LAYER0
 62
         3
100
AcDbLine
 10
36.3879762393
 20
33.1381296098
 30
0.0
 11
36.3874537673
 21
33.1342813849
 31
0.0
  0
LINE
  5
138
100
AcDbEntity
  8
LAYER0
 62
         3
100
AcDbLine
 10
36.3874537673
 20
33.1342813849
 30
0.0
 11
36.3859418953
 21
33.1229140936
 31
0.0
  0
LINE
  5
139
100
AcDbEntity
  8
LAYER0
 62
         3
100
AcDbLine
 10
36.3859418953
 20
33.1229140936
 30
0.0
 11
36.3835764214
 21
33.1045325007
 31
0.0
  0
LINE
  5
13A
100
AcDbEntity
  8
LAYER0
 62
         3
100
AcDbLine
 10
36.3835764214
 20
33.1045325007
 30
0.0
 11
36.3770145726
 21
33.0495943605
 31
0.0
  0
LINE
  5
13B
100
AcDbEntity
  8
LAYER0
 62
         3
100
AcDbLine
 10
36.3770145726
 20
33.0495943605
 30
0.0
 11
36.3716623673
 21
32.9998001184
 31
0.0
  0
LINE
  5
13C
100
AcDbEntity
  8
LAYER0
 62
         3
100
AcDbLine
 10
36.3716623673
 20
32.9998001184
 30
0.0
 11
36.3657884102
 21
32.9387893259
 31
0.0
  0
LINE
  5
13D
100
AcDbEntity
  8
LAYER0
 62
         3
100
AcDbLine
 10
36.3657884102
 20
32.9387893259
 30
0.0
 11
36.3593335085
 21
32.8627994054
 31
0.0
  0
LINE
  5
13E
100
AcDbEntity
  8
LAYER0
 62
         3
100
AcDbLine
 10
36.3593335085
 20
32.8627994054
 30
0.0
 11
36.3526670065
 21
32.7717957377
 31
0.0
  0
LINE
  5
13F
100
AcDbEntity
  8
LAYER0
 62
         3
100
AcDbLine
 10
36.3526670065
 20
32.7717957377
 30
0.0
 11
36.3485774239
 21
32.7078529263
 31
0.0
  0
LINE
  5
140
100
AcDbEntity
  8
LAYER0
 62
         3
100
AcDbLine
 10
36.3485774239
 20
32.7078529263
 30
0.0
 11
36.3445760764
 21
32.637768349
 31
0.0
  0
LINE
  5
141
100
AcDbEntity
  8
LAYER0
 62
         3
100
AcDbLine
 10
36.3445760764
 20
32.637768349
 30
0.0
 11
36.3407251701
 21
32.5615020309
 31
0.0
  0
LINE
  5
142
100
AcDbEntity
  8
LAYER0
 62
         3
100
AcDbLine
 10
36.3407251701
 20
32.5615020309
 30
0.0
 11
36.3370869111
 21
32.4790139973
 31
0.0
  0
LINE
  5
143
100
AcDbEntity
  8
LAYER0
 62
         3
100
AcDbLine
 10
36.3370869111
 20
32.4790139973
 30
0.0
 11
36.3310063061
 21
32.306141901
 31
0.0
  0
LINE
  5
144
100
AcDbEntity
  8
LAYER0
 62
         3
100
AcDbLine
 10
36.3310063061
 20
32.306141901
 30
0.0
 11
36.3261746045
 21
32.1072225749
 31
0.0
  0
LINE
  5
145
100
AcDbEntity
  8
LAYER0
 62
         3
100
AcDbLine
 10
36.3261746045
 20
32.1072225749
 30
0.0
 11
36.3232521143
 21
31.9022347509
 31
0.0
  0
LINE
  5
146
100
AcDbEntity
  8
LAYER0
 62
         3
100
AcDbLine
 10
36.3232521143
 20
31.9022347509
 30
0.0
 11
36.3221969258
 21
31.6804346918
 31
0.0
  0
ENDBLK
  5
147
100
AcDbEntity
  8
0
100
AcDbBlockEnd
  0
BLOCK
  5
14B
100
AcDbEntity
  8
0
100
AcDbBlockBegin
  2
CLUMP28
 70
         0
 10
0.0
 20
0.0
 30
0.0
  3

  1

  0
INSERT
  5
14D
100
AcDbEntity
  8
0
100
AcDbBlockReference
  2
CLUMP29
 10
0.0
 20
0.0
 30
0.0
  0
ENDBLK
  5
176
100
AcDbEntity
  8
0
100
AcDbBlockEnd
  0
BLOCK
  5
14E
100
AcDbEntity
  8
0
100
AcDbBlockBegin
  2
CLUMP29
 70
         0
 10
0.0
 20
0.0
 30
0.0
  3

  1

  0
LINE
  5
14F
100
AcDbEntity
  8
LAYER0
 62
         3
100
AcDbLine
 10
33.2869647981
 20
18.0046992587
 30
0.0
 11
33.2809537452
 21
18.0141960561
 31
0.0
  0
LINE
  5
150
100
AcDbEntity
  8
LAYER0
 62
         3
100
AcDbLine
 10
33.2809537452
 20
18.0141960561
 30
0.0
 11
33.2733188293
 21
18.0226007417
 31
0.0
  0
LINE
  5
151
100
AcDbEntity
  8
LAYER0
 62
         3
100
AcDbLine
 10
33.2733188293
 20
18.0226007417
 30
0.0
 11
33.2643417444
 21
18.0295591533
 31
0.0
  0
LINE
  5
152
100
AcDbEntity
  8
LAYER0
 62
         3
100
AcDbLine
 10
33.2643417444
 20
18.0295591533
 30
0.0
 11
33.254224004
 21
18.0348732175
 31
0.0
  0
LINE
  5
153
100
AcDbEntity
  8
LAYER0
 62
         3
100
AcDbLine
 10
33.254224004
 20
18.0348732175
 30
0.0
 11
33.2433506649
 21
18.0383433878
 31
0.0
  0
LINE
  5
154
100
AcDbEntity
  8
LAYER0
 62
         3
100
AcDbLine
 10
33.2433506649
 20
18.0383433878
 30
0.0
 11
33.2363058811
 21
18.0395210384
 31
0.0
  0
LINE
  5
155
100
AcDbEntity
  8
LAYER0
 62
         3
100
AcDbLine
 10
33.2363058811
 20
18.0395210384
 30
0.0
 11
33.2291740727
 21
18.039911735
 31
0.0
  0
LINE
  5
156
100
AcDbEntity
  8
LAYER0
 62
         3
100
AcDbLine
 10
33.2291740727
 20
18.039911735
 30
0.0
 11
33.2178277588
 21
18.0389043207
 31
0.0
  0
LINE
  5
157
100
AcDbEntity
  8
LAYER0
 62
         3
100
AcDbLine
 10
33.2178277588
 20
18.0389043207
 30
0.0
 11
33.2068148803
 21
18.0359368503
 31
0.0
  0
LINE
  5
158
100
AcDbEntity
  8
LAYER0
 62
         3
100
AcDbLine
 10
33.2068148803
 20
18.0359368503
 30
0.0
 11
33.1965590931
 21
18.0311214245
 31
0.0
  0
LINE
  5
159
100
AcDbEntity
  8
LAYER0
 62
         3
100
AcDbLine
 10
33.1965590931
 20
18.0311214245
 30
0.0
 11
33.1872952905
 21
18.0246045172
 31
0.0
  0
LINE
  5
15A
100
AcDbEntity
  8
LAYER0
 62
         3
100
AcDbLine
 10
33.1872952905
 20
18.0246045172
 30
0.0
 11
33.1793624909
 21
18.0166528002
 31
0.0
  0
LINE
  5
15B
100
AcDbEntity
  8
LAYER0
 62
         3
100
AcDbLine
 10
33.1793624909
 20
18.0166528002
 30
0.0
 11
33.1729017001
 21
18.0074644565
 31
0.0
  0
LINE
  5
15C
100
AcDbEntity
  8
LAYER0
 62
         3
100
AcDbLine
 10
33.1729017001
 20
18.0074644565
 30
0.0
 11
33.1681443257
 21
17.9974067537
 31
0.0
  0
LINE
  5
15D
100
AcDbEntity
  8
LAYER0
 62
         3
100
AcDbLine
 10
33.1681443257
 20
17.9974067537
 30
0.0
 11
33.1651484396
 21
17.9866922378
 31
0.0
  0
LINE
  5
15E
100
AcDbEntity
  8
LAYER0
 62
         3
100
AcDbLine
 10
33.1651484396
 20
17.9866922378
 30
0.0
 11
33.1640086387
 21
17.975727981
 31
0.0
  0
LINE
  5
15F
100
AcDbEntity
  8
LAYER0
 62
         3
100
AcDbLine
 10
33.1640086387
 20
17.975727981
 30
0.0
 11
33.1647116494
 21
17.9647279262
 31
0.0
  0
LINE
  5
160
100
AcDbEntity
  8
LAYER0
 62
         3
100
AcDbLine
 10
33.1647116494
 20
17.9647279262
 30
0.0
 11
33.167213144
 21
17.9541037931
 31
0.0
  0
LINE
  5
161
100
AcDbEntity
  8
LAYER0
 62
         3
100
AcDbLine
 10
33.167213144
 20
17.9541037931
 30
0.0
 11
33.1714357983
 21
17.9440376639
 31
0.0
  0
LINE
  5
162
100
AcDbEntity
  8
LAYER0
 62
         3
100
AcDbLine
 10
33.1714357983
 20
17.9440376639
 30
0.0
 11
33.1772116022
 21
17.9348923941
 31
0.0
  0
LINE
  5
163
100
AcDbEntity
  8
LAYER0
 62
         3
100
AcDbLine
 10
33.1772116022
 20
17.9348923941
 30
0.0
 11
33.1844091218
 21
17.9268268227
 31
0.0
  0
LINE
  5
164
100
AcDbEntity
  8
LAYER0
 62
         3
100
AcDbLine
 10
33.1844091218
 20
17.9268268227
 30
0.0
 11
33.1927588569
 21
17.9201271407
 31
0.0
  0
LINE
  5
165
100
AcDbEntity
  8
LAYER0
 62
         3
100
AcDbLine
 10
33.1927588569
 20
17.9201271407
 30
0.0
 11
33.2020986628
 21
17.9148611903
 31
0.0
  0
LINE
  5
166
100
AcDbEntity
  8
LAYER0
 62
         3
100
AcDbLine
 10
33.2020986628
 20
17.9148611903
 30
0.0
 11
33.2121080197
 21
17.9111930207
 31
0.0
  0
LINE
  5
167
100
AcDbEntity
  8
LAYER0
 62
         3
100
AcDbLine
 10
33.2121080197
 20
17.9111930207
 30
0.0
 11
33.2225542318
 21
17.9092844307
 31
0.0
  0
LINE
  5
168
100
AcDbEntity
  8
LAYER0
 62
         3
100
AcDbLine
 10
33.2225542318
 20
17.9092844307
 30
0.0
 11
33.2291740727
 21
17.9089454293
 31
0.0
  0
LINE
  5
169
100
AcDbEntity
  8
LAYER0
 62
         3
100
AcDbLine
 10
33.2291740727
 20
17.9089454293
 30
0.0
 11
33.2436347183
 21
17.9105771064
 31
0.0
  0
LINE
  5
16A
100
AcDbEntity
  8
LAYER0
 62
         3
100
AcDbLine
 10
33.2436347183
 20
17.9105771064
 30
0.0
 11
33.2537385429
 21
17.9137077744
 31
0.0
  0
LINE
  5
16B
100
AcDbEntity
  8
LAYER0
 62
         3
100
AcDbLine
 10
33.2537385429
 20
17.9137077744
 30
0.0
 11
33.2631990116
 21
17.9185753047
 31
0.0
  0
LINE
  5
16C
100
AcDbEntity
  8
LAYER0
 62
         3
100
AcDbLine
 10
33.2631990116
 20
17.9185753047
 30
0.0
 11
33.2717980874
 21
17.9249057273
 31
0.0
  0
LINE
  5
16D
100
AcDbEntity
  8
LAYER0
 62
         3
100
AcDbLine
 10
33.2717980874
 20
17.9249057273
 30
0.0
 11
33.2792550128
 21
17.9325116157
 31
0.0
  0
LINE
  5
16E
100
AcDbEntity
  8
LAYER0
 62
         3
100
AcDbLine
 10
33.2792550128
 20
17.9325116157
 30
0.0
 11
33.2854270743
 21
17.9413423057
 31
0.0
  0
LINE
  5
16F
100
AcDbEntity
  8
LAYER0
 62
         3
100
AcDbLine
 10
33.2854270743
 20
17.9413423057
 30
0.0
 11
33.2900713932
 21
17.9510747373
 31
0.0
  0
LINE
  5
170
100
AcDbEntity
  8
LAYER0
 62
         3
100
AcDbLine
 10
33.2900713932
 20
17.9510747373
 30
0.0
 11
33.2930863005
 21
17.961579296
 31
0.0
  0
LINE
  5
171
100
AcDbEntity
  8
LAYER0
 62
         3
100
AcDbLine
 10
33.2930863005
 20
17.961579296
 30
0.0
 11
33.2943238121
 21
17.9724355518
 31
0.0
  0
LINE
  5
172
100
AcDbEntity
  8
LAYER0
 62
         3
100
AcDbLine
 10
33.2943238121
 20
17.9724355518
 30
0.0
 11
33.2937211521
 21
17.9835047535
 31
0.0
  0
LINE
  5
173
100
AcDbEntity
  8
LAYER0
 62
         3
100
AcDbLine
 10
33.2937211521
 20
17.9835047535
 30
0.0
 11
33.291271868
 21
17.994317907
 31
0.0
  0
LINE
  5
174
100
AcDbEntity
  8
LAYER0
 62
         3
100
AcDbLine
 10
33.291271868
 20
17.994317907
 30
0.0
 11
33.2869647981
 21
18.0046992587
 31
0.0
  0
ENDBLK
  5
175
100
AcDbEntity
  8
0
100
AcDbBlockEnd
  0
BLOCK
  5
1FB
100
AcDbEntity
  8
0
100
AcDbBlockBegin
  2
CLUMP30
 70
         0
 10
0.0
 20
0.0
 30
0.0
  3

  1

  0
INSERT
  5
1FD
100
AcDbEntity
  8
0
100
AcDbBlockReference
  2
CLUMP31
 10
0.0
 20
0.0
 30
0.0
  0
ENDBLK
  5
208
100
AcDbEntity
  8
0
100
AcDbBlockEnd
  0
BLOCK
  5
1FE
100
AcDbEntity
  8
0
100
AcDbBlockBegin
  2
CLUMP31
 70
         0
 10
0.0
 20
0.0
 30
0.0
  3

  1

  0
LINE
  5
1FF
100
AcDbEntity
  8
LAYER1
 62
         3
100
AcDbLine
 10
-26.6131224514
 20
22.2268809854
 30
0.0
 11
-26.5655085848
 21
22.1705881237
 31
0.0
  0
LINE
  5
200
100
AcDbEntity
  8
LAYER1
 62
         3
100
AcDbLine
 10
-26.5655085848
 20
22.1705881237
 30
0.0
 11
-26.5189359368
 21
22.1155246078
 31
0.0
  0
LINE
  5
201
100
AcDbEntity
  8
LAYER1
 62
         3
100
AcDbLine
 10
-26.5189359368
 20
22.1155246078
 30
0.0
 11
-26.474422443
 21
22.0628974318
 31
0.0
  0
LINE
  5
202
100
AcDbEntity
  8
LAYER1
 62
         3
100
AcDbLine
 10
-26.474422443
 20
22.0628974318
 30
0.0
 11
-26.4329413355
 21
22.013853985
 31
0.0
  0
LINE
  5
203
100
AcDbEntity
  8
LAYER1
 62
         3
100
AcDbLine
 10
-26.4329413355
 20
22.013853985
 30
0.0
 11
-26.3953997225
 21
21.9694671511
 31
0.0
  0
LINE
  5
204
100
AcDbEntity
  8
LAYER1
 62
         3
100
AcDbLine
 10
-26.3953997225
 20
21.9694671511
 30
0.0
 11
-26.3626180992
 21
21.9307129561
 31
0.0
  0
LINE
  5
205
100
AcDbEntity
  8
LAYER1
 62
         3
100
AcDbLine
 10
-26.3626180992
 20
21.9307129561
 30
0.0
 11
-26.335313584
 21
21.8984295904
 31
0.0
  0
LINE
  5
206
100
AcDbEntity
  8
LAYER1
 62
         3
100
AcDbLine
 10
-26.335313584
 20
21.8984295904
 30
0.0
 11
-26.3140831546
 21
21.8733285844
 31
0.0
  0
ENDBLK
  5
207
100
AcDbEntity
  8
0
100
AcDbBlockEnd
  0
BLOCK
  5
20B
100
AcDbEntity
  8
0
100
AcDbBlockBegin
  2
CLUMP32
 70
         0
 10
0.0
 20
0.0
 30
0.0
  3

  1

  0
INSERT
  5
20D
100
AcDbEntity
  8
0
100
AcDbBlockReference
  2
CLUMP33
 10
0.0
 20
0.0
 30
0.0
  0
ENDBLK
  5
218
100
AcDbEntity
  8
0
100
AcDbBlockEnd
  0
BLOCK
  5
20E
100
AcDbEntity
  8
0
100
AcDbBlockBegin
  2
CLUMP33
 70
         0
 10
0.0
 20
0.0
 30
0.0
  3

  1

  0
LINE
  5
20F
100
AcDbEntity
  8
LAYER1
 62
         3
100
AcDbLine
 10
-23.5620442715
 20
24.4875436007
 30
0.0
 11
-23.5320547533
 21
24.4359185278
 31
0.0
  0
LINE
  5
210
100
AcDbEntity
  8
LAYER1
 62
         3
100
AcDbLine
 10
-23.5320547533
 20
24.4359185278
 30
0.0
 11
-23.502494342
 21
24.3850347876
 31
0.0
  0
LINE
  5
211
100
AcDbEntity
  8
LAYER1
 62
         3
100
AcDbLine
 10
-23.502494342
 20
24.3850347876
 30
0.0
 11
-23.4737858579
 21
24.3356150865
 31
0.0
  0
LINE
  5
212
100
AcDbEntity
  8
LAYER1
 62
         3
100
AcDbLine
 10
-23.4737858579
 20
24.3356150865
 30
0.0
 11
-23.4463404802
 21
24.2883709549
 31
0.0
  0
LINE
  5
213
100
AcDbEntity
  8
LAYER1
 62
         3
100
AcDbLine
 10
-23.4463404802
 20
24.2883709549
 30
0.0
 11
-23.4205505283
 21
24.2439766704
 31
0.0
  0
LINE
  5
214
100
AcDbEntity
  8
LAYER1
 62
         3
100
AcDbLine
 10
-23.4205505283
 20
24.2439766704
 30
0.0
 11
-23.3967852716
 21
24.2030692577
 31
0.0
  0
LINE
  5
215
100
AcDbEntity
  8
LAYER1
 62
         3
100
AcDbLine
 10
-23.3967852716
 20
24.2030692577
 30
0.0
 11
-23.3753844102
 21
24.1662298619
 31
0.0
  0
LINE
  5
216
100
AcDbEntity
  8
LAYER1
 62
         3
100
AcDbLine
 10
-23.3753844102
 20
24.1662298619
 30
0.0
 11
-23.3566543491
 21
24.1339874744
 31
0.0
  0
ENDBLK
  5
217
100
AcDbEntity
  8
0
100
AcDbBlockEnd
  0
BLOCK
  5
21B
100
AcDbEntity
  8
0
100
AcDbBlockBegin
  2
CLUMP34
 70
         0
 10
0.0
 20
0.0
 30
0.0
  3

  1

  0
INSERT
  5
21D
100
AcDbEntity
  8
0
100
AcDbBlockReference
  2
CLUMP35
 10
0.0
 20
0.0
 30
0.0
  0
ENDBLK
  5
228
100
AcDbEntity
  8
0
100
AcDbBlockEnd
  0
BLOCK
  5
21E
100
AcDbEntity
  8
0
100
AcDbBlockBegin
  2
CLUMP35
 70
         0
 10
0.0
 20
0.0
 30
0.0
  3

  1

  0
LINE
  5
21F
100
AcDbEntity
  8
LAYER1
 62
         3
100
AcDbLine
 10
-15.8140069277
 20
21.8733285844
 30
0.0
 11
-15.7927764983
 21
21.8984295904
 31
0.0
  0
LINE
  5
220
100
AcDbEntity
  8
LAYER1
 62
         3
100
AcDbLine
 10
-15.7927764983
 20
21.8984295904
 30
0.0
 11
-15.765471983
 21
21.9307129561
 31
0.0
  0
LINE
  5
221
100
AcDbEntity
  8
LAYER1
 62
         3
100
AcDbLine
 10
-15.765471983
 20
21.9307129561
 30
0.0
 11
-15.7326903597
 21
21.9694671511
 31
0.0
  0
LINE
  5
222
100
AcDbEntity
  8
LAYER1
 62
         3
100
AcDbLine
 10
-15.7326903597
 20
21.9694671511
 30
0.0
 11
-15.6951487468
 21
22.013853985
 31
0.0
  0
LINE
  5
223
100
AcDbEntity
  8
LAYER1
 62
         3
100
AcDbLine
 10
-15.6951487468
 20
22.013853985
 30
0.0
 11
-15.6536676393
 21
22.0628974318
 31
0.0
  0
LINE
  5
224
100
AcDbEntity
  8
LAYER1
 62
         3
100
AcDbLine
 10
-15.6536676393
 20
22.0628974318
 30
0.0
 11
-15.6091541455
 21
22.1155246078
 31
0.0
  0
LINE
  5
225
100
AcDbEntity
  8
LAYER1
 62
         3
100
AcDbLine
 10
-15.6091541455
 20
22.1155246078
 30
0.0
 11
-15.5625814975
 21
22.1705881237
 31
0.0
  0
LINE
  5
226
100
AcDbEntity
  8
LAYER1
 62
         3
100
AcDbLine
 10
-15.5625814975
 20
22.1705881237
 30
0.0
 11
-15.5149676309
 21
22.2268809854
 31
0.0
  0
ENDBLK
  5
227
100
AcDbEntity
  8
0
100
AcDbBlockEnd
  0
BLOCK
  5
22B
100
AcDbEntity
  8
0
100
AcDbBlockBegin
  2
CLUMP36
 70
         0
 10
0.0
 20
0.0
 30
0.0
  3

  1

  0
INSERT
  5
22D
100
AcDbEntity
  8
0
100
AcDbBlockReference
  2
CLUMP37
 10
0.0
 20
0.0
 30
0.0
  0
ENDBLK
  5
238
100
AcDbEntity
  8
0
100
AcDbBlockEnd
  0
BLOCK
  5
22E
100
AcDbEntity
  8
0
100
AcDbBlockBegin
  2
CLUMP37
 70
         0
 10
0.0
 20
0.0
 30
0.0
  3

  1

  0
LINE
  5
22F
100
AcDbEntity
  8
LAYER1
 62
         3
100
AcDbLine
 10
-18.7714357332
 20
24.1339874744
 30
0.0
 11
-18.7527056721
 21
24.1662298619
 31
0.0
  0
LINE
  5
230
100
AcDbEntity
  8
LAYER1
 62
         3
100
AcDbLine
 10
-18.7527056721
 20
24.1662298619
 30
0.0
 11
-18.7313048107
 21
24.2030692577
 31
0.0
  0
LINE
  5
231
100
AcDbEntity
  8
LAYER1
 62
         3
100
AcDbLine
 10
-18.7313048107
 20
24.2030692577
 30
0.0
 11
-18.707539554
 21
24.2439766704
 31
0.0
  0
LINE
  5
232
100
AcDbEntity
  8
LAYER1
 62
         3
100
AcDbLine
 10
-18.707539554
 20
24.2439766704
 30
0.0
 11
-18.6817496021
 21
24.2883709549
 31
0.0
  0
LINE
  5
233
100
AcDbEntity
  8
LAYER1
 62
         3
100
AcDbLine
 10
-18.6817496021
 20
24.2883709549
 30
0.0
 11
-18.6543042243
 21
24.3356150865
 31
0.0
  0
LINE
  5
234
100
AcDbEntity
  8
LAYER1
 62
         3
100
AcDbLine
 10
-18.6543042243
 20
24.3356150865
 30
0.0
 11
-18.6255957403
 21
24.3850347876
 31
0.0
  0
LINE
  5
235
100
AcDbEntity
  8
LAYER1
 62
         3
100
AcDbLine
 10
-18.6255957403
 20
24.3850347876
 30
0.0
 11
-18.596035329
 21
24.4359185278
 31
0.0
  0
LINE
  5
236
100
AcDbEntity
  8
LAYER1
 62
         3
100
AcDbLine
 10
-18.596035329
 20
24.4359185278
 30
0.0
 11
-18.5660458107
 21
24.4875436007
 31
0.0
  0
ENDBLK
  5
237
100
AcDbEntity
  8
0
100
AcDbBlockEnd
  0
BLOCK
  5
23B
100
AcDbEntity
  8
0
100
AcDbBlockBegin
  2
CLUMP38
 70
         0
 10
0.0
 20
0.0
 30
0.0
  3

  1

  0
INSERT
  5
23D
100
AcDbEntity
  8
0
100
AcDbBlockReference
  2
CLUMP39
 10
0.0
 20
0.0
 30
0.0
  0
ENDBLK
  5
24B
100
AcDbEntity
  8
0
100
AcDbBlockEnd
  0
BLOCK
  5
23E
100
AcDbEntity
  8
0
100
AcDbBlockBegin
  2
CLUMP39
 70
         0
 10
0.0
 20
0.0
 30
0.0
  3

  1

  0
LINE
  5
23F
100
AcDbEntity
  8
LAYER0
 62
         3
100
AcDbLine
 10
-22.6731854661
 20
32.7030455052
 30
0.0
 11
-22.8156766991
 21
32.5969715483
 31
0.0
  0
LINE
  5
240
100
AcDbEntity
  8
LAYER0
 62
         3
100
AcDbLine
 10
-22.8156766991
 20
32.5969715483
 30
0.0
 11
-22.8833302938
 21
32.5402209467
 31
0.0
  0
LINE
  5
241
100
AcDbEntity
  8
LAYER0
 62
         3
100
AcDbLine
 10
-22.8833302938
 20
32.5402209467
 30
0.0
 11
-22.9466734624
 21
32.4790139973
 31
0.0
  0
LINE
  5
242
100
AcDbEntity
  8
LAYER0
 62
         3
100
AcDbLine
 10
-22.9466734624
 20
32.4790139973
 30
0.0
 11
-23.0184701495
 21
32.3945409533
 31
0.0
  0
LINE
  5
243
100
AcDbEntity
  8
LAYER0
 62
         3
100
AcDbLine
 10
-23.0184701495
 20
32.3945409533
 30
0.0
 11
-23.0820704189
 21
32.3032697021
 31
0.0
  0
LINE
  5
244
100
AcDbEntity
  8
LAYER0
 62
         3
100
AcDbLine
 10
-23.0820704189
 20
32.3032697021
 30
0.0
 11
-23.1379619293
 21
32.2074141403
 31
0.0
  0
LINE
  5
245
100
AcDbEntity
  8
LAYER0
 62
         3
100
AcDbLine
 10
-23.1379619293
 20
32.2074141403
 30
0.0
 11
-23.185505898
 21
32.1072225749
 31
0.0
  0
LINE
  5
246
100
AcDbEntity
  8
LAYER0
 62
         3
100
AcDbLine
 10
-23.185505898
 20
32.1072225749
 30
0.0
 11
-23.2230566456
 21
32.0042033769
 31
0.0
  0
LINE
  5
247
100
AcDbEntity
  8
LAYER0
 62
         3
100
AcDbLine
 10
-23.2230566456
 20
32.0042033769
 30
0.0
 11
-23.2493750689
 21
31.8979841947
 31
0.0
  0
LINE
  5
248
100
AcDbEntity
  8
LAYER0
 62
         3
100
AcDbLine
 10
-23.2493750689
 20
31.8979841947
 30
0.0
 11
-23.2638096764
 21
31.7897279702
 31
0.0
  0
LINE
  5
249
100
AcDbEntity
  8
LAYER0
 62
         3
100
AcDbLine
 10
-23.2638096764
 20
31.7897279702
 30
0.0
 11
-23.271579196
 21
31.6804346918
 31
0.0
  0
ENDBLK
  5
24A
100
AcDbEntity
  8
0
100
AcDbBlockEnd
  0
BLOCK
  5
24E
100
AcDbEntity
  8
0
100
AcDbBlockBegin
  2
CLUMP40
 70
         0
 10
0.0
 20
0.0
 30
0.0
  3

  1

  0
INSERT
  5
250
100
AcDbEntity
  8
0
100
AcDbBlockReference
  2
CLUMP41
 10
0.0
 20
0.0
 30
0.0
  0
ENDBLK
  5
257
100
AcDbEntity
  8
0
100
AcDbBlockEnd
  0
BLOCK
  5
251
100
AcDbEntity
  8
0
100
AcDbBlockBegin
  2
CLUMP41
 70
         0
 10
0.0
 20
0.0
 30
0.0
  3

  1

  0
LINE
  5
252
100
AcDbEntity
  8
LAYER0
 62
         3
100
AcDbLine
 10
-18.5660458107
 20
24.4875436007
 30
0.0
 11
-17.6523792495
 21
23.8998567044
 31
0.0
  0
LINE
  5
253
100
AcDbEntity
  8
LAYER0
 62
         3
100
AcDbLine
 10
-17.6523792495
 20
23.8998567044
 30
0.0
 11
-17.1020297519
 21
23.5041475588
 31
0.0
  0
LINE
  5
254
100
AcDbEntity
  8
LAYER0
 62
         3
100
AcDbLine
 10
-17.1020297519
 20
23.5041475588
 30
0.0
 11
-16.5662166134
 21
23.088380444
 31
0.0
  0
LINE
  5
255
100
AcDbEntity
  8
LAYER0
 62
         3
100
AcDbLine
 10
-16.5662166134
 20
23.088380444
 30
0.0
 11
-15.5149676309
 21
22.2268809854
 31
0.0
  0
ENDBLK
  5
256
100
AcDbEntity
  8
0
100
AcDbBlockEnd
  0
BLOCK
  5
25A
100
AcDbEntity
  8
0
100
AcDbBlockBegin
  2
CLUMP42
 70
         0
 10
0.0
 20
0.0
 30
0.0
  3

  1

  0
INSERT
  5
25C
100
AcDbEntity
  8
0
100
AcDbBlockReference
  2
CLUMP43
 10
0.0
 20
0.0
 30
0.0
  0
ENDBLK
  5
263
100
AcDbEntity
  8
0
100
AcDbBlockEnd
  0
BLOCK
  5
25D
100
AcDbEntity
  8
0
100
AcDbBlockBegin
  2
CLUMP43
 70
         0
 10
0.0
 20
0.0
 30
0.0
  3

  1

  0
LINE
  5
25E
100
AcDbEntity
  8
LAYER0
 62
         3
100
AcDbLine
 10
-26.6131224514
 20
22.2268809854
 30
0.0
 11
-25.5640900166
 21
23.0866295576
 31
0.0
  0
LINE
  5
25F
100
AcDbEntity
  8
LAYER0
 62
         3
100
AcDbLine
 10
-25.5640900166
 20
23.0866295576
 30
0.0
 11
-25.0271939963
 21
23.5033063402
 31
0.0
  0
LINE
  5
260
100
AcDbEntity
  8
LAYER0
 62
         3
100
AcDbLine
 10
-25.0271939963
 20
23.5033063402
 30
0.0
 11
-24.4757108328
 21
23.8998567044
 31
0.0
  0
LINE
  5
261
100
AcDbEntity
  8
LAYER0
 62
         3
100
AcDbLine
 10
-24.4757108328
 20
23.8998567044
 30
0.0
 11
-23.5620442715
 21
24.4875436007
 31
0.0
  0
ENDBLK
  5
262
100
AcDbEntity
  8
0
100
AcDbBlockEnd
  0
BLOCK
  5
266
100
AcDbEntity
  8
0
100
AcDbBlockBegin
  2
CLUMP44
 70
         0
 10
0.0
 20
0.0
 30
0.0
  3

  1

  0
INSERT
  5
268
100
AcDbEntity
  8
0
100
AcDbBlockReference
  2
CLUMP45
 10
0.0
 20
0.0
 30
0.0
  0
ENDBLK
  5
275
100
AcDbEntity
  8
0
100
AcDbBlockEnd
  0
BLOCK
  5
269
100
AcDbEntity
  8
0
100
AcDbBlockBegin
  2
CLUMP45
 70
         0
 10
0.0
 20
0.0
 30
0.0
  3

  1

  0
LINE
  5
26A
100
AcDbEntity
  8
LAYER0
 62
         3
100
AcDbLine
 10
-27.1262229823
 20
21.1662237822
 30
0.0
 11
-27.1190452593
 21
21.2826655141
 31
0.0
  0
LINE
  5
26B
100
AcDbEntity
  8
LAYER0
 62
         3
100
AcDbLine
 10
-27.1190452593
 20
21.2826655141
 30
0.0
 11
-27.1053762578
 21
21.3981938838
 31
0.0
  0
LINE
  5
26C
100
AcDbEntity
  8
LAYER0
 62
         3
100
AcDbLine
 10
-27.1053762578
 20
21.3981938838
 30
0.0
 11
-27.0789297126
 21
21.5162442459
 31
0.0
  0
LINE
  5
26D
100
AcDbEntity
  8
LAYER0
 62
         3
100
AcDbLine
 10
-27.0789297126
 20
21.5162442459
 30
0.0
 11
-27.0407136002
 21
21.6313039243
 31
0.0
  0
LINE
  5
26E
100
AcDbEntity
  8
LAYER0
 62
         3
100
AcDbLine
 10
-27.0407136002
 20
21.6313039243
 30
0.0
 11
-26.9908467717
 21
21.7461902592
 31
0.0
  0
LINE
  5
26F
100
AcDbEntity
  8
LAYER0
 62
         3
100
AcDbLine
 10
-26.9908467717
 20
21.7461902592
 30
0.0
 11
-26.9312408225
 21
21.8563040077
 31
0.0
  0
LINE
  5
270
100
AcDbEntity
  8
LAYER0
 62
         3
100
AcDbLine
 10
-26.9312408225
 20
21.8563040077
 30
0.0
 11
-26.8647665995
 21
21.9574638885
 31
0.0
  0
LINE
  5
271
100
AcDbEntity
  8
LAYER0
 62
         3
100
AcDbLine
 10
-26.8647665995
 20
21.9574638885
 30
0.0
 11
-26.7895028398
 21
22.0520419359
 31
0.0
  0
LINE
  5
272
100
AcDbEntity
  8
LAYER0
 62
         3
100
AcDbLine
 10
-26.7895028398
 20
22.0520419359
 30
0.0
 11
-26.7036685498
 21
22.1416428826
 31
0.0
  0
LINE
  5
273
100
AcDbEntity
  8
LAYER0
 62
         3
100
AcDbLine
 10
-26.7036685498
 20
22.1416428826
 30
0.0
 11
-26.6131224514
 21
22.2268809854
 31
0.0
  0
ENDBLK
  5
274
100
AcDbEntity
  8
0
100
AcDbBlockEnd
  0
BLOCK
  5
289
100
AcDbEntity
  8
0
100
AcDbBlockBegin
  2
CLUMP46
 70
         0
 10
0.0
 20
0.0
 30
0.0
  3

  1

  0
INSERT
  5
28B
100
AcDbEntity
  8
0
100
AcDbBlockReference
  2
CLUMP47
 10
0.0
 20
0.0
 30
0.0
  0
ENDBLK
  5
298
100
AcDbEntity
  8
0
100
AcDbBlockEnd
  0
BLOCK
  5
28C
100
AcDbEntity
  8
0
100
AcDbBlockBegin
  2
CLUMP47
 70
         0
 10
0.0
 20
0.0
 30
0.0
  3

  1

  0
LINE
  5
28D
100
AcDbEntity
  8
LAYER0
 62
         3
100
AcDbLine
 10
-15.5149676309
 20
22.2268809854
 30
0.0
 11
-15.4032638225
 21
22.1187974222
 31
0.0
  0
LINE
  5
28E
100
AcDbEntity
  8
LAYER0
 62
         3
100
AcDbLine
 10
-15.4032638225
 20
22.1187974222
 30
0.0
 11
-15.2991527163
 21
22.0040825486
 31
0.0
  0
LINE
  5
28F
100
AcDbEntity
  8
LAYER0
 62
         3
100
AcDbLine
 10
-15.2991527163
 20
22.0040825486
 30
0.0
 11
-15.2321633587
 21
21.9134623303
 31
0.0
  0
LINE
  5
290
100
AcDbEntity
  8
LAYER0
 62
         3
100
AcDbLine
 10
-15.2321633587
 20
21.9134623303
 30
0.0
 11
-15.1732336561
 21
21.8169511798
 31
0.0
  0
LINE
  5
291
100
AcDbEntity
  8
LAYER0
 62
         3
100
AcDbLine
 10
-15.1732336561
 20
21.8169511798
 30
0.0
 11
-15.1224170822
 21
21.7156505993
 31
0.0
  0
LINE
  5
292
100
AcDbEntity
  8
LAYER0
 62
         3
100
AcDbLine
 10
-15.1224170822
 20
21.7156505993
 30
0.0
 11
-15.079767111
 21
21.6106620907
 31
0.0
  0
LINE
  5
293
100
AcDbEntity
  8
LAYER0
 62
         3
100
AcDbLine
 10
-15.079767111
 20
21.6106620907
 30
0.0
 11
-15.0459464819
 21
21.503998749
 31
0.0
  0
LINE
  5
294
100
AcDbEntity
  8
LAYER0
 62
         3
100
AcDbLine
 10
-15.0459464819
 20
21.503998749
 30
0.0
 11
-15.0221652754
 21
21.3951428711
 31
0.0
  0
LINE
  5
295
100
AcDbEntity
  8
LAYER0
 62
         3
100
AcDbLine
 10
-15.0221652754
 20
21.3951428711
 30
0.0
 11
-15.0088285199
 21
21.2811735405
 31
0.0
  0
LINE
  5
296
100
AcDbEntity
  8
LAYER0
 62
         3
100
AcDbLine
 10
-15.0088285199
 20
21.2811735405
 30
0.0
 11
-15.0018670999
 21
21.1662237822
 31
0.0
  0
ENDBLK
  5
297
100
AcDbEntity
  8
0
100
AcDbBlockEnd
  0
BLOCK
  5
29B
100
AcDbEntity
  8
0
100
AcDbBlockBegin
  2
CLUMP48
 70
         0
 10
0.0
 20
0.0
 30
0.0
  3

  1

  0
INSERT
  5
29D
100
AcDbEntity
  8
0
100
AcDbBlockReference
  2
CLUMP49
 10
0.0
 20
0.0
 30
0.0
  0
ENDBLK
  5
2A9
100
AcDbEntity
  8
0
100
AcDbBlockEnd
  0
BLOCK
  5
29E
100
AcDbEntity
  8
0
100
AcDbBlockBegin
  2
CLUMP49
 70
         0
 10
0.0
 20
0.0
 30
0.0
  3

  1

  0
LINE
  5
29F
100
AcDbEntity
  8
LAYER0
 62
         3
100
AcDbLine
 10
-23.5620442715
 20
31.6804346918
 30
0.0
 11
-23.5530529136
 21
31.8166489327
 31
0.0
  0
LINE
  5
2A0
100
AcDbEntity
  8
LAYER0
 62
         3
100
AcDbLine
 10
-23.5530529136
 20
31.8166489327
 30
0.0
 11
-23.5362671253
 21
31.9517401337
 31
0.0
  0
LINE
  5
2A1
100
AcDbEntity
  8
LAYER0
 62
         3
100
AcDbLine
 10
-23.5362671253
 20
31.9517401337
 30
0.0
 11
-23.5055626073
 21
32.0846008314
 31
0.0
  0
LINE
  5
2A2
100
AcDbEntity
  8
LAYER0
 62
         3
100
AcDbLine
 10
-23.5055626073
 20
32.0846008314
 30
0.0
 11
-23.461562482
 21
32.2139223396
 31
0.0
  0
LINE
  5
2A3
100
AcDbEntity
  8
LAYER0
 62
         3
100
AcDbLine
 10
-23.461562482
 20
32.2139223396
 30
0.0
 11
-23.406647977
 21
32.3381104424
 31
0.0
  0
LINE
  5
2A4
100
AcDbEntity
  8
LAYER0
 62
         3
100
AcDbLine
 10
-23.406647977
 20
32.3381104424
 30
0.0
 11
-23.3420134925
 21
32.4576047539
 31
0.0
  0
LINE
  5
2A5
100
AcDbEntity
  8
LAYER0
 62
         3
100
AcDbLine
 10
-23.3420134925
 20
32.4576047539
 30
0.0
 11
-23.2682824957
 21
32.5720311557
 31
0.0
  0
LINE
  5
2A6
100
AcDbEntity
  8
LAYER0
 62
         3
100
AcDbLine
 10
-23.2682824957
 20
32.5720311557
 30
0.0
 11
-23.1841813245
 21
32.6786597549
 31
0.0
  0
LINE
  5
2A7
100
AcDbEntity
  8
LAYER0
 62
         3
100
AcDbLine
 10
-23.1841813245
 20
32.6786597549
 30
0.0
 11
-23.0664644794
 21
32.7990983903
 31
0.0
  0
ENDBLK
  5
2A8
100
AcDbEntity
  8
0
100
AcDbBlockEnd
  0
BLOCK
  5
2AC
100
AcDbEntity
  8
0
100
AcDbBlockBegin
  2
CLUMP50
 70
         0
 10
0.0
 20
0.0
 30
0.0
  3

  1

  0
INSERT
  5
2AE
100
AcDbEntity
  8
0
100
AcDbBlockReference
  2
CLUMP51
 10
0.0
 20
0.0
 30
0.0
  0
ENDBLK
  5
2BA
100
AcDbEntity
  8
0
100
AcDbBlockEnd
  0
BLOCK
  5
2AF
100
AcDbEntity
  8
0
100
AcDbBlockBegin
  2
CLUMP51
 70
         0
 10
0.0
 20
0.0
 30
0.0
  3

  1

  0
LINE
  5
2B0
100
AcDbEntity
  8
LAYER0
 62
         3
100
AcDbLine
 10
-19.0591163871
 20
32.7989382028
 30
0.0
 11
-18.9761369394
 21
32.7115990213
 31
0.0
  0
LINE
  5
2B1
100
AcDbEntity
  8
LAYER0
 62
         3
100
AcDbLine
 10
-18.9761369394
 20
32.7115990213
 30
0.0
 11
-18.8974392538
 21
32.6206756114
 31
0.0
  0
LINE
  5
2B2
100
AcDbEntity
  8
LAYER0
 62
         3
100
AcDbLine
 10
-18.8974392538
 20
32.6206756114
 30
0.0
 11
-18.8132436782
 21
32.5030479184
 31
0.0
  0
LINE
  5
2B3
100
AcDbEntity
  8
LAYER0
 62
         3
100
AcDbLine
 10
-18.8132436782
 20
32.5030479184
 30
0.0
 11
-18.7408666995
 21
32.3775072872
 31
0.0
  0
LINE
  5
2B4
100
AcDbEntity
  8
LAYER0
 62
         3
100
AcDbLine
 10
-18.7408666995
 20
32.3775072872
 30
0.0
 11
-18.6795666826
 21
32.245238241
 31
0.0
  0
LINE
  5
2B5
100
AcDbEntity
  8
LAYER0
 62
         3
100
AcDbLine
 10
-18.6795666826
 20
32.245238241
 30
0.0
 11
-18.6303438556
 21
32.1080272376
 31
0.0
  0
LINE
  5
2B6
100
AcDbEntity
  8
LAYER0
 62
         3
100
AcDbLine
 10
-18.6303438556
 20
32.1080272376
 30
0.0
 11
-18.5941478405
 21
31.9667206216
 31
0.0
  0
LINE
  5
2B7
100
AcDbEntity
  8
LAYER0
 62
         3
100
AcDbLine
 10
-18.5941478405
 20
31.9667206216
 30
0.0
 11
-18.5730188557
 21
31.8226290225
 31
0.0
  0
LINE
  5
2B8
100
AcDbEntity
  8
LAYER0
 62
         3
100
AcDbLine
 10
-18.5730188557
 20
31.8226290225
 30
0.0
 11
-18.5660458107
 21
31.6804346918
 31
0.0
  0
ENDBLK
  5
2B9
100
AcDbEntity
  8
0
100
AcDbBlockEnd
  0
BLOCK
  5
2BD
100
AcDbEntity
  8
0
100
AcDbBlockBegin
  2
CLUMP52
 70
         0
 10
0.0
 20
0.0
 30
0.0
  3

  1

  0
INSERT
  5
2BF
100
AcDbEntity
  8
0
100
AcDbBlockReference
  2
CLUMP53
 10
0.0
 20
0.0
 30
0.0
  0
ENDBLK
  5
2D4
100
AcDbEntity
  8
0
100
AcDbBlockEnd
  0
BLOCK
  5
2C0
100
AcDbEntity
  8
0
100
AcDbBlockBegin
  2
CLUMP53
 70
         0
 10
0.0
 20
0.0
 30
0.0
  3

  1

  0
LINE
  5
2C1
100
AcDbEntity
  8
LAYER0
 62
         3
100
AcDbLine
 10
-11.3002407768
 20
38.039911288
 30
0.0
 11
-11.3002426394
 21
38.0390693724
 31
0.0
  0
LINE
  5
2C2
100
AcDbEntity
  8
LAYER0
 62
         3
100
AcDbLine
 10
-11.3002426394
 20
38.0390693724
 30
0.0
 11
-11.3002467099
 21
38.0364399418
 31
0.0
  0
LINE
  5
2C3
100
AcDbEntity
  8
LAYER0
 62
         3
100
AcDbLine
 10
-11.3002467099
 20
38.0364399418
 30
0.0
 11
-11.3002547466
 21
38.0319913208
 31
0.0
  0
LINE
  5
2C4
100
AcDbEntity
  8
LAYER0
 62
         3
100
AcDbLine
 10
-11.3002547466
 20
38.0319913208
 30
0.0
 11
-11.3002556779
 21
38.0315331101
 31
0.0
  0
LINE
  5
2C5
100
AcDbEntity
  8
LAYER0
 62
         3
100
AcDbLine
 10
-11.3002556779
 20
38.0315331101
 30
0.0
 11
-11.3002670276
 21
38.0251108461
 31
0.0
  0
LINE
  5
2C6
100
AcDbEntity
  8
LAYER0
 62
         3
100
AcDbLine
 10
-11.3002670276
 20
38.0251108461
 30
0.0
 11
-11.3002798923
 21
38.0171423137
 31
0.0
  0
LINE
  5
2C7
100
AcDbEntity
  8
LAYER0
 62
         3
100
AcDbLine
 10
-11.3002798923
 20
38.0171423137
 30
0.0
 11
-11.3002955212
 21
38.0079875859
 31
0.0
  0
LINE
  5
2C8
100
AcDbEntity
  8
LAYER0
 62
         3
100
AcDbLine
 10
-11.3002955212
 20
38.0079875859
 30
0.0
 11
-11.3003134199
 21
37.9978527605
 31
0.0
  0
LINE
  5
2C9
100
AcDbEntity
  8
LAYER0
 62
         3
100
AcDbLine
 10
-11.3003134199
 20
37.9978527605
 30
0.0
 11
-11.3003516042
 21
37.9761268675
 31
0.0
  0
LINE
  5
2CA
100
AcDbEntity
  8
LAYER0
 62
         3
100
AcDbLine
 10
-11.3003516042
 20
37.9761268675
 30
0.0
 11
-11.3003888571
 21
37.9545127332
 31
0.0
  0
LINE
  5
2CB
100
AcDbEntity
  8
LAYER0
 62
         3
100
AcDbLine
 10
-11.3003888571
 20
37.9545127332
 30
0.0
 11
-11.3004062638
 21
37.9445156228
 31
0.0
  0
LINE
  5
2CC
100
AcDbEntity
  8
LAYER0
 62
         3
100
AcDbLine
 10
-11.3004062638
 20
37.9445156228
 30
0.0
 11
-11.3004223847
 21
37.935338664
 31
0.0
  0
LINE
  5
2CD
100
AcDbEntity
  8
LAYER0
 62
         3
100
AcDbLine
 10
-11.3004223847
 20
37.935338664
 30
0.0
 11
-11.3004365028
 21
37.9273246678
 31
0.0
  0
LINE
  5
2CE
100
AcDbEntity
  8
LAYER0
 62
         3
100
AcDbLine
 10
-11.3004365028
 20
37.9273246678
 30
0.0
 11
-11.3004484617
 21
37.9205194592
 31
0.0
  0
LINE
  5
2CF
100
AcDbEntity
  8
LAYER0
 62
         3
100
AcDbLine
 10
-11.3004484617
 20
37.9205194592
 30
0.0
 11
-11.3004578685
 21
37.9151291372
 31
0.0
  0
LINE
  5
2D0
100
AcDbEntity
  8
LAYER0
 62
         3
100
AcDbLine
 10
-11.3004578685
 20
37.9151291372
 30
0.0
 11
-11.3004642942
 21
37.9114595532
 31
0.0
  0
LINE
  5
2D1
100
AcDbEntity
  8
LAYER0
 62
         3
100
AcDbLine
 10
-11.3004642942
 20
37.9114595532
 30
0.0
 11
-11.3004672629
 21
37.9098243383
 31
0.0
  0
LINE
  5
2D2
100
AcDbEntity
  8
LAYER0
 62
         3
100
AcDbLine
 10
-11.3004672629
 20
37.9098243383
 30
0.0
 11
-11.3004689508
 21
37.9089561581
 31
0.0
  0
ENDBLK
  5
2D3
100
AcDbEntity
  8
0
100
AcDbBlockEnd
  0
BLOCK
  5
2D7
100
AcDbEntity
  8
0
100
AcDbBlockBegin
  2
CLUMP54
 70
         0
 10
0.0
 20
0.0
 30
0.0
  3

  1

  0
INSERT
  5
2D9
100
AcDbEntity
  8
0
100
AcDbBlockReference
  2
CLUMP55
 10
0.0
 20
0.0
 30
0.0
  0
ENDBLK
  5
2EF
100
AcDbEntity
  8
0
100
AcDbBlockEnd
  0
BLOCK
  5
2DA
100
AcDbEntity
  8
0
100
AcDbBlockBegin
  2
CLUMP55
 70
         0
 10
0.0
 20
0.0
 30
0.0
  3

  1

  0
LINE
  5
2DB
100
AcDbEntity
  8
LAYER0
 62
         3
100
AcDbLine
 10
-10.9218099558
 20
18.0398931085
 30
0.0
 11
-10.921812148
 21
18.038522554
 31
0.0
  0
LINE
  5
2DC
100
AcDbEntity
  8
LAYER0
 62
         3
100
AcDbLine
 10
-10.921812148
 20
18.038522554
 30
0.0
 11
-10.921816475
 21
18.0359368503
 31
0.0
  0
LINE
  5
2DD
100
AcDbEntity
  8
LAYER0
 62
         3
100
AcDbLine
 10
-10.921816475
 20
18.0359368503
 30
0.0
 11
-10.9218200371
 21
18.0338487097
 31
0.0
  0
LINE
  5
2DE
100
AcDbEntity
  8
LAYER0
 62
         3
100
AcDbLine
 10
-10.9218200371
 20
18.0338487097
 30
0.0
 11
-10.9218245556
 21
18.0312203521
 31
0.0
  0
LINE
  5
2DF
100
AcDbEntity
  8
LAYER0
 62
         3
100
AcDbLine
 10
-10.9218245556
 20
18.0312203521
 30
0.0
 11
-10.9218360328
 21
18.0246045172
 31
0.0
  0
LINE
  5
2E0
100
AcDbEntity
  8
LAYER0
 62
         3
100
AcDbLine
 10
-10.9218360328
 20
18.0246045172
 30
0.0
 11
-10.921849968
 21
18.0166266281
 31
0.0
  0
LINE
  5
2E1
100
AcDbEntity
  8
LAYER0
 62
         3
100
AcDbLine
 10
-10.921849968
 20
18.0166266281
 30
0.0
 11
-10.9218658351
 21
18.0074644565
 31
0.0
  0
LINE
  5
2E2
100
AcDbEntity
  8
LAYER0
 62
         3
100
AcDbLine
 10
-10.9218658351
 20
18.0074644565
 30
0.0
 11
-10.9218829613
 21
17.9974136681
 31
0.0
  0
LINE
  5
2E3
100
AcDbEntity
  8
LAYER0
 62
         3
100
AcDbLine
 10
-10.9218829613
 20
17.9974136681
 30
0.0
 11
-10.9219012254
 21
17.9866922378
 31
0.0
  0
LINE
  5
2E4
100
AcDbEntity
  8
LAYER0
 62
         3
100
AcDbLine
 10
-10.9219012254
 20
17.9866922378
 30
0.0
 11
-10.9219394096
 21
17.9647279262
 31
0.0
  0
LINE
  5
2E5
100
AcDbEntity
  8
LAYER0
 62
         3
100
AcDbLine
 10
-10.9219394096
 20
17.9647279262
 30
0.0
 11
-10.9219581091
 21
17.9541042756
 31
0.0
  0
LINE
  5
2E6
100
AcDbEntity
  8
LAYER0
 62
         3
100
AcDbLine
 10
-10.9219581091
 20
17.9541042756
 30
0.0
 11
-10.9219757312
 21
17.9440376639
 31
0.0
  0
LINE
  5
2E7
100
AcDbEntity
  8
LAYER0
 62
         3
100
AcDbLine
 10
-10.9219757312
 20
17.9440376639
 30
0.0
 11
-10.9219915157
 21
17.9348922667
 31
0.0
  0
LINE
  5
2E8
100
AcDbEntity
  8
LAYER0
 62
         3
100
AcDbLine
 10
-10.9219915157
 20
17.9348922667
 30
0.0
 11
-10.9220055335
 21
17.9268268227
 31
0.0
  0
LINE
  5
2E9
100
AcDbEntity
  8
LAYER0
 62
         3
100
AcDbLine
 10
-10.9220055335
 20
17.9268268227
 30
0.0
 11
-10.9220175514
 21
17.9201271741
 31
0.0
  0
LINE
  5
2EA
100
AcDbEntity
  8
LAYER0
 62
         3
100
AcDbLine
 10
-10.9220175514
 20
17.9201271741
 30
0.0
 11
-10.9220269539
 21
17.9148611903
 31
0.0
  0
LINE
  5
2EB
100
AcDbEntity
  8
LAYER0
 62
         3
100
AcDbLine
 10
-10.9220269539
 20
17.9148611903
 30
0.0
 11
-10.9220330526
 21
17.9111930128
 31
0.0
  0
LINE
  5
2EC
100
AcDbEntity
  8
LAYER0
 62
         3
100
AcDbLine
 10
-10.9220330526
 20
17.9111930128
 30
0.0
 11
-10.9220362672
 21
17.9092844307
 31
0.0
  0
LINE
  5
2ED
100
AcDbEntity
  8
LAYER0
 62
         3
100
AcDbLine
 10
-10.9220362672
 20
17.9092844307
 30
0.0
 11
-10.9220371985
 21
17.9089454293
 31
0.0
  0
ENDBLK
  5
2EE
100
AcDbEntity
  8
0
100
AcDbBlockEnd
  0
BLOCK
  5
2F2
100
AcDbEntity
  8
0
100
AcDbBlockBegin
  2
CLUMP56
 70
         0
 10
0.0
 20
0.0
 30
0.0
  3

  1

  0
INSERT
  5
2F4
100
AcDbEntity
  8
0
100
AcDbBlockReference
  2
CLUMP57
 10
0.0
 20
0.0
 30
0.0
  0
ENDBLK
  5
30B
100
AcDbEntity
  8
0
100
AcDbBlockEnd
  0
BLOCK
  5
2F5
100
AcDbEntity
  8
0
100
AcDbBlockBegin
  2
CLUMP57
 70
         0
 10
0.0
 20
0.0
 30
0.0
  3

  1

  0
LINE
  5
2F6
100
AcDbEntity
  8
LAYER0
 62
         3
100
AcDbLine
 10
-30.8276211315
 20
37.9089524328
 30
0.0
 11
-30.8276211315
 21
37.9089449822
 31
0.0
  0
LINE
  5
2F7
100
AcDbEntity
  8
LAYER0
 62
         3
100
AcDbLine
 10
-30.8276211315
 20
37.9089449822
 30
0.0
 11
-30.8276213813
 21
37.9087765379
 31
0.0
  0
LINE
  5
2F8
100
AcDbEntity
  8
LAYER0
 62
         3
100
AcDbLine
 10
-30.8276213813
 20
37.9087765379
 30
0.0
 11
-30.8276221055
 21
37.9091459011
 31
0.0
  0
LINE
  5
2F9
100
AcDbEntity
  8
LAYER0
 62
         3
100
AcDbLine
 10
-30.8276221055
 20
37.9091459011
 30
0.0
 11
-30.8276248568
 21
37.9109901666
 31
0.0
  0
LINE
  5
2FA
100
AcDbEntity
  8
LAYER0
 62
         3
100
AcDbLine
 10
-30.8276248568
 20
37.9109901666
 30
0.0
 11
-30.8276308573
 21
37.9146096899
 31
0.0
  0
LINE
  5
2FB
100
AcDbEntity
  8
LAYER0
 62
         3
100
AcDbLine
 10
-30.8276308573
 20
37.9146096899
 30
0.0
 11
-30.8276397579
 21
37.9195881366
 31
0.0
  0
LINE
  5
2FC
100
AcDbEntity
  8
LAYER0
 62
         3
100
AcDbLine
 10
-30.8276397579
 20
37.9195881366
 30
0.0
 11
-30.8276517246
 21
37.9261760456
 31
0.0
  0
LINE
  5
2FD
100
AcDbEntity
  8
LAYER0
 62
         3
100
AcDbLine
 10
-30.8276517246
 20
37.9261760456
 30
0.0
 11
-30.827665835
 21
37.9341279446
 31
0.0
  0
LINE
  5
2FE
100
AcDbEntity
  8
LAYER0
 62
         3
100
AcDbLine
 10
-30.827665835
 20
37.9341279446
 30
0.0
 11
-30.8276813972
 21
37.9432357223
 31
0.0
  0
LINE
  5
2FF
100
AcDbEntity
  8
LAYER0
 62
         3
100
AcDbLine
 10
-30.8276813972
 20
37.9432357223
 30
0.0
 11
-30.8276984312
 21
37.9531790792
 31
0.0
  0
LINE
  5
300
100
AcDbEntity
  8
LAYER0
 62
         3
100
AcDbLine
 10
-30.8276984312
 20
37.9531790792
 30
0.0
 11
-30.8277366155
 21
37.9747485101
 31
0.0
  0
LINE
  5
301
100
AcDbEntity
  8
LAYER0
 62
         3
100
AcDbLine
 10
-30.8277366155
 20
37.9747485101
 30
0.0
 11
-30.8277738684
 21
37.9964781284
 31
0.0
  0
LINE
  5
302
100
AcDbEntity
  8
LAYER0
 62
         3
100
AcDbLine
 10
-30.8277738684
 20
37.9964781284
 30
0.0
 11
-30.8277914043
 21
38.0066509707
 31
0.0
  0
LINE
  5
303
100
AcDbEntity
  8
LAYER0
 62
         3
100
AcDbLine
 10
-30.8277914043
 20
38.0066509707
 30
0.0
 11
-30.827807396
 21
38.0158831655
 31
0.0
  0
LINE
  5
304
100
AcDbEntity
  8
LAYER0
 62
         3
100
AcDbLine
 10
-30.827807396
 20
38.0158831655
 30
0.0
 11
-30.827821261
 21
38.0239612991
 31
0.0
  0
LINE
  5
305
100
AcDbEntity
  8
LAYER0
 62
         3
100
AcDbLine
 10
-30.827821261
 20
38.0239612991
 30
0.0
 11
-30.8278325417
 21
38.0306092381
 31
0.0
  0
LINE
  5
306
100
AcDbEntity
  8
LAYER0
 62
         3
100
AcDbLine
 10
-30.8278325417
 20
38.0306092381
 30
0.0
 11
-30.8278410799
 21
38.0356630793
 31
0.0
  0
LINE
  5
307
100
AcDbEntity
  8
LAYER0
 62
         3
100
AcDbLine
 10
-30.8278410799
 20
38.0356630793
 30
0.0
 11
-30.8278442013
 21
38.037466934
 31
0.0
  0
LINE
  5
308
100
AcDbEntity
  8
LAYER0
 62
         3
100
AcDbLine
 10
-30.8278442013
 20
38.037466934
 30
0.0
 11
-30.8278465115
 21
38.0387266456
 31
0.0
  0
LINE
  5
309
100
AcDbEntity
  8
LAYER0
 62
         3
100
AcDbLine
 10
-30.8278465115
 20
38.0387266456
 30
0.0
 11
-30.8278493055
 21
38.039911288
 31
0.0
  0
ENDBLK
  5
30A
100
AcDbEntity
  8
0
100
AcDbBlockEnd
  0
BLOCK
  5
30E
100
AcDbEntity
  8
0
100
AcDbBlockBegin
  2
CLUMP58
 70
         0
 10
0.0
 20
0.0
 30
0.0
  3

  1

  0
INSERT
  5
310
100
AcDbEntity
  8
0
100
AcDbBlockReference
  2
CLUMP59
 10
0.0
 20
0.0
 30
0.0
  0
ENDBLK
  5
326
100
AcDbEntity
  8
0
100
AcDbBlockEnd
  0
BLOCK
  5
311
100
AcDbEntity
  8
0
100
AcDbBlockBegin
  2
CLUMP59
 70
         0
 10
0.0
 20
0.0
 30
0.0
  3

  1

  0
LINE
  5
312
100
AcDbEntity
  8
LAYER0
 62
         3
100
AcDbLine
 10
-31.2060528838
 20
17.9089454293
 30
0.0
 11
-31.2060556778
 21
17.9105771064
 31
0.0
  0
LINE
  5
313
100
AcDbEntity
  8
LAYER0
 62
         3
100
AcDbLine
 10
-31.2060556778
 20
17.9105771064
 30
0.0
 11
-31.2060611555
 21
17.9137077005
 31
0.0
  0
LINE
  5
314
100
AcDbEntity
  8
LAYER0
 62
         3
100
AcDbLine
 10
-31.2060611555
 20
17.9137077005
 30
0.0
 11
-31.2060696476
 21
17.9185753047
 31
0.0
  0
LINE
  5
315
100
AcDbEntity
  8
LAYER0
 62
         3
100
AcDbLine
 10
-31.2060696476
 20
17.9185753047
 30
0.0
 11
-31.2060806246
 21
17.9249056547
 31
0.0
  0
LINE
  5
316
100
AcDbEntity
  8
LAYER0
 62
         3
100
AcDbLine
 10
-31.2060806246
 20
17.9249056547
 30
0.0
 11
-31.206093862
 21
17.9325116157
 31
0.0
  0
LINE
  5
317
100
AcDbEntity
  8
LAYER0
 62
         3
100
AcDbLine
 10
-31.206093862
 20
17.9325116157
 30
0.0
 11
-31.2061093642
 21
17.9413426347
 31
0.0
  0
LINE
  5
318
100
AcDbEntity
  8
LAYER0
 62
         3
100
AcDbLine
 10
-31.2061093642
 20
17.9413426347
 30
0.0
 11
-31.2061264583
 21
17.9510747373
 31
0.0
  0
LINE
  5
319
100
AcDbEntity
  8
LAYER0
 62
         3
100
AcDbLine
 10
-31.2061264583
 20
17.9510747373
 30
0.0
 11
-31.2061637112
 21
17.9724355518
 31
0.0
  0
LINE
  5
31A
100
AcDbEntity
  8
LAYER0
 62
         3
100
AcDbLine
 10
-31.2061637112
 20
17.9724355518
 30
0.0
 11
-31.2062018954
 21
17.994317907
 31
0.0
  0
LINE
  5
31B
100
AcDbEntity
  8
LAYER0
 62
         3
100
AcDbLine
 10
-31.2062018954
 20
17.994317907
 30
0.0
 11
-31.206219959
 21
18.0046848216
 31
0.0
  0
LINE
  5
31C
100
AcDbEntity
  8
LAYER0
 62
         3
100
AcDbLine
 10
-31.206219959
 20
18.0046848216
 30
0.0
 11
-31.2062363543
 21
18.0141960561
 31
0.0
  0
LINE
  5
31D
100
AcDbEntity
  8
LAYER0
 62
         3
100
AcDbLine
 10
-31.2062363543
 20
18.0141960561
 30
0.0
 11
-31.2062506787
 21
18.0226554955
 31
0.0
  0
LINE
  5
31E
100
AcDbEntity
  8
LAYER0
 62
         3
100
AcDbLine
 10
-31.2062506787
 20
18.0226554955
 30
0.0
 11
-31.2062624314
 21
18.0295591533
 31
0.0
  0
LINE
  5
31F
100
AcDbEntity
  8
LAYER0
 62
         3
100
AcDbLine
 10
-31.2062624314
 20
18.0295591533
 30
0.0
 11
-31.206271405
 21
18.0346671323
 31
0.0
  0
LINE
  5
320
100
AcDbEntity
  8
LAYER0
 62
         3
100
AcDbLine
 10
-31.206271405
 20
18.0346671323
 30
0.0
 11
-31.2062773325
 21
18.0383433878
 31
0.0
  0
LINE
  5
321
100
AcDbEntity
  8
LAYER0
 62
         3
100
AcDbLine
 10
-31.2062773325
 20
18.0383433878
 30
0.0
 11
-31.206279408
 21
18.0399376337
 31
0.0
  0
LINE
  5
322
100
AcDbEntity
  8
LAYER0
 62
         3
100
AcDbLine
 10
-31.206279408
 20
18.0399376337
 30
0.0
 11
-31.2062799425
 21
18.0402074824
 31
0.0
  0
LINE
  5
323
100
AcDbEntity
  8
LAYER0
 62
         3
100
AcDbLine
 10
-31.2062799425
 20
18.0402074824
 30
0.0
 11
-31.2062801265
 21
18.039911735
 31
0.0
  0
LINE
  5
324
100
AcDbEntity
  8
LAYER0
 62
         3
100
AcDbLine
 10
-31.2062801265
 20
18.039911735
 30
0.0
 11
-31.2062801265
 21
18.039885658
 31
0.0
  0
ENDBLK
  5
325
100
AcDbEntity
  8
0
100
AcDbBlockEnd
  0
BLOCK
  5
329
100
AcDbEntity
  8
0
100
AcDbBlockBegin
  2
CLUMP60
 70
         0
 10
0.0
 20
0.0
 30
0.0
  3

  1

  0
INSERT
  5
32B
100
AcDbEntity
  8
0
100
AcDbBlockReference
  2
CLUMP61
 10
0.0
 20
0.0
 30
0.0
  0
ENDBLK
  5
337
100
AcDbEntity
  8
0
100
AcDbBlockEnd
  0
BLOCK
  5
32C
100
AcDbEntity
  8
0
100
AcDbBlockBegin
  2
CLUMP61
 70
         0
 10
0.0
 20
0.0
 30
0.0
  3

  1

  0
LINE
  5
32D
100
AcDbEntity
  8
LAYER0
 62
         3
100
AcDbLine
 10
-15.4348799431
 20
21.1662237822
 30
0.0
 11
-15.455169163
 21
21.3168596275
 31
0.0
  0
LINE
  5
32E
100
AcDbEntity
  8
LAYER0
 62
         3
100
AcDbLine
 10
-15.455169163
 20
21.3168596275
 30
0.0
 11
-15.4704793338
 21
21.3906210731
 31
0.0
  0
LINE
  5
32F
100
AcDbEntity
  8
LAYER0
 62
         3
100
AcDbLine
 10
-15.4704793338
 20
21.3906210731
 30
0.0
 11
-15.4919881777
 21
21.4625147461
 31
0.0
  0
LINE
  5
330
100
AcDbEntity
  8
LAYER0
 62
         3
100
AcDbLine
 10
-15.4919881777
 20
21.4625147461
 30
0.0
 11
-15.5220561982
 21
21.5335707601
 31
0.0
  0
LINE
  5
331
100
AcDbEntity
  8
LAYER0
 62
         3
100
AcDbLine
 10
-15.5220561982
 20
21.5335707601
 30
0.0
 11
-15.5597322837
 21
21.6013876404
 31
0.0
  0
LINE
  5
332
100
AcDbEntity
  8
LAYER0
 62
         3
100
AcDbLine
 10
-15.5597322837
 20
21.6013876404
 30
0.0
 11
-15.6039542024
 21
21.6653387707
 31
0.0
  0
LINE
  5
333
100
AcDbEntity
  8
LAYER0
 62
         3
100
AcDbLine
 10
-15.6039542024
 20
21.6653387707
 30
0.0
 11
-15.653659723
 21
21.7247975349
 31
0.0
  0
LINE
  5
334
100
AcDbEntity
  8
LAYER0
 62
         3
100
AcDbLine
 10
-15.653659723
 20
21.7247975349
 30
0.0
 11
-15.7315911164
 21
21.8016590486
 31
0.0
  0
LINE
  5
335
100
AcDbEntity
  8
LAYER0
 62
         3
100
AcDbLine
 10
-15.7315911164
 20
21.8016590486
 30
0.0
 11
-15.8140069277
 21
21.8733285844
 31
0.0
  0
ENDBLK
  5
336
100
AcDbEntity
  8
0
100
AcDbBlockEnd
  0
BLOCK
  5
33A
100
AcDbEntity
  8
0
100
AcDbBlockBegin
  2
CLUMP62
 70
         0
 10
0.0
 20
0.0
 30
0.0
  3

  1

  0
INSERT
  5
33C
100
AcDbEntity
  8
0
100
AcDbBlockReference
  2
CLUMP63
 10
0.0
 20
0.0
 30
0.0
  0
ENDBLK
  5
348
100
AcDbEntity
  8
0
100
AcDbBlockEnd
  0
BLOCK
  5
33D
100
AcDbEntity
  8
0
100
AcDbBlockBegin
  2
CLUMP63
 70
         0
 10
0.0
 20
0.0
 30
0.0
  3

  1

  0
LINE
  5
33E
100
AcDbEntity
  8
LAYER0
 62
         3
100
AcDbLine
 10
-26.3140831546
 20
21.8733285844
 30
0.0
 11
-26.4392823387
 21
21.7561246707
 31
0.0
  0
LINE
  5
33F
100
AcDbEntity
  8
LAYER0
 62
         3
100
AcDbLine
 10
-26.4392823387
 20
21.7561246707
 30
0.0
 11
-26.4973501149
 21
21.6935708467
 31
0.0
  0
LINE
  5
340
100
AcDbEntity
  8
LAYER0
 62
         3
100
AcDbLine
 10
-26.4973501149
 20
21.6935708467
 30
0.0
 11
-26.5499797122
 21
21.6262747824
 31
0.0
  0
LINE
  5
341
100
AcDbEntity
  8
LAYER0
 62
         3
100
AcDbLine
 10
-26.5499797122
 20
21.6262747824
 30
0.0
 11
-26.5940523275
 21
21.5557936331
 31
0.0
  0
LINE
  5
342
100
AcDbEntity
  8
LAYER0
 62
         3
100
AcDbLine
 10
-26.5940523275
 20
21.5557936331
 30
0.0
 11
-26.6305914884
 21
21.4806095681
 31
0.0
  0
LINE
  5
343
100
AcDbEntity
  8
LAYER0
 62
         3
100
AcDbLine
 10
-26.6305914884
 20
21.4806095681
 30
0.0
 11
-26.6588154588
 21
21.4019073542
 31
0.0
  0
LINE
  5
344
100
AcDbEntity
  8
LAYER0
 62
         3
100
AcDbLine
 10
-26.6588154588
 20
21.4019073542
 30
0.0
 11
-26.6779425026
 21
21.3208717584
 31
0.0
  0
LINE
  5
345
100
AcDbEntity
  8
LAYER0
 62
         3
100
AcDbLine
 10
-26.6779425026
 20
21.3208717584
 30
0.0
 11
-26.6877445101
 21
21.2437998707
 31
0.0
  0
LINE
  5
346
100
AcDbEntity
  8
LAYER0
 62
         3
100
AcDbLine
 10
-26.6877445101
 20
21.2437998707
 30
0.0
 11
-26.6932101392
 21
21.1662237822
 31
0.0
  0
ENDBLK
  5
347
100
AcDbEntity
  8
0
100
AcDbBlockEnd
  0
BLOCK
  5
34B
100
AcDbEntity
  8
0
100
AcDbBlockBegin
  2
CLUMP64
 70
         0
 10
0.0
 20
0.0
 30
0.0
  3

  1

  0
INSERT
  5
34D
100
AcDbEntity
  8
0
100
AcDbBlockReference
  2
CLUMP65
 10
0.0
 20
0.0
 30
0.0
  0
ENDBLK
  5
354
100
AcDbEntity
  8
0
100
AcDbBlockEnd
  0
BLOCK
  5
34E
100
AcDbEntity
  8
0
100
AcDbBlockBegin
  2
CLUMP65
 70
         0
 10
0.0
 20
0.0
 30
0.0
  3

  1

  0
LINE
  5
34F
100
AcDbEntity
  8
LAYER0
 62
         3
100
AcDbLine
 10
-15.8140069277
 20
21.8733285844
 30
0.0
 11
-16.8393162482
 21
22.7300335943
 31
0.0
  0
LINE
  5
350
100
AcDbEntity
  8
LAYER0
 62
         3
100
AcDbLine
 10
-16.8393162482
 20
22.7300335943
 30
0.0
 11
-17.3626523045
 21
23.1470245022
 31
0.0
  0
LINE
  5
351
100
AcDbEntity
  8
LAYER0
 62
         3
100
AcDbLine
 10
-17.3626523045
 20
23.1470245022
 30
0.0
 11
-17.8991641321
 21
23.5463043033
 31
0.0
  0
LINE
  5
352
100
AcDbEntity
  8
LAYER0
 62
         3
100
AcDbLine
 10
-17.8991641321
 20
23.5463043033
 30
0.0
 11
-18.7714357332
 21
24.1339874744
 31
0.0
  0
ENDBLK
  5
353
100
AcDbEntity
  8
0
100
AcDbBlockEnd
  0
BLOCK
  5
357
100
AcDbEntity
  8
0
100
AcDbBlockBegin
  2
CLUMP66
 70
         0
 10
0.0
 20
0.0
 30
0.0
  3

  1

  0
INSERT
  5
359
100
AcDbEntity
  8
0
100
AcDbBlockReference
  2
CLUMP67
 10
0.0
 20
0.0
 30
0.0
  0
ENDBLK
  5
360
100
AcDbEntity
  8
0
100
AcDbBlockEnd
  0
BLOCK
  5
35A
100
AcDbEntity
  8
0
100
AcDbBlockBegin
  2
CLUMP67
 70
         0
 10
0.0
 20
0.0
 30
0.0
  3

  1

  0
LINE
  5
35B
100
AcDbEntity
  8
LAYER0
 62
         3
100
AcDbLine
 10
-23.3566543491
 20
24.1339874744
 30
0.0
 11
-24.2289259502
 21
23.5463043033
 31
0.0
  0
LINE
  5
35C
100
AcDbEntity
  8
LAYER0
 62
         3
100
AcDbLine
 10
-24.2289259502
 20
23.5463043033
 30
0.0
 11
-24.7645496237
 21
23.1477044784
 31
0.0
  0
LINE
  5
35D
100
AcDbEntity
  8
LAYER0
 62
         3
100
AcDbLine
 10
-24.7645496237
 20
23.1477044784
 30
0.0
 11
-25.2870341235
 21
22.731441754
 31
0.0
  0
LINE
  5
35E
100
AcDbEntity
  8
LAYER0
 62
         3
100
AcDbLine
 10
-25.2870341235
 20
22.731441754
 30
0.0
 11
-26.3140831546
 21
21.8733285844
 31
0.0
  0
ENDBLK
  5
35F
100
AcDbEntity
  8
0
100
AcDbBlockEnd
  0
BLOCK
  5
363
100
AcDbEntity
  8
0
100
AcDbBlockBegin
  2
CLUMP68
 70
         0
 10
0.0
 20
0.0
 30
0.0
  3

  1

  0
INSERT
  5
365
100
AcDbEntity
  8
0
100
AcDbBlockReference
  2
CLUMP69
 10
0.0
 20
0.0
 30
0.0
  0
ENDBLK
  5
373
100
AcDbEntity
  8
0
100
AcDbBlockEnd
  0
BLOCK
  5
366
100
AcDbEntity
  8
0
100
AcDbBlockBegin
  2
CLUMP69
 70
         0
 10
0.0
 20
0.0
 30
0.0
  3

  1

  0
LINE
  5
367
100
AcDbEntity
  8
LAYER0
 62
         3
100
AcDbLine
 10
-18.8565108863
 20
31.6804346918
 30
0.0
 11
-18.862476473
 21
31.7941901564
 31
0.0
  0
LINE
  5
368
100
AcDbEntity
  8
LAYER0
 62
         3
100
AcDbLine
 10
-18.862476473
 20
31.7941901564
 30
0.0
 11
-18.8780187364
 21
31.8969962641
 31
0.0
  0
LINE
  5
369
100
AcDbEntity
  8
LAYER0
 62
         3
100
AcDbLine
 10
-18.8780187364
 20
31.8969962641
 30
0.0
 11
-18.9037899424
 21
31.9979374587
 31
0.0
  0
LINE
  5
36A
100
AcDbEntity
  8
LAYER0
 62
         3
100
AcDbLine
 10
-18.9037899424
 20
31.9979374587
 30
0.0
 11
-18.9383083758
 21
32.096216975
 31
0.0
  0
LINE
  5
36B
100
AcDbEntity
  8
LAYER0
 62
         3
100
AcDbLine
 10
-18.9383083758
 20
32.096216975
 30
0.0
 11
-18.9811791231
 21
32.1910006284
 31
0.0
  0
LINE
  5
36C
100
AcDbEntity
  8
LAYER0
 62
         3
100
AcDbLine
 10
-18.9811791231
 20
32.1910006284
 30
0.0
 11
-19.0064130754
 21
32.2380920231
 31
0.0
  0
LINE
  5
36D
100
AcDbEntity
  8
LAYER0
 62
         3
100
AcDbLine
 10
-19.0064130754
 20
32.2380920231
 30
0.0
 11
-19.0700707624
 21
32.3388484237
 31
0.0
  0
LINE
  5
36E
100
AcDbEntity
  8
LAYER0
 62
         3
100
AcDbLine
 10
-19.0700707624
 20
32.3388484237
 30
0.0
 11
-19.1423593958
 21
32.4339193582
 31
0.0
  0
LINE
  5
36F
100
AcDbEntity
  8
LAYER0
 62
         3
100
AcDbLine
 10
-19.1423593958
 20
32.4339193582
 30
0.0
 11
-19.2219771468
 21
32.5232458021
 31
0.0
  0
LINE
  5
370
100
AcDbEntity
  8
LAYER0
 62
         3
100
AcDbLine
 10
-19.2219771468
 20
32.5232458021
 30
0.0
 11
-19.3096057217
 21
32.6041576743
 31
0.0
  0
LINE
  5
371
100
AcDbEntity
  8
LAYER0
 62
         3
100
AcDbLine
 10
-19.3096057217
 20
32.6041576743
 30
0.0
 11
-19.447106303
 21
32.7041370153
 31
0.0
  0
ENDBLK
  5
372
100
AcDbEntity
  8
0
100
AcDbBlockEnd
  0
BLOCK
  5
37D
100
AcDbEntity
  8
0
100
AcDbBlockBegin
  2
CLUMP70
 70
         0
 10
0.0
 20
0.0
 30
0.0
  3

  1

  0
INSERT
  5
37F
100
AcDbEntity
  8
0
100
AcDbBlockReference
  2
CLUMP71
 10
0.0
 20
0.0
 30
0.0
  0
ENDBLK
  5
38B
100
AcDbEntity
  8
0
100
AcDbBlockEnd
  0
BLOCK
  5
380
100
AcDbEntity
  8
0
100
AcDbBlockBegin
  2
CLUMP71
 70
         0
 10
0.0
 20
0.0
 30
0.0
  3

  1

  0
LINE
  5
381
100
AcDbEntity
  8
LAYER1
 62
         3
100
AcDbLine
 10
-11.5640453466
 20
41.1166322708
 30
0.0
 11
-11.5637054139
 21
41.0988924384
 31
0.0
  0
LINE
  5
382
100
AcDbEntity
  8
LAYER1
 62
         3
100
AcDbLine
 10
-11.5637054139
 20
41.0988924384
 30
0.0
 11
-11.5626977228
 21
41.0462168335
 31
0.0
  0
LINE
  5
383
100
AcDbEntity
  8
LAYER1
 62
         3
100
AcDbLine
 10
-11.5626977228
 20
41.0462168335
 30
0.0
 11
-11.5610520759
 21
40.9602036058
 31
0.0
  0
LINE
  5
384
100
AcDbEntity
  8
LAYER1
 62
         3
100
AcDbLine
 10
-11.5610520759
 20
40.9602036058
 30
0.0
 11
-11.5588187643
 21
40.843467909
 31
0.0
  0
LINE
  5
385
100
AcDbEntity
  8
LAYER1
 62
         3
100
AcDbLine
 10
-11.5588187643
 20
40.843467909
 30
0.0
 11
-11.5560657748
 21
40.6995524942
 31
0.0
  0
LINE
  5
386
100
AcDbEntity
  8
LAYER1
 62
         3
100
AcDbLine
 10
-11.5560657748
 20
40.6995524942
 30
0.0
 11
-11.5528769263
 21
40.5328345775
 31
0.0
  0
LINE
  5
387
100
AcDbEntity
  8
LAYER1
 62
         3
100
AcDbLine
 10
-11.5528769263
 20
40.5328345775
 30
0.0
 11
-11.5493481451
 21
40.3483768284
 31
0.0
  0
LINE
  5
388
100
AcDbEntity
  8
LAYER1
 62
         3
100
AcDbLine
 10
-11.5493481451
 20
40.3483768284
 30
0.0
 11
-11.5455874645
 21
40.1517858087
 31
0.0
  0
LINE
  5
389
100
AcDbEntity
  8
LAYER1
 62
         3
100
AcDbLine
 10
-11.5455874645
 20
40.1517858087
 30
0.0
 11
-11.541708506
 21
39.9490368842
 31
0.0
  0
ENDBLK
  5
38A
100
AcDbEntity
  8
0
100
AcDbBlockEnd
  0
BLOCK
  5
38E
100
AcDbEntity
  8
0
100
AcDbBlockBegin
  2
CLUMP72
 70
         0
 10
0.0
 20
0.0
 30
0.0
  3

  1

  0
INSERT
  5
390
100
AcDbEntity
  8
0
100
AcDbBlockReference
  2
CLUMP73
 10
0.0
 20
0.0
 30
0.0
  0
ENDBLK
  5
39B
100
AcDbEntity
  8
0
100
AcDbBlockEnd
  0
BLOCK
  5
391
100
AcDbEntity
  8
0
100
AcDbBlockBegin
  2
CLUMP73
 70
         0
 10
0.0
 20
0.0
 30
0.0
  3

  1

  0
LINE
  5
392
100
AcDbEntity
  8
LAYER1
 62
         3
100
AcDbLine
 10
-11.0831755617
 20
15.9804371476
 30
0.0
 11
-11.0794437521
 21
15.7853436946
 31
0.0
  0
LINE
  5
393
100
AcDbEntity
  8
LAYER1
 62
         3
100
AcDbLine
 10
-11.0794437521
 20
15.7853436946
 30
0.0
 11
-11.0758544349
 21
15.5977529764
 31
0.0
  0
LINE
  5
394
100
AcDbEntity
  8
LAYER1
 62
         3
100
AcDbLine
 10
-11.0758544349
 20
15.5977529764
 30
0.0
 11
-11.0725473084
 21
15.4248659789
 31
0.0
  0
LINE
  5
395
100
AcDbEntity
  8
LAYER1
 62
         3
100
AcDbLine
 10
-11.0725473084
 20
15.4248659789
 30
0.0
 11
-11.0696481013
 21
15.2733286201
 31
0.0
  0
LINE
  5
396
100
AcDbEntity
  8
LAYER1
 62
         3
100
AcDbLine
 10
-11.0696481013
 20
15.2733286201
 30
0.0
 11
-11.0672695034
 21
15.1489672541
 31
0.0
  0
LINE
  5
397
100
AcDbEntity
  8
LAYER1
 62
         3
100
AcDbLine
 10
-11.0672695034
 20
15.1489672541
 30
0.0
 11
-11.0655009218
 21
15.056557703
 31
0.0
  0
LINE
  5
398
100
AcDbEntity
  8
LAYER1
 62
         3
100
AcDbLine
 10
-11.0655009218
 20
15.056557703
 30
0.0
 11
-11.0644122058
 21
14.9996501684
 31
0.0
  0
LINE
  5
399
100
AcDbEntity
  8
LAYER1
 62
         3
100
AcDbLine
 10
-11.0644122058
 20
14.9996501684
 30
0.0
 11
-11.0640452647
 21
14.980435121
 31
0.0
  0
ENDBLK
  5
39A
100
AcDbEntity
  8
0
100
AcDbBlockEnd
  0
BLOCK
  5
39E
100
AcDbEntity
  8
0
100
AcDbBlockBegin
  2
CLUMP74
 70
         0
 10
0.0
 20
0.0
 30
0.0
  3

  1

  0
INSERT
  5
3A0
100
AcDbEntity
  8
0
100
AcDbBlockReference
  2
CLUMP75
 10
0.0
 20
0.0
 30
0.0
  0
ENDBLK
  5
3AB
100
AcDbEntity
  8
0
100
AcDbBlockEnd
  0
BLOCK
  5
3A1
100
AcDbEntity
  8
0
100
AcDbBlockBegin
  2
CLUMP75
 70
         0
 10
0.0
 20
0.0
 30
0.0
  3

  1

  0
LINE
  5
3A2
100
AcDbEntity
  8
LAYER1
 62
         3
100
AcDbLine
 10
-30.5640447357
 20
41.1166322708
 30
0.0
 11
-30.5446117588
 21
41.1278528451
 31
0.0
  0
LINE
  5
3A3
100
AcDbEntity
  8
LAYER1
 62
         3
100
AcDbLine
 10
-30.5446117588
 20
41.1278528451
 30
0.0
 11
-30.4870606803
 21
41.1610787093
 31
0.0
  0
LINE
  5
3A4
100
AcDbEntity
  8
LAYER1
 62
         3
100
AcDbLine
 10
-30.4870606803
 20
41.1610787093
 30
0.0
 11
-30.3936015286
 21
41.215035814
 31
0.0
  0
LINE
  5
3A5
100
AcDbEntity
  8
LAYER1
 62
         3
100
AcDbLine
 10
-30.3936015286
 20
41.215035814
 30
0.0
 11
-30.2678264149
 21
41.2876528978
 31
0.0
  0
LINE
  5
3A6
100
AcDbEntity
  8
LAYER1
 62
         3
100
AcDbLine
 10
-30.2678264149
 20
41.2876528978
 30
0.0
 11
-30.1145698347
 21
41.3761359929
 31
0.0
  0
LINE
  5
3A7
100
AcDbEntity
  8
LAYER1
 62
         3
100
AcDbLine
 10
-30.1145698347
 20
41.3761359929
 30
0.0
 11
-29.9397196093
 21
41.4770876347
 31
0.0
  0
LINE
  5
3A8
100
AcDbEntity
  8
LAYER1
 62
         3
100
AcDbLine
 10
-29.9397196093
 20
41.4770876347
 30
0.0
 11
-29.7499970936
 21
41.5866223454
 31
0.0
  0
LINE
  5
3A9
100
AcDbEntity
  8
LAYER1
 62
         3
100
AcDbLine
 10
-29.7499970936
 20
41.5866223454
 30
0.0
 11
-29.5526917496
 21
41.7005379974
 31
0.0
  0
ENDBLK
  5
3AA
100
AcDbEntity
  8
0
100
AcDbBlockEnd
  0
BLOCK
  5
3AE
100
AcDbEntity
  8
0
100
AcDbBlockBegin
  2
CLUMP76
 70
         0
 10
0.0
 20
0.0
 30
0.0
  3

  1

  0
INSERT
  5
3B0
100
AcDbEntity
  8
0
100
AcDbBlockReference
  2
CLUMP77
 10
0.0
 20
0.0
 30
0.0
  0
ENDBLK
  5
3BB
100
AcDbEntity
  8
0
100
AcDbBlockEnd
  0
BLOCK
  5
3B1
100
AcDbEntity
  8
0
100
AcDbBlockBegin
  2
CLUMP77
 70
         0
 10
0.0
 20
0.0
 30
0.0
  3

  1

  0
LINE
  5
3B2
100
AcDbEntity
  8
LAYER1
 62
         3
100
AcDbLine
 10
-13.0752708235
 20
41.9891399621
 30
0.0
 11
-12.8779906251
 21
41.8752392113
 31
0.0
  0
LINE
  5
3B3
100
AcDbEntity
  8
LAYER1
 62
         3
100
AcDbLine
 10
-12.8779906251
 20
41.8752392113
 30
0.0
 11
-12.6882913926
 21
41.7657156765
 31
0.0
  0
LINE
  5
3B4
100
AcDbEntity
  8
LAYER1
 62
         3
100
AcDbLine
 10
-12.6882913926
 20
41.7657156765
 30
0.0
 11
-12.5134635189
 21
41.6647789359
 31
0.0
  0
LINE
  5
3B5
100
AcDbEntity
  8
LAYER1
 62
         3
100
AcDbLine
 10
-12.5134635189
 20
41.6647789359
 30
0.0
 11
-12.3602264964
 21
41.5763070166
 31
0.0
  0
LINE
  5
3B6
100
AcDbEntity
  8
LAYER1
 62
         3
100
AcDbLine
 10
-12.3602264964
 20
41.5763070166
 30
0.0
 11
-12.2344672152
 21
41.5037011086
 31
0.0
  0
LINE
  5
3B7
100
AcDbEntity
  8
LAYER1
 62
         3
100
AcDbLine
 10
-12.2344672152
 20
41.5037011086
 30
0.0
 11
-12.1410201707
 21
41.4497477292
 31
0.0
  0
LINE
  5
3B8
100
AcDbEntity
  8
LAYER1
 62
         3
100
AcDbLine
 10
-12.1410201707
 20
41.4497477292
 30
0.0
 11
-12.0834756114
 21
41.4165255904
 31
0.0
  0
LINE
  5
3B9
100
AcDbEntity
  8
LAYER1
 62
         3
100
AcDbLine
 10
-12.0834756114
 20
41.4165255904
 30
0.0
 11
-12.0640454286
 21
41.4053087413
 31
0.0
  0
ENDBLK
  5
3BA
100
AcDbEntity
  8
0
100
AcDbBlockEnd
  0
BLOCK
  5
3BE
100
AcDbEntity
  8
0
100
AcDbBlockBegin
  2
CLUMP78
 70
         0
 10
0.0
 20
0.0
 30
0.0
  3

  1

  0
INSERT
  5
3C0
100
AcDbEntity
  8
0
100
AcDbBlockReference
  2
CLUMP79
 10
0.0
 20
0.0
 30
0.0
  0
ENDBLK
  5
3E2
100
AcDbEntity
  8
0
100
AcDbBlockEnd
  0
BLOCK
  5
3C1
100
AcDbEntity
  8
0
100
AcDbBlockBegin
  2
CLUMP79
 70
         0
 10
0.0
 20
0.0
 30
0.0
  3

  1

  0
LINE
  5
3C2
100
AcDbEntity
  8
LAYER1
 62
         3
100
AcDbLine
 10
-24.373470939
 20
5.5150107771
 30
0.0
 11
-24.3682653115
 21
5.8008876919
 31
0.0
  0
LINE
  5
3C3
100
AcDbEntity
  8
LAYER1
 62
         3
100
AcDbLine
 10
-24.3682653115
 20
5.8008876919
 30
0.0
 11
-24.3624985621
 21
6.1175727575
 31
0.0
  0
LINE
  5
3C4
100
AcDbEntity
  8
LAYER1
 62
         3
100
AcDbLine
 10
-24.3624985621
 20
6.1175727575
 30
0.0
 11
-24.356218654
 21
6.4624526828
 31
0.0
  0
LINE
  5
3C5
100
AcDbEntity
  8
LAYER1
 62
         3
100
AcDbLine
 10
-24.356218654
 20
6.4624526828
 30
0.0
 11
-24.3494768099
 21
6.8326850712
 31
0.0
  0
LINE
  5
3C6
100
AcDbEntity
  8
LAYER1
 62
         3
100
AcDbLine
 10
-24.3494768099
 20
6.8326850712
 30
0.0
 11
-24.342329142
 21
7.2252170473
 31
0.0
  0
LINE
  5
3C7
100
AcDbEntity
  8
LAYER1
 62
         3
100
AcDbLine
 10
-24.342329142
 20
7.2252170473
 30
0.0
 11
-24.3348343235
 21
7.6368113338
 31
0.0
  0
LINE
  5
3C8
100
AcDbEntity
  8
LAYER1
 62
         3
100
AcDbLine
 10
-24.3348343235
 20
7.6368113338
 30
0.0
 11
-24.3270542876
 21
8.0640741914
 31
0.0
  0
LINE
  5
3C9
100
AcDbEntity
  8
LAYER1
 62
         3
100
AcDbLine
 10
-24.3270542876
 20
8.0640741914
 30
0.0
 11
-24.3190528297
 21
8.5034852206
 31
0.0
  0
LINE
  5
3CA
100
AcDbEntity
  8
LAYER1
 62
         3
100
AcDbLine
 10
-24.3190528297
 20
8.5034852206
 30
0.0
 11
-24.3108963066
 21
8.9514178514
 31
0.0
  0
LINE
  5
3CB
100
AcDbEntity
  8
LAYER1
 62
         3
100
AcDbLine
 10
-24.3108963066
 20
8.9514178514
 30
0.0
 11
-24.3026517735
 21
9.404180321
 31
0.0
  0
LINE
  5
3CC
100
AcDbEntity
  8
LAYER1
 62
         3
100
AcDbLine
 10
-24.3026517735
 20
9.404180321
 30
0.0
 11
-24.294387217
 21
9.8580398887
 31
0.0
  0
LINE
  5
3CD
100
AcDbEntity
  8
LAYER1
 62
         3
100
AcDbLine
 10
-24.294387217
 20
9.8580398887
 30
0.0
 11
-24.2861710892
 21
10.3092545002
 31
0.0
  0
LINE
  5
3CE
100
AcDbEntity
  8
LAYER1
 62
         3
100
AcDbLine
 10
-24.2861710892
 20
10.3092545002
 30
0.0
 11
-24.2780706783
 21
10.7541044533
 31
0.0
  0
LINE
  5
3CF
100
AcDbEntity
  8
LAYER1
 62
         3
100
AcDbLine
 10
-24.2780706783
 20
10.7541044533
 30
0.0
 11
-24.2701530394
 21
11.1889184743
 31
0.0
  0
LINE
  5
3D0
100
AcDbEntity
  8
LAYER1
 62
         3
100
AcDbLine
 10
-24.2701530394
 20
11.1889184743
 30
0.0
 11
-24.2624833652
 21
11.6101165592
 31
0.0
  0
LINE
  5
3D1
100
AcDbEntity
  8
LAYER1
 62
         3
100
AcDbLine
 10
-24.2624833652
 20
11.6101165592
 30
0.0
 11
-24.2551247527
 21
12.0142211496
 31
0.0
  0
LINE
  5
3D2
100
AcDbEntity
  8
LAYER1
 62
         3
100
AcDbLine
 10
-24.2551247527
 20
12.0142211496
 30
0.0
 11
-24.2481382036
 21
12.397901836
 31
0.0
  0
LINE
  5
3D3
100
AcDbEntity
  8
LAYER1
 62
         3
100
AcDbLine
 10
-24.2481382036
 20
12.397901836
 30
0.0
 11
-24.241581227
 21
12.7579977095
 31
0.0
  0
LINE
  5
3D4
100
AcDbEntity
  8
LAYER1
 62
         3
100
AcDbLine
 10
-24.241581227
 20
12.7579977095
 30
0.0
 11
-24.2355076068
 21
13.091537851
 31
0.0
  0
LINE
  5
3D5
100
AcDbEntity
  8
LAYER1
 62
         3
100
AcDbLine
 10
-24.2355076068
 20
13.091537851
 30
0.0
 11
-24.2299678673
 21
13.3957674086
 31
0.0
  0
LINE
  5
3D6
100
AcDbEntity
  8
LAYER1
 62
         3
100
AcDbLine
 10
-24.2299678673
 20
13.3957674086
 30
0.0
 11
-24.2250071776
 21
13.6681867122
 31
0.0
  0
LINE
  5
3D7
100
AcDbEntity
  8
LAYER1
 62
         3
100
AcDbLine
 10
-24.2250071776
 20
13.6681867122
 30
0.0
 11
-24.2206669816
 21
13.9065419614
 31
0.0
  0
LINE
  5
3D8
100
AcDbEntity
  8
LAYER1
 62
         3
100
AcDbLine
 10
-24.2206669816
 20
13.9065419614
 30
0.0
 11
-24.2169826695
 21
14.1088736534
 31
0.0
  0
LINE
  5
3D9
100
AcDbEntity
  8
LAYER1
 62
         3
100
AcDbLine
 10
-24.2169826695
 20
14.1088736534
 30
0.0
 11
-24.2139847421
 21
14.2735128581
 31
0.0
  0
LINE
  5
3DA
100
AcDbEntity
  8
LAYER1
 62
         3
100
AcDbLine
 10
-24.39126083
 20
4.5380384951
 30
0.0
 11
-24.390885507
 21
4.5586468011
 31
0.0
  0
LINE
  5
3DB
100
AcDbEntity
  8
LAYER1
 62
         3
100
AcDbLine
 10
-24.390885507
 20
4.5586468011
 30
0.0
 11
-24.3897627977
 21
4.6203059434
 31
0.0
  0
LINE
  5
3DC
100
AcDbEntity
  8
LAYER1
 62
         3
100
AcDbLine
 10
-24.3897627977
 20
4.6203059434
 30
0.0
 11
-24.3879017823
 21
4.7225055575
 31
0.0
  0
LINE
  5
3DD
100
AcDbEntity
  8
LAYER1
 62
         3
100
AcDbLine
 10
-24.3879017823
 20
4.7225055575
 30
0.0
 11
-24.3853178278
 21
4.8644037276
 31
0.0
  0
LINE
  5
3DE
100
AcDbEntity
  8
LAYER1
 62
         3
100
AcDbLine
 10
-24.3853178278
 20
4.8644037276
 30
0.0
 11
-24.3820325875
 21
5.0448307126
 31
0.0
  0
LINE
  5
3DF
100
AcDbEntity
  8
LAYER1
 62
         3
100
AcDbLine
 10
-24.3820325875
 20
5.0448307126
 30
0.0
 11
-24.3780726039
 21
5.2622963964
 31
0.0
  0
LINE
  5
3E0
100
AcDbEntity
  8
LAYER1
 62
         3
100
AcDbLine
 10
-24.3780726039
 20
5.2622963964
 30
0.0
 11
-24.373470939
 21
5.5150107771
 31
0.0
  0
ENDBLK
  5
3E1
100
AcDbEntity
  8
0
100
AcDbBlockEnd
  0
BLOCK
  5
3E5
100
AcDbEntity
  8
0
100
AcDbBlockBegin
  2
CLUMP80
 70
         0
 10
0.0
 20
0.0
 30
0.0
  3

  1

  0
INSERT
  5
3E7
100
AcDbEntity
  8
0
100
AcDbBlockReference
  2
CLUMP81
 10
0.0
 20
0.0
 30
0.0
  0
ENDBLK
  5
409
100
AcDbEntity
  8
0
100
AcDbBlockEnd
  0
BLOCK
  5
3E8
100
AcDbEntity
  8
0
100
AcDbBlockBegin
  2
CLUMP81
 70
         0
 10
0.0
 20
0.0
 30
0.0
  3

  1

  0
LINE
  5
3E9
100
AcDbEntity
  8
LAYER1
 62
         3
100
AcDbLine
 10
-18.3744653066
 20
5.405772227
 30
0.0
 11
-18.369259679
 21
5.6916510045
 31
0.0
  0
LINE
  5
3EA
100
AcDbEntity
  8
LAYER1
 62
         3
100
AcDbLine
 10
-18.369259679
 20
5.6916510045
 30
0.0
 11
-18.3634931625
 21
6.0083360701
 31
0.0
  0
LINE
  5
3EB
100
AcDbEntity
  8
LAYER1
 62
         3
100
AcDbLine
 10
-18.3634931625
 20
6.0083360701
 30
0.0
 11
-18.3572130215
 21
6.3532159954
 31
0.0
  0
LINE
  5
3EC
100
AcDbEntity
  8
LAYER1
 62
         3
100
AcDbLine
 10
-18.3572130215
 20
6.3532159954
 30
0.0
 11
-18.3504714102
 21
6.7234483837
 31
0.0
  0
LINE
  5
3ED
100
AcDbEntity
  8
LAYER1
 62
         3
100
AcDbLine
 10
-18.3504714102
 20
6.7234483837
 30
0.0
 11
-18.3433237423
 21
7.1159784972
 31
0.0
  0
LINE
  5
3EE
100
AcDbEntity
  8
LAYER1
 62
         3
100
AcDbLine
 10
-18.3433237423
 20
7.1159784972
 30
0.0
 11
-18.3358289239
 21
7.5275727838
 31
0.0
  0
LINE
  5
3EF
100
AcDbEntity
  8
LAYER1
 62
         3
100
AcDbLine
 10
-18.3358289239
 20
7.5275727838
 30
0.0
 11
-18.3280486551
 21
7.954837504
 31
0.0
  0
LINE
  5
3F0
100
AcDbEntity
  8
LAYER1
 62
         3
100
AcDbLine
 10
-18.3280486551
 20
7.954837504
 30
0.0
 11
-18.32004743
 21
8.3942466705
 31
0.0
  0
LINE
  5
3F1
100
AcDbEntity
  8
LAYER1
 62
         3
100
AcDbLine
 10
-18.32004743
 20
8.3942466705
 30
0.0
 11
-18.3118906741
 21
8.8421793013
 31
0.0
  0
LINE
  5
3F2
100
AcDbEntity
  8
LAYER1
 62
         3
100
AcDbLine
 10
-18.3118906741
 20
8.8421793013
 30
0.0
 11
-18.3036463738
 21
9.2949436336
 31
0.0
  0
LINE
  5
3F3
100
AcDbEntity
  8
LAYER1
 62
         3
100
AcDbLine
 10
-18.3036463738
 20
9.2949436336
 30
0.0
 11
-18.2953818173
 21
9.7488032013
 31
0.0
  0
LINE
  5
3F4
100
AcDbEntity
  8
LAYER1
 62
         3
100
AcDbLine
 10
-18.2953818173
 20
9.7488032013
 30
0.0
 11
-18.2871654567
 21
10.2000178128
 31
0.0
  0
LINE
  5
3F5
100
AcDbEntity
  8
LAYER1
 62
         3
100
AcDbLine
 10
-18.2871654567
 20
10.2000178128
 30
0.0
 11
-18.2790650458
 21
10.6448659032
 31
0.0
  0
LINE
  5
3F6
100
AcDbEntity
  8
LAYER1
 62
         3
100
AcDbLine
 10
-18.2790650458
 20
10.6448659032
 30
0.0
 11
-18.2711474069
 21
11.0796817868
 31
0.0
  0
LINE
  5
3F7
100
AcDbEntity
  8
LAYER1
 62
         3
100
AcDbLine
 10
-18.2711474069
 20
11.0796817868
 30
0.0
 11
-18.2634777327
 21
11.5008780091
 31
0.0
  0
LINE
  5
3F8
100
AcDbEntity
  8
LAYER1
 62
         3
100
AcDbLine
 10
-18.2634777327
 20
11.5008780091
 30
0.0
 11
-18.256119353
 21
11.9049825996
 31
0.0
  0
LINE
  5
3F9
100
AcDbEntity
  8
LAYER1
 62
         3
100
AcDbLine
 10
-18.256119353
 20
11.9049825996
 30
0.0
 11
-18.2491328039
 21
12.2886651486
 31
0.0
  0
LINE
  5
3FA
100
AcDbEntity
  8
LAYER1
 62
         3
100
AcDbLine
 10
-18.2491328039
 20
12.2886651486
 30
0.0
 11
-18.2425755945
 21
12.6487591594
 31
0.0
  0
LINE
  5
3FB
100
AcDbEntity
  8
LAYER1
 62
         3
100
AcDbLine
 10
-18.2425755945
 20
12.6487591594
 30
0.0
 11
-18.2365022072
 21
12.982299301
 31
0.0
  0
LINE
  5
3FC
100
AcDbEntity
  8
LAYER1
 62
         3
100
AcDbLine
 10
-18.2365022072
 20
12.982299301
 30
0.0
 11
-18.2309622348
 21
13.2865307211
 31
0.0
  0
LINE
  5
3FD
100
AcDbEntity
  8
LAYER1
 62
         3
100
AcDbLine
 10
-18.2309622348
 20
13.2865307211
 30
0.0
 11
-18.226001778
 21
13.5589500248
 31
0.0
  0
LINE
  5
3FE
100
AcDbEntity
  8
LAYER1
 62
         3
100
AcDbLine
 10
-18.226001778
 20
13.5589500248
 30
0.0
 11
-18.2216613491
 21
13.797305274
 31
0.0
  0
LINE
  5
3FF
100
AcDbEntity
  8
LAYER1
 62
         3
100
AcDbLine
 10
-18.2216613491
 20
13.797305274
 30
0.0
 11
-18.217977037
 21
13.9996369659
 31
0.0
  0
LINE
  5
400
100
AcDbEntity
  8
LAYER1
 62
         3
100
AcDbLine
 10
-18.217977037
 20
13.9996369659
 30
0.0
 11
-18.2149791096
 21
14.1642724454
 31
0.0
  0
LINE
  5
401
100
AcDbEntity
  8
LAYER1
 62
         3
100
AcDbLine
 10
-18.3922554304
 20
4.4287999451
 30
0.0
 11
-18.3918801074
 21
4.4494101136
 31
0.0
  0
LINE
  5
402
100
AcDbEntity
  8
LAYER1
 62
         3
100
AcDbLine
 10
-18.3918801074
 20
4.4494101136
 30
0.0
 11
-18.3907571652
 21
4.511069256
 31
0.0
  0
LINE
  5
403
100
AcDbEntity
  8
LAYER1
 62
         3
100
AcDbLine
 10
-18.3907571652
 20
4.511069256
 30
0.0
 11
-18.3888963827
 21
4.6132688701
 31
0.0
  0
LINE
  5
404
100
AcDbEntity
  8
LAYER1
 62
         3
100
AcDbLine
 10
-18.3888963827
 20
4.6132688701
 30
0.0
 11
-18.3863124282
 21
4.7551670402
 31
0.0
  0
LINE
  5
405
100
AcDbEntity
  8
LAYER1
 62
         3
100
AcDbLine
 10
-18.3863124282
 20
4.7551670402
 30
0.0
 11
-18.383026955
 21
4.9355921626
 31
0.0
  0
LINE
  5
406
100
AcDbEntity
  8
LAYER1
 62
         3
100
AcDbLine
 10
-18.383026955
 20
4.9355921626
 30
0.0
 11
-18.3790669714
 21
5.153059709
 31
0.0
  0
LINE
  5
407
100
AcDbEntity
  8
LAYER1
 62
         3
100
AcDbLine
 10
-18.3790669714
 20
5.153059709
 30
0.0
 11
-18.3744653066
 21
5.405772227
 31
0.0
  0
ENDBLK
  5
408
100
AcDbEntity
  8
0
100
AcDbBlockEnd
  0
ENDSEC
  0
SECTION
  2
ENTITIES
  0
LINE
  5
2F
100
AcDbEntity
  8
LAYER3
 62
         4
100
AcDbLine
 10
41.8291738991
 20
58.778766863
 30
0.0
 11
38.8947310969
 21
58.1550317905
 31
0.0
  0
LINE
  5
30
100
AcDbEntity
  8
LAYER3
 62
         4
100
AcDbLine
 10
41.8291738991
 20
58.778766863
 30
0.0
 11
38.8947310969
 21
59.4025019354
 31
0.0
  0
LINE
  5
31
100
AcDbEntity
  8
LAYER3
 62
         4
100
AcDbLine
 10
24.6291737806
 20
58.778766863
 30
0.0
 11
27.5636165828
 21
59.4025019354
 31
0.0
  0
LINE
  5
32
100
AcDbEntity
  8
LAYER3
 62
         4
100
AcDbLine
 10
24.6291737806
 20
58.778766863
 30
0.0
 11
27.5636165828
 21
58.1550317905
 31
0.0
  0
LINE
  5
33
100
AcDbEntity
  8
LAYER3
 62
         4
100
AcDbLine
 10
24.6291737806
 20
58.778766863
 30
0.0
 11
41.8291738991
 21
58.778766863
 31
0.0
  0
LINE
  5
34
100
AcDbEntity
  8
LAYER3
 62
         4
100
AcDbLine
 10
24.6291737806
 20
46.4804336011
 30
0.0
 11
24.6291737806
 21
59.778766863
 31
0.0
  0
LINE
  5
35
100
AcDbEntity
  8
LAYER3
 62
         4
100
AcDbLine
 10
41.8291738991
 20
46.4804336011
 30
0.0
 11
41.8291738991
 21
59.778766863
 31
0.0
  0
ARC
  5
37
100
AcDbEntity
  8
LAYER1
 62
         3
100
AcDbCircle
 10
33.2284753423
 20
9.4279616772
 30
0.0
 40
3.4992475243
210
0.0
220
0.0
230
1.0
100
AcDbArc
 50
112.4390717494
 51
251.6902722083
  0
ARC
  5
38
100
AcDbEntity
  8
LAYER1
 62
         3
100
AcDbCircle
 10
31.1295030012
 20
14.5105223234
 30
0.0
 40
1.9996712433
210
0.0
220
0.0
230
1.0
100
AcDbArc
 50
292.4400301852
 51
359.997465594
  0
ARC
  5
39
100
AcDbEntity
  8
LAYER1
 62
         3
100
AcDbCircle
 10
33.2282501793
 20
9.4279458257
 30
0.0
 40
4.9989836432
210
0.0
220
0.0
230
1.0
100
AcDbArc
 50
108.6556967346
 51
257.2991931974
  0
ARC
  5
3A
100
AcDbEntity
  8
LAYER1
 62
         3
100
AcDbCircle
 10
29.7291737916
 20
33.5134660957
 30
0.0
 40
0.5
210
-0.0
220
0.0
230
1.0
100
AcDbArc
 50
312.3889376094
 51
0.0000028755
  0
LINE
  5
3B
100
AcDbEntity
  8
LAYER1
 62
         3
100
AcDbLine
 10
30.7291745942
 20
45.5804352939
 30
0.0
 11
30.2291735809
 21
45.5804352939
 31
0.0
  0
INSERT
  5
3D
100
AcDbEntity
  8
0
100
AcDbBlockReference
  2
CLUMP0
 10
0.0
 20
0.0
 30
0.0
  0
INSERT
  5
6D
100
AcDbEntity
  8
0
100
AcDbBlockReference
  2
CLUMP2
 10
0.0
 20
0.0
 30
0.0
  0
INSERT
  5
7D
100
AcDbEntity
  8
0
100
AcDbBlockReference
  2
CLUMP4
 10
0.0
 20
0.0
 30
0.0
  0
INSERT
  5
89
100
AcDbEntity
  8
0
100
AcDbBlockReference
  2
CLUMP6
 10
0.0
 20
0.0
 30
0.0
  0
INSERT
  5
A4
100
AcDbEntity
  8
0
100
AcDbBlockReference
  2
CLUMP8
 10
0.0
 20
0.0
 30
0.0
  0
INSERT
  5
B5
100
AcDbEntity
  8
0
100
AcDbBlockReference
  2
CLUMP10
 10
0.0
 20
0.0
 30
0.0
  0
INSERT
  5
C2
100
AcDbEntity
  8
0
100
AcDbBlockReference
  2
CLUMP12
 10
0.0
 20
0.0
 30
0.0
  0
INSERT
  5
D3
100
AcDbEntity
  8
0
100
AcDbBlockReference
  2
CLUMP14
 10
0.0
 20
0.0
 30
0.0
  0
INSERT
  5
E4
100
AcDbEntity
  8
0
100
AcDbBlockReference
  2
CLUMP16
 10
0.0
 20
0.0
 30
0.0
  0
INSERT
  5
F5
100
AcDbEntity
  8
0
100
AcDbBlockReference
  2
CLUMP18
 10
0.0
 20
0.0
 30
0.0
  0
INSERT
  5
106
100
AcDbEntity
  8
0
100
AcDbBlockReference
  2
CLUMP20
 10
0.0
 20
0.0
 30
0.0
  0
INSERT
  5
117
100
AcDbEntity
  8
0
100
AcDbBlockReference
  2
CLUMP22
 10
0.0
 20
0.0
 30
0.0
  0
INSERT
  5
126
100
AcDbEntity
  8
0
100
AcDbBlockReference
  2
CLUMP24
 10
0.0
 20
0.0
 30
0.0
  0
INSERT
  5
132
100
AcDbEntity
  8
0
100
AcDbBlockReference
  2
CLUMP26
 10
0.0
 20
0.0
 30
0.0
  0
INSERT
  5
14A
100
AcDbEntity
  8
0
100
AcDbBlockReference
  2
CLUMP28
 10
0.0
 20
0.0
 30
0.0
  0
MTEXT
  5
177
100
AcDbEntity
  8
LAYER3
100
AcDbMText
 10
52.9715791839
 20
17.082133585
 30
0.0
 40
2.1473683357
 41
2.5646459961
 71
         1
 72
         1
  1
\W0.8;52
 11
-0.0000000268
 21
1.0
 31
0.0
  0
LINE
  5
178
100
AcDbEntity
  8
LAYER3
 62
         4
100
AcDbLine
 10
56.7592378753
 20
45.4804336011
 30
0.0
 11
57.3829729477
 21
42.5459907989
 31
0.0
  0
LINE
  5
179
100
AcDbEntity
  8
LAYER3
 62
         4
100
AcDbLine
 10
56.7592378753
 20
45.4804336011
 30
0.0
 11
56.1355028028
 21
42.5459907989
 31
0.0
  0
LINE
  5
17A
100
AcDbEntity
  8
LAYER3
 62
         4
100
AcDbLine
 10
42.8291738991
 20
45.4804336011
 30
0.0
 11
57.7592378753
 21
45.4804336011
 31
0.0
  0
MTEXT
  5
17B
100
AcDbEntity
  8
LAYER3
100
AcDbMText
 10
28.4291738398
 20
62.5664255544
 30
0.0
 40
2.1473683357
 41
5.1292919922
 71
         1
 72
         1
  1
\W0.8;17.2
  0
LINE
  5
17C
100
AcDbEntity
  8
LAYER1
 62
         3
100
AcDbLine
 10
37.0291741368
 20
24.4875436007
 30
0.0
 11
37.0291741368
 21
31.6804346918
 31
0.0
  0
ARC
  5
17D
100
AcDbEntity
  8
LAYER1
 62
         3
100
AcDbCircle
 10
37.5291737916
 20
24.4875426003
 30
0.0
 40
0.5
210
0.0
220
0.0
230
1.0
100
AcDbArc
 50
179.9999969295
 51
224.9999976971
  0
ARC
  5
17E
100
AcDbEntity
  8
LAYER1
 62
         3
100
AcDbCircle
 10
35.0291737916
 20
31.6804358191
 30
0.0
 40
2.0
210
0.0
220
0.0
230
1.0
100
AcDbArc
 50
0.0
 51
47.0111702983
  0
LINE
  5
17F
100
AcDbEntity
  8
LAYER1
 62
         3
100
AcDbLine
 10
39.7291742068
 20
14.980435121
 30
0.0
 11
39.7291742068
 21
21.1662237822
 31
0.0
  0
ARC
  5
180
100
AcDbEntity
  8
LAYER1
 62
         3
100
AcDbCircle
 10
38.7291737916
 20
21.1662222567
 30
0.0
 40
1.0
210
0.0
220
0.0
230
1.0
100
AcDbArc
 50
0.0
 51
45.0000007676
  0
LINE
  5
181
100
AcDbEntity
  8
LAYER1
 62
         3
100
AcDbLine
 10
29.4291730773
 20
31.6804346918
 30
0.0
 11
29.4291730773
 21
24.4875436007
 31
0.0
  0
ARC
  5
182
100
AcDbEntity
  8
LAYER1
 62
         3
100
AcDbCircle
 10
28.9291737916
 20
24.4875426003
 30
0.0
 40
0.5
210
-0.0
220
0.0
230
1.0
100
AcDbArc
 50
314.9999992324
 51
0.0
  0
ARC
  5
183
100
AcDbEntity
  8
LAYER1
 62
         3
100
AcDbCircle
 10
31.4291737916
 20
31.6804358191
 30
0.0
 40
2.0
210
0.0
220
0.0
230
1.0
100
AcDbArc
 50
132.9878867249
 51
179.9999969295
  0
LINE
  5
184
100
AcDbEntity
  8
LAYER1
 62
         3
100
AcDbLine
 10
30.2291735809
 20
14.980435121
 30
0.0
 11
29.9791730743
 21
14.980435121
 31
0.0
  0
LINE
  5
185
100
AcDbEntity
  8
LAYER1
 62
         3
100
AcDbLine
 10
34.2291742366
 20
41.6972224891
 30
0.0
 11
31.2291737449
 21
41.6972224891
 31
0.0
  0
LINE
  5
186
100
AcDbEntity
  8
LAYER1
 62
         3
100
AcDbLine
 10
30.7291745942
 20
41.9891399621
 30
0.0
 11
30.7291745942
 21
44.6962003886
 31
0.0
  0
LINE
  5
187
100
AcDbEntity
  8
LAYER1
 62
         3
100
AcDbLine
 10
30.2291735809
 20
42.480434972
 30
0.0
 11
28.6291744363
 21
42.480434972
 31
0.0
  0
LINE
  5
188
100
AcDbEntity
  8
LAYER1
 62
         3
100
AcDbLine
 10
28.6291744363
 20
35.4804356872
 30
0.0
 11
30.2291735809
 21
35.4804356872
 31
0.0
  0
LINE
  5
189
100
AcDbEntity
  8
LAYER1
 62
         3
100
AcDbLine
 10
29.2827263277
 20
24.1339874744
 30
0.0
 11
27.0220674377
 21
21.8733285844
 31
0.0
  0
LINE
  5
18A
100
AcDbEntity
  8
LAYER1
 62
         3
100
AcDbLine
 10
26.7291739386
 20
21.1662237822
 30
0.0
 11
26.7291739386
 21
14.980435121
 31
0.0
  0
ARC
  5
18B
100
AcDbEntity
  8
LAYER1
 62
         3
100
AcDbCircle
 10
27.7291737916
 20
21.1662222567
 30
0.0
 40
1.0
210
0.0
220
0.0
230
1.0
100
AcDbArc
 50
135.0000023029
 51
179.9999969295
  0
LINE
  5
18C
100
AcDbEntity
  8
LAYER1
 62
         3
100
AcDbLine
 10
33.2291740727
 20
45.4804336011
 30
0.0
 11
30.7291745942
 21
45.4804336011
 31
0.0
  0
LINE
  5
18D
100
AcDbEntity
  8
LAYER1
 62
         3
100
AcDbLine
 10
35.7291735511
 20
45.4804336011
 30
0.0
 11
33.2291740727
 21
45.4804336011
 31
0.0
  0
LINE
  5
18E
100
AcDbEntity
  8
LAYER1
 62
         3
100
AcDbLine
 10
28.2291732531
 20
9.537208575
 30
0.0
 11
28.2291732531
 21
9.4279718875
 31
0.0
  0
LINE
  5
18F
100
AcDbEntity
  8
LAYER1
 62
         3
100
AcDbLine
 10
38.2291739609
 20
9.4279718875
 30
0.0
 11
38.2291739609
 21
9.537208575
 31
0.0
  0
LINE
  5
190
100
AcDbEntity
  8
LAYER1
 62
         3
100
AcDbLine
 10
24.3291742902
 20
36.4804339885
 30
0.0
 11
24.6291737806
 21
36.4804339885
 31
0.0
  0
LINE
  5
191
100
AcDbEntity
  8
LAYER1
 62
         3
100
AcDbLine
 10
24.6291737806
 20
41.4804366707
 30
0.0
 11
24.3291742902
 21
41.4804366707
 31
0.0
  0
LINE
  5
192
100
AcDbEntity
  8
LAYER1
 62
         3
100
AcDbLine
 10
41.8291738991
 20
36.4804339885
 30
0.0
 11
42.1291738551
 21
36.4804339885
 31
0.0
  0
LINE
  5
193
100
AcDbEntity
  8
LAYER1
 62
         3
100
AcDbLine
 10
42.1291738551
 20
41.4804366707
 30
0.0
 11
41.8291738991
 21
41.4804366707
 31
0.0
  0
LINE
  5
194
100
AcDbEntity
  8
LAYER1
 62
         3
100
AcDbLine
 10
34.3291740667
 20
10.4838327795
 30
0.0
 11
32.1291740786
 21
10.4838327795
 31
0.0
  0
LINE
  5
195
100
AcDbEntity
  8
LAYER1
 62
         3
100
AcDbLine
 10
33.2291740727
 20
41.6972224891
 30
0.0
 11
33.2291740727
 21
42.1434005081
 31
0.0
  0
ARC
  5
196
100
AcDbEntity
  8
LAYER1
 62
         3
100
AcDbCircle
 10
33.2296805042
 20
9.5373963021
 30
0.0
 40
3.499495854
210
0.0
220
0.0
230
1.0
100
AcDbArc
 50
288.3116956591
 51
359.1026464629
  0
ARC
  5
197
100
AcDbEntity
  8
LAYER1
 62
         3
100
AcDbCircle
 10
33.2286659431
 20
9.5373950551
 30
0.0
 40
3.4994941366
210
0.0
220
0.0
230
1.0
100
AcDbArc
 50
180.8973304879
 51
251.688321249
  0
LINE
  5
198
100
AcDbEntity
  8
LAYER1
 62
         3
100
AcDbLine
 10
37.8291737091
 20
32.4804370582
 30
0.0
 11
41.8291738991
 21
32.4804370582
 31
0.0
  0
LINE
  5
199
100
AcDbEntity
  8
LAYER1
 62
         3
100
AcDbLine
 10
41.8291738991
 20
45.4804336011
 30
0.0
 11
37.8291737091
 21
45.4804336011
 31
0.0
  0
LINE
  5
19A
100
AcDbEntity
  8
LAYER1
 62
         3
100
AcDbLine
 10
24.6291737806
 20
32.4804370582
 30
0.0
 11
28.6291744363
 21
32.4804370582
 31
0.0
  0
LINE
  5
19B
100
AcDbEntity
  8
LAYER1
 62
         3
100
AcDbLine
 10
28.6291744363
 20
45.4804336011
 30
0.0
 11
24.6291737806
 21
45.4804336011
 31
0.0
  0
LINE
  5
19C
100
AcDbEntity
  8
LAYER1
 62
         3
100
AcDbLine
 10
31.6291730654
 20
14.1642724454
 30
0.0
 11
31.6291730654
 21
14.980435121
 31
0.0
  0
ARC
  5
19D
100
AcDbEntity
  8
LAYER1
 62
         3
100
AcDbCircle
 10
33.229877365
 20
9.4279613231
 30
0.0
 40
3.4992457549
210
-0.0
220
0.0
230
1.0
100
AcDbArc
 50
288.3096556286
 51
67.5610166701
  0
LINE
  5
19E
100
AcDbEntity
  8
LAYER1
 62
         3
100
AcDbLine
 10
35.7291735511
 20
44.6096022903
 30
0.0
 11
33.2291740727
 21
44.6096022903
 31
0.0
  0
LINE
  5
19F
100
AcDbEntity
  8
LAYER1
 62
         3
100
AcDbLine
 10
33.2291740727
 20
42.1434005081
 30
0.0
 11
35.7291735511
 21
42.1434005081
 31
0.0
  0
LINE
  5
1A0
100
AcDbEntity
  8
LAYER1
 62
         3
100
AcDbLine
 10
36.2291736331
 20
45.5804352939
 30
0.0
 11
36.2291736331
 21
44.6962003886
 31
0.0
  0
LINE
  5
1A1
100
AcDbEntity
  8
LAYER1
 62
         3
100
AcDbLine
 10
35.7291735511
 20
45.5804352939
 30
0.0
 11
35.7291735511
 21
44.6962003886
 31
0.0
  0
LINE
  5
1A2
100
AcDbEntity
  8
LAYER1
 62
         3
100
AcDbLine
 10
39.7291742068
 20
14.980435121
 30
0.0
 11
36.4791741397
 21
14.980435121
 31
0.0
  0
LINE
  5
1A3
100
AcDbEntity
  8
LAYER1
 62
         3
100
AcDbLine
 10
36.4791741397
 20
14.980435121
 30
0.0
 11
36.2291736331
 21
14.980435121
 31
0.0
  0
ARC
  5
1A4
100
AcDbEntity
  8
LAYER1
 62
         3
100
AcDbCircle
 10
33.2300951735
 20
9.427945816
 30
0.0
 40
4.9989842477
210
-0.0
220
0.0
230
1.0
100
AcDbArc
 50
282.7008349795
 51
71.3442861603
  0
ARC
  5
1A5
100
AcDbEntity
  8
LAYER1
 62
         3
100
AcDbCircle
 10
35.3288425243
 20
14.5105201861
 30
0.0
 40
1.9996686233
210
0.0
220
0.0
230
1.0
100
AcDbArc
 50
180.0024701003
 51
247.5599880875
  0
LINE
  5
1A6
100
AcDbEntity
  8
LAYER1
 62
         3
100
AcDbLine
 10
24.3291742902
 20
41.4804366707
 30
0.0
 11
24.3291742902
 21
36.4804339885
 31
0.0
  0
LINE
  5
1A7
100
AcDbEntity
  8
LAYER1
 62
         3
100
AcDbLine
 10
42.1291738551
 20
41.4804366707
 30
0.0
 11
42.1291738551
 21
36.4804339885
 31
0.0
  0
LINE
  5
1A8
100
AcDbEntity
  8
LAYER1
 62
         3
100
AcDbLine
 10
41.8291738991
 20
45.4804336011
 30
0.0
 11
41.8291738991
 21
32.4804370582
 31
0.0
  0
LINE
  5
1A9
100
AcDbEntity
  8
LAYER1
 62
         3
100
AcDbLine
 10
37.8291737091
 20
45.4804336011
 30
0.0
 11
37.8291737091
 21
32.4804370582
 31
0.0
  0
LINE
  5
1AA
100
AcDbEntity
  8
LAYER1
 62
         3
100
AcDbLine
 10
28.6291744363
 20
45.4804336011
 30
0.0
 11
28.6291744363
 21
32.4804370582
 31
0.0
  0
LINE
  5
1AB
100
AcDbEntity
  8
LAYER1
 62
         3
100
AcDbLine
 10
24.6291737806
 20
45.4804336011
 30
0.0
 11
24.6291737806
 21
32.4804370582
 31
0.0
  0
LINE
  5
1AC
100
AcDbEntity
  8
LAYER1
 62
         3
100
AcDbLine
 10
32.1291740786
 20
1.8290800332
 30
0.0
 11
32.1291740786
 21
10.4838327795
 31
0.0
  0
LINE
  5
1AD
100
AcDbEntity
  8
LAYER1
 62
         3
100
AcDbLine
 10
34.3291740667
 20
1.8290800332
 30
0.0
 11
34.3291740667
 21
10.4838327795
 31
0.0
  0
ARC
  5
1AE
100
AcDbEntity
  8
LAYER1
 62
         3
100
AcDbCircle
 10
36.7291737916
 20
33.5134660957
 30
0.0
 40
0.5
210
0.0
220
0.0
230
1.0
100
AcDbArc
 50
180.000000195
 51
227.5687491998
  0
LINE
  5
1AF
100
AcDbEntity
  8
LAYER1
 62
         3
100
AcDbLine
 10
36.2291736331
 20
45.5804352939
 30
0.0
 11
35.7291735511
 21
45.5804352939
 31
0.0
  0
LINE
  5
1B0
100
AcDbEntity
  8
LAYER1
 62
         3
100
AcDbLine
 10
36.2291736331
 20
35.4804356872
 30
0.0
 11
37.8291737091
 21
35.4804356872
 31
0.0
  0
LINE
  5
1B1
100
AcDbEntity
  8
LAYER1
 62
         3
100
AcDbLine
 10
37.8291737091
 20
42.480434972
 30
0.0
 11
36.2291736331
 21
42.480434972
 31
0.0
  0
LINE
  5
1B2
100
AcDbEntity
  8
LAYER1
 62
         3
100
AcDbLine
 10
39.4362807077
 20
21.8733285844
 30
0.0
 11
37.175619955
 21
24.1339874744
 31
0.0
  0
LINE
  5
1B3
100
AcDbEntity
  8
LAYER1
 62
         3
100
AcDbLine
 10
30.2291735809
 20
44.6962003886
 30
0.0
 11
30.2291735809
 21
45.5804352939
 31
0.0
  0
LINE
  5
1B4
100
AcDbEntity
  8
LAYER1
 62
         3
100
AcDbLine
 10
29.9791730743
 20
14.980435121
 30
0.0
 11
26.7291739386
 21
14.980435121
 31
0.0
  0
LINE
  5
1B5
100
AcDbEntity
  8
LAYER1
 62
         3
100
AcDbLine
 10
30.7291745942
 20
44.6962003886
 30
0.0
 11
30.7291745942
 21
45.5804352939
 31
0.0
  0
LINE
  5
1B6
100
AcDbEntity
  8
LAYER1
 62
         3
100
AcDbLine
 10
36.2291736331
 20
44.6962003886
 30
0.0
 11
35.7291735511
 21
44.6962003886
 31
0.0
  0
LINE
  5
1B7
100
AcDbEntity
  8
LAYER1
 62
         3
100
AcDbLine
 10
32.2291739088
 20
41.4085832714
 30
0.0
 11
32.2291739088
 21
41.1166322708
 31
0.0
  0
LINE
  5
1B8
100
AcDbEntity
  8
LAYER1
 62
         3
100
AcDbLine
 10
35.2291734692
 20
14.980435121
 30
0.0
 11
35.2291734692
 21
41.1166322708
 31
0.0
  0
LINE
  5
1B9
100
AcDbEntity
  8
LAYER1
 62
         3
100
AcDbLine
 10
29.4291730773
 20
24.4875436007
 30
0.0
 11
30.1361512195
 21
24.4875436007
 31
0.0
  0
LINE
  5
1BA
100
AcDbEntity
  8
LAYER1
 62
         3
100
AcDbLine
 10
30.1361512195
 20
31.6804346918
 30
0.0
 11
29.4291730773
 21
31.6804346918
 31
0.0
  0
ARC
  5
1BB
100
AcDbEntity
  8
LAYER1
 62
         3
100
AcDbCircle
 10
29.5738410322
 20
24.4802545231
 30
0.0
 40
0.5623574286
210
-0.0
220
0.0
230
1.0
100
AcDbArc
 50
321.9941492653
 51
0.7426683888
  0
LINE
  5
1BC
100
AcDbEntity
  8
LAYER1
 62
         3
100
AcDbLine
 10
30.1361512195
 20
24.4875436007
 30
0.0
 11
30.2291735809
 21
24.4875436007
 31
0.0
  0
LINE
  5
1BD
100
AcDbEntity
  8
LAYER1
 62
         3
100
AcDbLine
 10
30.1361512195
 20
24.4875436007
 30
0.0
 11
30.1361512195
 21
31.6804346918
 31
0.0
  0
LINE
  5
1BE
100
AcDbEntity
  8
LAYER1
 62
         3
100
AcDbLine
 10
30.2291735809
 20
41.9891399621
 30
0.0
 11
30.2291735809
 21
44.6962003886
 31
0.0
  0
LINE
  5
1BF
100
AcDbEntity
  8
LAYER1
 62
         3
100
AcDbLine
 10
31.2291737449
 20
14.980435121
 30
0.0
 11
30.2291735809
 21
14.980435121
 31
0.0
  0
LINE
  5
1C0
100
AcDbEntity
  8
LAYER1
 62
         3
100
AcDbLine
 10
30.2291735809
 20
14.980435121
 30
0.0
 11
30.2291735809
 21
41.9891399621
 31
0.0
  0
LINE
  5
1C1
100
AcDbEntity
  8
LAYER1
 62
         3
100
AcDbLine
 10
31.2291737449
 20
14.980435121
 30
0.0
 11
32.2291739088
 21
14.980435121
 31
0.0
  0
LINE
  5
1C2
100
AcDbEntity
  8
LAYER1
 62
         3
100
AcDbLine
 10
31.2291737449
 20
41.4053087413
 30
0.0
 11
34.2291742366
 21
41.4053087413
 31
0.0
  0
CIRCLE
  5
1C3
100
AcDbEntity
  8
LAYER1
 62
         3
100
AcDbCircle
 10
33.2291737916
 20
37.9804358191
 30
0.0
 40
1.0
210
0.0
220
0.0
230
1.0
  0
CIRCLE
  5
1C4
100
AcDbEntity
  8
LAYER1
 62
         3
100
AcDbCircle
 10
33.2291737916
 20
17.9804358191
 30
0.0
 40
1.0
210
0.0
220
0.0
230
1.0
  0
LINE
  5
1C5
100
AcDbEntity
  8
LAYER1
 62
         3
100
AcDbLine
 10
33.2291740727
 20
45.4804336011
 30
0.0
 11
33.2291740727
 21
44.6096022903
 31
0.0
  0
LINE
  5
1C6
100
AcDbEntity
  8
LAYER1
 62
         3
100
AcDbLine
 10
33.2291740727
 20
44.6096022903
 30
0.0
 11
33.2291740727
 21
42.1434005081
 31
0.0
  0
ARC
  5
1C7
100
AcDbEntity
  8
LAYER1
 62
         3
100
AcDbCircle
 10
33.2284213263
 20
9.5369649214
 30
0.0
 40
4.9992480791
210
0.0
220
0.0
230
1.0
100
AcDbArc
 50
108.6567437958
 51
179.9972105868
  0
ARC
  5
1C8
100
AcDbEntity
  8
LAYER1
 62
         3
100
AcDbCircle
 10
33.2299301906
 20
9.5369680103
 30
0.0
 40
4.9992437761
210
0.0
220
0.0
230
1.0
100
AcDbArc
 50
0.0027570854
 51
71.343294673
  0
LINE
  5
1C9
100
AcDbEntity
  8
LAYER1
 62
         3
100
AcDbLine
 10
34.8291741487
 20
14.980435121
 30
0.0
 11
34.8291741487
 21
14.1642724454
 31
0.0
  0
LINE
  5
1CA
100
AcDbEntity
  8
LAYER1
 62
         3
100
AcDbLine
 10
33.3291739028
 20
14.5104338705
 30
0.0
 11
33.3291739028
 21
14.980435121
 31
0.0
  0
LINE
  5
1CB
100
AcDbEntity
  8
LAYER1
 62
         3
100
AcDbLine
 10
33.1291742426
 20
14.980435121
 30
0.0
 11
33.1291742426
 21
14.5104338705
 31
0.0
  0
LINE
  5
1CC
100
AcDbEntity
  8
LAYER1
 62
         3
100
AcDbLine
 10
30.7291745942
 20
44.6096022903
 30
0.0
 11
33.2291740727
 21
44.6096022903
 31
0.0
  0
LINE
  5
1CD
100
AcDbEntity
  8
LAYER1
 62
         3
100
AcDbLine
 10
30.7291745942
 20
42.1434005081
 30
0.0
 11
33.2291740727
 21
42.1434005081
 31
0.0
  0
LINE
  5
1CE
100
AcDbEntity
  8
LAYER1
 62
         3
100
AcDbLine
 10
34.2291742366
 20
41.4053087413
 30
0.0
 11
34.2291742366
 21
41.6972224891
 31
0.0
  0
LINE
  5
1CF
100
AcDbEntity
  8
LAYER1
 62
         3
100
AcDbLine
 10
31.2291737449
 20
15.9804371476
 30
0.0
 11
31.2291737449
 21
14.980435121
 31
0.0
  0
LINE
  5
1D0
100
AcDbEntity
  8
LAYER1
 62
         3
100
AcDbLine
 10
31.2291737449
 20
41.4053087413
 30
0.0
 11
31.2291737449
 21
40.2378511905
 31
0.0
  0
LINE
  5
1D1
100
AcDbEntity
  8
LAYER1
 62
         3
100
AcDbLine
 10
36.3221969258
 20
24.4875436007
 30
0.0
 11
37.0291741368
 21
24.4875436007
 31
0.0
  0
LINE
  5
1D2
100
AcDbEntity
  8
LAYER1
 62
         3
100
AcDbLine
 10
37.0291741368
 20
31.6804346918
 30
0.0
 11
36.3221969258
 21
31.6804346918
 31
0.0
  0
LINE
  5
1D3
100
AcDbEntity
  8
LAYER1
 62
         3
100
AcDbLine
 10
36.3221969258
 20
31.6804346918
 30
0.0
 11
36.3221969258
 21
24.4875436007
 31
0.0
  0
LINE
  5
1D4
100
AcDbEntity
  8
LAYER1
 62
         3
100
AcDbLine
 10
36.2291736331
 20
24.4875436007
 30
0.0
 11
36.3221969258
 21
24.4875436007
 31
0.0
  0
ARC
  5
1D5
100
AcDbEntity
  8
LAYER1
 62
         3
100
AcDbCircle
 10
36.8845080487
 20
24.4802536713
 30
0.0
 40
0.5623583751
210
0.0
220
0.0
230
1.0
100
AcDbArc
 50
179.2572491385
 51
218.0056621646
  0
LINE
  5
1D6
100
AcDbEntity
  8
LAYER1
 62
         3
100
AcDbLine
 10
36.2291736331
 20
31.6804346918
 30
0.0
 11
36.3221969258
 21
31.6804346918
 31
0.0
  0
LINE
  5
1D7
100
AcDbEntity
  8
LAYER1
 62
         3
100
AcDbLine
 10
32.2291739088
 20
41.4085832714
 30
0.0
 11
35.2291734692
 21
41.4085832714
 31
0.0
  0
LINE
  5
1D8
100
AcDbEntity
  8
LAYER1
 62
         3
100
AcDbLine
 10
36.2291736331
 20
44.6962003886
 30
0.0
 11
36.2291736331
 21
41.7005379974
 31
0.0
  0
LINE
  5
1D9
100
AcDbEntity
  8
LAYER1
 62
         3
100
AcDbLine
 10
35.7291735511
 20
44.6962003886
 30
0.0
 11
35.7291735511
 21
41.7005379974
 31
0.0
  0
LINE
  5
1DA
100
AcDbEntity
  8
LAYER1
 62
         3
100
AcDbLine
 10
31.2291737449
 20
39.9490368842
 30
0.0
 11
31.2291737449
 21
40.2378511905
 31
0.0
  0
LINE
  5
1DB
100
AcDbEntity
  8
LAYER1
 62
         3
100
AcDbLine
 10
35.2291734692
 20
14.980435121
 30
0.0
 11
32.2291739088
 21
14.980435121
 31
0.0
  0
CIRCLE
  5
1DC
100
AcDbEntity
  8
LAYER1
 62
         3
100
AcDbCircle
 10
33.2291737916
 20
17.9804358191
 30
0.0
 40
1.05
210
0.0
220
0.0
230
1.0
  0
LINE
  5
1DD
100
AcDbEntity
  8
LAYER1
 62
         3
100
AcDbLine
 10
31.2291737449
 20
39.9490368842
 30
0.0
 11
31.2291737449
 21
15.9804371476
 31
0.0
  0
ARC
  5
1DE
100
AcDbEntity
  8
LAYER1
 62
         3
100
AcDbCircle
 10
32.2291737916
 20
15.9804358191
 30
0.0
 40
1.0
210
0.0
220
0.0
230
1.0
100
AcDbArc
 50
179.9999969295
 51
269.9999984648
  0
LINE
  5
1DF
100
AcDbEntity
  8
LAYER1
 62
         3
100
AcDbLine
 10
35.2291734692
 20
41.1166322708
 30
0.0
 11
32.2291739088
 21
41.1166322708
 31
0.0
  0
LINE
  5
1E0
100
AcDbEntity
  8
LAYER0
 62
         3
100
AcDbLine
 10
10.0
 20
-138.5
 30
0.0
 11
10.0
 21
-125.5
 31
0.0
  0
LINE
  5
1E1
100
AcDbEntity
  8
LAYER0
 62
         3
100
AcDbLine
 10
95.0
 20
-138.5
 30
0.0
 11
95.0
 21
-125.5
 31
0.0
  0
LINE
  5
1E2
100
AcDbEntity
  8
LAYER1
 62
         3
100
AcDbLine
 10
32.1291740786
 20
-6.5161662818
 30
0.0
 11
34.3291740667
 21
-6.5161662818
 31
0.0
  0
LINE
  5
1E3
100
AcDbEntity
  8
LAYER3
 62
         4
100
AcDbLine
 10
56.7592378753
 20
-6.5161662818
 30
0.0
 11
56.1355028028
 21
-3.5817234796
 31
0.0
  0
LINE
  5
1E4
100
AcDbEntity
  8
LAYER3
 62
         4
100
AcDbLine
 10
56.7592378753
 20
-6.5161662818
 30
0.0
 11
57.3829729477
 21
-3.5817234796
 31
0.0
  0
LINE
  5
1E5
100
AcDbEntity
  8
LAYER3
 62
         4
100
AcDbLine
 10
35.3291740667
 20
-6.5161662818
 30
0.0
 11
57.7592378753
 21
-6.5161662818
 31
0.0
  0
LINE
  5
1E6
100
AcDbEntity
  8
LAYER1
 62
         3
100
AcDbLine
 10
37.175619955
 20
24.1339874744
 30
0.0
 11
36.4413978335
 21
24.1339874744
 31
0.0
  0
ARC
  5
1E7
100
AcDbEntity
  8
LAYER1
 62
         3
100
AcDbCircle
 10
36.6478736055
 20
24.498398296
 30
0.0
 40
0.4188406515
210
0.0
220
0.0
230
1.0
100
AcDbArc
 50
181.4850435027
 51
240.4640355969
  0
LINE
  5
1E8
100
AcDbEntity
  8
LAYER1
 62
         3
100
AcDbLine
 10
36.5405594733
 20
21.8733285844
 30
0.0
 11
39.4362807077
 21
21.8733285844
 31
0.0
  0
LINE
  5
1E9
100
AcDbEntity
  8
LAYER1
 62
         3
100
AcDbLine
 10
39.7291742068
 20
21.1662237822
 30
0.0
 11
36.4791741397
 21
21.1662237822
 31
0.0
  0
LINE
  5
1EA
100
AcDbEntity
  8
LAYER1
 62
         3
100
AcDbLine
 10
36.4791741397
 20
21.1662237822
 30
0.0
 11
36.4791741397
 21
14.980435121
 31
0.0
  0
LINE
  5
1EB
100
AcDbEntity
  8
LAYER1
 62
         3
100
AcDbLine
 10
36.2291736331
 20
21.1662237822
 30
0.0
 11
36.4791741397
 21
21.1662237822
 31
0.0
  0
ARC
  5
1EC
100
AcDbEntity
  8
LAYER1
 62
         3
100
AcDbCircle
 10
36.6256898265
 20
22.2622061794
 30
0.0
 40
0.3980866249
210
0.0
220
0.0
230
1.0
100
AcDbArc
 50
185.0909749797
 51
257.6519996479
  0
CIRCLE
  5
1ED
100
AcDbEntity
  8
LAYER1
 62
         3
100
AcDbCircle
 10
33.2291737916
 20
37.9804358191
 30
0.0
 40
1.05
210
0.0
220
0.0
230
1.0
  0
LINE
  5
1EE
100
AcDbEntity
  8
LAYER1
 62
         3
100
AcDbLine
 10
36.2291736331
 20
14.980435121
 30
0.0
 11
35.2291734692
 21
14.980435121
 31
0.0
  0
LINE
  5
1EF
100
AcDbEntity
  8
LAYER1
 62
         3
100
AcDbLine
 10
36.2291736331
 20
41.7005379974
 30
0.0
 11
36.2291736331
 21
14.980435121
 31
0.0
  0
LINE
  5
1F0
100
AcDbEntity
  8
LAYER1
 62
         3
100
AcDbLine
 10
30.2291735809
 20
31.6804346918
 30
0.0
 11
30.1361512195
 21
31.6804346918
 31
0.0
  0
LINE
  5
1F1
100
AcDbEntity
  8
LAYER1
 62
         3
100
AcDbLine
 10
30.0169493806
 20
24.1339874744
 30
0.0
 11
29.2827263277
 21
24.1339874744
 31
0.0
  0
ARC
  5
1F2
100
AcDbEntity
  8
LAYER1
 62
         3
100
AcDbCircle
 10
29.8104761951
 20
24.4983967433
 30
0.0
 40
0.4188380255
210
0.0
220
0.0
230
1.0
100
AcDbArc
 50
299.5357581808
 51
358.5151565787
  0
LINE
  5
1F3
100
AcDbEntity
  8
LAYER1
 62
         3
100
AcDbLine
 10
27.0220674377
 20
21.8733285844
 30
0.0
 11
29.9177877408
 21
21.8733285844
 31
0.0
  0
LINE
  5
1F4
100
AcDbEntity
  8
LAYER1
 62
         3
100
AcDbLine
 10
29.9791730743
 20
21.1662237822
 30
0.0
 11
26.7291739386
 21
21.1662237822
 31
0.0
  0
LINE
  5
1F5
100
AcDbEntity
  8
LAYER1
 62
         3
100
AcDbLine
 10
29.9791730743
 20
14.980435121
 30
0.0
 11
29.9791730743
 21
21.1662237822
 31
0.0
  0
LINE
  5
1F6
100
AcDbEntity
  8
LAYER1
 62
         3
100
AcDbLine
 10
29.9791730743
 20
21.1662237822
 30
0.0
 11
30.2291735809
 21
21.1662237822
 31
0.0
  0
ARC
  5
1F7
100
AcDbEntity
  8
LAYER1
 62
         3
100
AcDbCircle
 10
29.8326583276
 20
22.2622053514
 30
0.0
 40
0.3980856151
210
0.0
220
0.0
230
1.0
100
AcDbArc
 50
282.347890596
 51
354.9091286356
  0
LINE
  5
1F8
100
AcDbEntity
  8
LAYER1
 62
         3
100
AcDbLine
 10
30.2291735809
 20
44.6962003886
 30
0.0
 11
30.7291745942
 21
44.6962003886
 31
0.0
  0
INSERT
  5
1FA
100
AcDbEntity
  8
0
100
AcDbBlockReference
  2
CLUMP30
 10
0.0
 20
0.0
 30
0.0
  0
INSERT
  5
20A
100
AcDbEntity
  8
0
100
AcDbBlockReference
  2
CLUMP32
 10
0.0
 20
0.0
 30
0.0
  0
INSERT
  5
21A
100
AcDbEntity
  8
0
100
AcDbBlockReference
  2
CLUMP34
 10
0.0
 20
0.0
 30
0.0
  0
INSERT
  5
22A
100
AcDbEntity
  8
0
100
AcDbBlockReference
  2
CLUMP36
 10
0.0
 20
0.0
 30
0.0
  0
INSERT
  5
23A
100
AcDbEntity
  8
0
100
AcDbBlockReference
  2
CLUMP38
 10
0.0
 20
0.0
 30
0.0
  0
INSERT
  5
24D
100
AcDbEntity
  8
0
100
AcDbBlockReference
  2
CLUMP40
 10
0.0
 20
0.0
 30
0.0
  0
INSERT
  5
259
100
AcDbEntity
  8
0
100
AcDbBlockReference
  2
CLUMP42
 10
0.0
 20
0.0
 30
0.0
  0
INSERT
  5
265
100
AcDbEntity
  8
0
100
AcDbBlockReference
  2
CLUMP44
 10
0.0
 20
0.0
 30
0.0
  0
LINE
  5
276
100
AcDbEntity
  8
LAYER3
 62
         4
100
AcDbLine
 10
-31.0640448176
 20
15.980435121
 30
0.0
 11
-31.0640448176
 21
59.6803350863
 31
0.0
  0
MTEXT
  5
277
100
AcDbEntity
  8
LAYER3
100
AcDbMText
 10
-53.9384307487
 20
12.0821346619
 30
0.0
 40
2.1473683357
 41
2.5646459961
 71
         1
 72
         1
  1
\W0.8;36
 11
-0.0000000268
 21
1.0
 31
0.0
  0
LINE
  5
278
100
AcDbEntity
  8
LAYER3
 62
         4
100
AcDbLine
 10
-50.1507720573
 20
32.4804358191
 30
0.0
 11
-49.5270369848
 21
29.5459930169
 31
0.0
  0
LINE
  5
279
100
AcDbEntity
  8
LAYER3
 62
         4
100
AcDbLine
 10
-50.1507720573
 20
32.4804358191
 30
0.0
 11
-50.7745071297
 21
29.5459930169
 31
0.0
  0
LINE
  5
27A
100
AcDbEntity
  8
LAYER3
 62
         4
100
AcDbLine
 10
-22.0640450411
 20
32.4804358191
 30
0.0
 11
-51.1507720573
 21
32.4804358191
 31
0.0
  0
MTEXT
  5
27B
100
AcDbEntity
  8
LAYER3
100
AcDbMText
 10
-23.4640450412
 20
62.4679937777
 30
0.0
 40
2.1473683357
 41
2.5646459961
 71
         1
 72
         1
  1
\W0.8;20
  0
LINE
  5
27C
100
AcDbEntity
  8
LAYER3
 62
         4
100
AcDbLine
 10
-11.0640452647
 20
58.6803350863
 30
0.0
 11
-13.9984880669
 21
58.0566000138
 31
0.0
  0
LINE
  5
27D
100
AcDbEntity
  8
LAYER3
 62
         4
100
AcDbLine
 10
-11.0640452647
 20
58.6803350863
 30
0.0
 11
-13.9984880669
 21
59.3040701587
 31
0.0
  0
LINE
  5
27E
100
AcDbEntity
  8
LAYER3
 62
         4
100
AcDbLine
 10
-31.0640448176
 20
58.6803350863
 30
0.0
 11
-28.1296020154
 21
59.3040701587
 31
0.0
  0
LINE
  5
27F
100
AcDbEntity
  8
LAYER3
 62
         4
100
AcDbLine
 10
-31.0640448176
 20
58.6803350863
 30
0.0
 11
-28.1296020154
 21
58.0566000138
 31
0.0
  0
LINE
  5
280
100
AcDbEntity
  8
LAYER3
 62
         4
100
AcDbLine
 10
-31.0640448176
 20
58.6803350863
 30
0.0
 11
-11.0640452647
 21
58.6803350863
 31
0.0
  0
LINE
  5
281
100
AcDbEntity
  8
LAYER3
 62
         4
100
AcDbLine
 10
-11.0640452647
 20
15.980435121
 30
0.0
 11
-11.0640452647
 21
59.6803350863
 31
0.0
  0
MTEXT
  5
282
100
AcDbEntity
  8
LAYER0
100
AcDbMText
 10
14.6627802544
 20
-133.1832799089
 30
0.0
 40
1.9790146708
 41
42.5443997719
 71
         1
 72
         1
  1
\W0.8;30用重量級オールステンレスＢランナー
  0
MTEXT
  5
283
100
AcDbEntity
  8
LAYER0
100
AcDbMText
 10
69.2920019132
 20
-133.1354167344
 30
0.0
 40
2.4737683892
 41
8.8634168007
 71
         1
 72
         1
  1
\W0.8;D56350
  0
LINE
  5
284
100
AcDbEntity
  8
LAYER0
 62
         3
100
AcDbLine
 10
60.0
 20
-125.5
 30
0.0
 11
60.0
 21
-138.5
 31
0.0
  0
MTEXT
  5
285
100
AcDbEntity
  8
LAYER0
100
AcDbMText
 10
72.5158633528
 20
-126.7970201517
 30
0.0
 40
2.1473683357
 41
10.2585839844
 71
         1
 72
         1
  1
\W0.8;管理図番
  0
MTEXT
  5
286
100
AcDbEntity
  8
LAYER0
100
AcDbMText
 10
32.0542682872
 20
-126.7970201517
 30
0.0
 40
2.1473683357
 41
7.6538653946
 71
         1
 72
         1
  1
\W0.8;品　名
  0
INSERT
  5
288
100
AcDbEntity
  8
0
100
AcDbBlockReference
  2
CLUMP46
 10
0.0
 20
0.0
 30
0.0
  0
INSERT
  5
29A
100
AcDbEntity
  8
0
100
AcDbBlockReference
  2
CLUMP48
 10
0.0
 20
0.0
 30
0.0
  0
INSERT
  5
2AB
100
AcDbEntity
  8
0
100
AcDbBlockReference
  2
CLUMP50
 10
0.0
 20
0.0
 30
0.0
  0
INSERT
  5
2BC
100
AcDbEntity
  8
0
100
AcDbBlockReference
  2
CLUMP52
 10
0.0
 20
0.0
 30
0.0
  0
INSERT
  5
2D6
100
AcDbEntity
  8
0
100
AcDbBlockReference
  2
CLUMP54
 10
0.0
 20
0.0
 30
0.0
  0
INSERT
  5
2F1
100
AcDbEntity
  8
0
100
AcDbBlockReference
  2
CLUMP56
 10
0.0
 20
0.0
 30
0.0
  0
INSERT
  5
30D
100
AcDbEntity
  8
0
100
AcDbBlockReference
  2
CLUMP58
 10
0.0
 20
0.0
 30
0.0
  0
INSERT
  5
328
100
AcDbEntity
  8
0
100
AcDbBlockReference
  2
CLUMP60
 10
0.0
 20
0.0
 30
0.0
  0
INSERT
  5
339
100
AcDbEntity
  8
0
100
AcDbBlockReference
  2
CLUMP62
 10
0.0
 20
0.0
 30
0.0
  0
INSERT
  5
34A
100
AcDbEntity
  8
0
100
AcDbBlockReference
  2
CLUMP64
 10
0.0
 20
0.0
 30
0.0
  0
INSERT
  5
356
100
AcDbEntity
  8
0
100
AcDbBlockReference
  2
CLUMP66
 10
0.0
 20
0.0
 30
0.0
  0
INSERT
  5
362
100
AcDbEntity
  8
0
100
AcDbBlockReference
  2
CLUMP68
 10
0.0
 20
0.0
 30
0.0
  0
CIRCLE
  5
374
100
AcDbEntity
  8
LAYER1
 62
         3
100
AcDbCircle
 10
-21.0640450411
 20
38.9804358191
 30
0.0
 40
4.9
210
0.0
220
0.0
230
1.0
  0
CIRCLE
  5
375
100
AcDbEntity
  8
LAYER1
 62
         3
100
AcDbCircle
 10
-21.0640450411
 20
38.9804358191
 30
0.0
 40
5.4
210
0.0
220
0.0
230
1.0
  0
CIRCLE
  5
376
100
AcDbEntity
  8
LAYER1
 62
         3
100
AcDbCircle
 10
-21.0640450411
 20
38.9804358191
 30
0.0
 40
6.5
210
0.0
220
0.0
230
1.0
  0
CIRCLE
  5
377
100
AcDbEntity
  8
LAYER1
 62
         3
100
AcDbCircle
 10
-21.0640450411
 20
38.9804358191
 30
0.0
 40
3.3
210
0.0
220
0.0
230
1.0
  0
ARC
  5
378
100
AcDbEntity
  8
LAYER1
 62
         3
100
AcDbCircle
 10
-21.4372737792
 20
1.9838336541
 30
0.0
 40
8.5
210
-0.0
220
0.0
230
1.0
100
AcDbArc
 50
358.9567993461
 51
68.2894840353
  0
ARC
  5
379
100
AcDbEntity
  8
LAYER1
 62
         3
100
AcDbCircle
 10
-21.4372737792
 20
1.9838336541
 30
0.0
 40
5.5
210
-0.0
220
0.0
230
1.0
100
AcDbArc
 50
358.9567993461
 51
55.9010691666
  0
LINE
  5
37A
100
AcDbEntity
  8
LAYER1
 62
         3
100
AcDbLine
 10
-30.8289743432
 20
37.9804370283
 30
0.0
 11
-30.8275466257
 21
37.9049998998
 31
0.0
  0
INSERT
  5
37C
100
AcDbEntity
  8
0
100
AcDbBlockReference
  2
CLUMP70
 10
0.0
 20
0.0
 30
0.0
  0
INSERT
  5
38D
100
AcDbEntity
  8
0
100
AcDbBlockReference
  2
CLUMP72
 10
0.0
 20
0.0
 30
0.0
  0
INSERT
  5
39D
100
AcDbEntity
  8
0
100
AcDbBlockReference
  2
CLUMP74
 10
0.0
 20
0.0
 30
0.0
  0
INSERT
  5
3AD
100
AcDbEntity
  8
0
100
AcDbBlockReference
  2
CLUMP76
 10
0.0
 20
0.0
 30
0.0
  0
INSERT
  5
3BD
100
AcDbEntity
  8
0
100
AcDbBlockReference
  2
CLUMP78
 10
0.0
 20
0.0
 30
0.0
  0
INSERT
  5
3E4
100
AcDbEntity
  8
0
100
AcDbBlockReference
  2
CLUMP80
 10
0.0
 20
0.0
 30
0.0
  0
LINE
  5
40A
100
AcDbEntity
  8
LAYER1
 62
         3
100
AcDbLine
 10
-30.8277738684
 20
38.0438563704
 30
0.0
 11
-30.8289743432
 21
37.9804370283
 31
0.0
  0
LINE
  5
40B
100
AcDbEntity
  8
LAYER1
 62
         3
100
AcDbLine
 10
-31.2074060955
 20
17.9804374754
 30
0.0
 11
-31.2059774467
 21
17.9049593686
 31
0.0
  0
LINE
  5
40C
100
AcDbEntity
  8
LAYER1
 62
         3
100
AcDbLine
 10
-31.2062046894
 20
18.0438940703
 30
0.0
 11
-31.2074060955
 21
17.9804374754
 31
0.0
  0
ARC
  5
40D
100
AcDbEntity
  8
LAYER1
 62
         3
100
AcDbCircle
 10
-30.2062429264
 20
17.9278597573
 30
0.0
 40
0.9999886042
210
0.0
220
0.0
230
1.0
100
AcDbArc
 50
180.1313252086
 51
215.65162653
  0
ARC
  5
40E
100
AcDbEntity
  8
LAYER1
 62
         3
100
AcDbCircle
 10
-30.2064592533
 20
18.0209918847
 30
0.0
 40
1.0
210
0.0
220
0.0
230
1.0
100
AcDbArc
 50
141.9646765124
 51
180.1507295747
  0
ARC
  5
40F
100
AcDbEntity
  8
LAYER1
 62
         3
100
AcDbCircle
 10
-29.8280278902
 20
38.0209918846
 30
0.0
 40
1.0
210
0.0
220
0.0
230
1.0
100
AcDbArc
 50
141.5680754253
 51
180.1504232271
  0
ARC
  5
410
100
AcDbEntity
  8
LAYER1
 62
         3
100
AcDbCircle
 10
-29.8278005236
 20
37.9278634878
 30
0.0
 40
1.0
210
0.0
220
0.0
230
1.0
100
AcDbArc
 50
180.1316373167
 51
216.0498222523
  0
LINE
  5
411
100
AcDbEntity
  8
LAYER1
 62
         3
100
AcDbLine
 10
-10.9206839868
 20
17.9804374754
 30
0.0
 11
-10.9218853929
 21
18.0438940703
 31
0.0
  0
LINE
  5
412
100
AcDbEntity
  8
LAYER1
 62
         3
100
AcDbLine
 10
-10.9221126356
 20
17.9049593686
 30
0.0
 11
-10.9206839868
 21
17.9804374754
 31
0.0
  0
LINE
  5
413
100
AcDbEntity
  8
LAYER1
 62
         3
100
AcDbLine
 10
-11.2991157391
 20
37.9804370283
 30
0.0
 11
-11.3003162139
 21
38.0438563704
 31
0.0
  0
LINE
  5
414
100
AcDbEntity
  8
LAYER1
 62
         3
100
AcDbLine
 10
-11.3005434566
 20
37.9049998998
 30
0.0
 11
-11.2991157391
 21
37.9804370283
 31
0.0
  0
ARC
  5
415
100
AcDbEntity
  8
LAYER1
 62
         3
100
AcDbCircle
 10
-11.921855408
 20
17.9278612883
 30
0.0
 40
0.9999968598
210
0.0
220
0.0
230
1.0
100
AcDbArc
 50
324.3483390572
 51
359.8685850833
  0
ARC
  5
416
100
AcDbEntity
  8
LAYER1
 62
         3
100
AcDbCircle
 10
-11.921630829
 20
18.0209918847
 30
0.0
 40
1.0
210
-0.0
220
0.0
230
1.0
100
AcDbArc
 50
359.8496054949
 51
38.0353265581
  0
ARC
  5
417
100
AcDbEntity
  8
LAYER1
 62
         3
100
AcDbCircle
 10
-12.3000621921
 20
38.0209918847
 30
0.0
 40
1.0
210
-0.0
220
0.0
230
1.0
100
AcDbArc
 50
359.8495254196
 51
38.4319276452
  0
ARC
  5
418
100
AcDbEntity
  8
LAYER1
 62
         3
100
AcDbCircle
 10
-12.3002895586
 20
37.9278634878
 30
0.0
 40
1.0
210
0.0
220
0.0
230
1.0
100
AcDbArc
 50
323.9501746773
 51
359.8684443892
  0
LINE
  5
419
100
AcDbEntity
  8
LAYER1
 62
         3
100
AcDbLine
 10
-24.39126083
 20
4.5380384951
 30
0.0
 11
-18.3922554304
 21
4.4287999451
 31
0.0
  0
LINE
  5
41A
100
AcDbEntity
  8
LAYER1
 62
         3
100
AcDbLine
 10
-11.541708506
 20
39.9490368842
 30
0.0
 11
-11.0831755617
 21
15.9804371476
 31
0.0
  0
LINE
  5
41B
100
AcDbEntity
  8
LAYER1
 62
         3
100
AcDbLine
 10
-12.0640454286
 20
41.4053087413
 30
0.0
 11
-11.5640453466
 21
41.1166322708
 31
0.0
  0
LINE
  5
41C
100
AcDbEntity
  8
LAYER1
 62
         3
100
AcDbLine
 10
-11.0640452647
 20
14.980435121
 30
0.0
 11
-11.5640453466
 21
14.980435121
 31
0.0
  0
LINE
  5
41D
100
AcDbEntity
  8
LAYER1
 62
         3
100
AcDbLine
 10
-15.0018670999
 20
14.980435121
 30
0.0
 11
-12.5642243245
 21
14.980435121
 31
0.0
  0
LINE
  5
41E
100
AcDbEntity
  8
LAYER1
 62
         3
100
AcDbLine
 10
-30.0638621145
 20
14.980435121
 30
0.0
 11
-27.1262229823
 21
14.980435121
 31
0.0
  0
LINE
  5
41F
100
AcDbEntity
  8
LAYER1
 62
         3
100
AcDbLine
 10
-13.0752708235
 20
41.9891399621
 30
0.0
 11
-17.764045059
 21
44.6962003886
 31
0.0
  0
ARC
  5
420
100
AcDbEntity
  8
LAYER1
 62
         3
100
AcDbCircle
 10
-21.0640450411
 20
38.9804358191
 30
0.0
 40
6.6
210
0.0
220
-0.0
230
1.0
100
AcDbArc
 50
60.0000010235
 51
120.000002047
  0
LINE
  5
421
100
AcDbEntity
  8
LAYER1
 62
         3
100
AcDbLine
 10
-24.3640450233
 20
44.6962003886
 30
0.0
 11
-29.5526917496
 21
41.7005379974
 31
0.0
  0
LINE
  5
422
100
AcDbEntity
  8
LAYER1
 62
         3
100
AcDbLine
 10
-30.0638621145
 20
14.980435121
 30
0.0
 11
-31.0640448176
 21
14.980435121
 31
0.0
  0
LINE
  5
423
100
AcDbEntity
  8
LAYER1
 62
         3
100
AcDbLine
 10
-18.5660458107
 20
31.6804346918
 30
0.0
 11
-18.5660458107
 21
24.4875436007
 31
0.0
  0
LINE
  5
424
100
AcDbEntity
  8
LAYER1
 62
         3
100
AcDbLine
 10
-23.5620442715
 20
24.4875436007
 30
0.0
 11
-23.5620442715
 21
31.6804346918
 31
0.0
  0
LINE
  5
425
100
AcDbEntity
  8
LAYER1
 62
         3
100
AcDbLine
 10
-31.0640448176
 20
14.980435121
 30
0.0
 11
-30.5640447357
 21
41.1166322708
 31
0.0
  0
LINE
  5
426
100
AcDbEntity
  8
LAYER1
 62
         3
100
AcDbLine
 10
-11.5640453466
 20
14.980435121
 30
0.0
 11
-12.5642243245
 21
14.980435121
 31
0.0
  0
LINE
  5
427
100
AcDbEntity
  8
LAYER1
 62
         3
100
AcDbLine
 10
-12.0640454286
 20
41.4053087413
 30
0.0
 11
-11.5640453466
 21
14.980435121
 31
0.0
  0
LINE
  5
428
100
AcDbEntity
  8
LAYER1
 62
         3
100
AcDbLine
 10
-26.6932101392
 20
14.980435121
 30
0.0
 11
-27.1262229823
 21
14.980435121
 31
0.0
  0
LINE
  5
429
100
AcDbEntity
  8
LAYER1
 62
         3
100
AcDbLine
 10
-23.5620442715
 20
24.4875436007
 30
0.0
 11
-23.271579196
 21
24.4875436007
 31
0.0
  0
LINE
  5
42A
100
AcDbEntity
  8
LAYER1
 62
         3
100
AcDbLine
 10
-18.8565108863
 20
24.4875436007
 30
0.0
 11
-18.5660458107
 21
24.4875436007
 31
0.0
  0
LINE
  5
42B
100
AcDbEntity
  8
LAYER1
 62
         3
100
AcDbLine
 10
-27.1262229823
 20
14.980435121
 30
0.0
 11
-27.1262229823
 21
21.1662237822
 31
0.0
  0
LINE
  5
42C
100
AcDbEntity
  8
LAYER1
 62
         3
100
AcDbLine
 10
-15.0018670999
 20
21.1662237822
 30
0.0
 11
-15.0018670999
 21
14.980435121
 31
0.0
  0
LINE
  5
42D
100
AcDbEntity
  8
LAYER1
 62
         3
100
AcDbLine
 10
-23.5620442715
 20
31.6804346918
 30
0.0
 11
-23.271579196
 21
31.6804346918
 31
0.0
  0
LINE
  5
42E
100
AcDbEntity
  8
LAYER1
 62
         3
100
AcDbLine
 10
-15.0018670999
 20
14.980435121
 30
0.0
 11
-15.4348799431
 21
14.980435121
 31
0.0
  0
LINE
  5
42F
100
AcDbEntity
  8
LAYER1
 62
         3
100
AcDbLine
 10
-15.4348799431
 20
14.980435121
 30
0.0
 11
-26.6932101392
 21
14.980435121
 31
0.0
  0
LINE
  5
430
100
AcDbEntity
  8
LAYER1
 62
         3
100
AcDbLine
 10
-24.2139847421
 20
14.2735128581
 30
0.0
 11
-24.2011120015
 21
14.980435121
 31
0.0
  0
LINE
  5
431
100
AcDbEntity
  8
LAYER1
 62
         3
100
AcDbLine
 10
-18.2149791096
 20
14.1642724454
 30
0.0
 11
-18.2001175296
 21
14.980435121
 31
0.0
  0
LINE
  5
432
100
AcDbEntity
  8
LAYER1
 62
         3
100
AcDbLine
 10
-24.2139847421
 20
14.2735128581
 30
0.0
 11
-18.2149791096
 21
14.1642724454
 31
0.0
  0
CIRCLE
  5
433
100
AcDbEntity
  8
LAYER1
 62
         3
100
AcDbCircle
 10
-21.0640450411
 20
38.9804358191
 30
0.0
 40
2.5
210
0.0
220
0.0
230
1.0
  0
LINE
  5
434
100
AcDbEntity
  8
LAYER1
 62
         3
100
AcDbLine
 10
-27.1262229823
 20
21.1662237822
 30
0.0
 11
-26.6932101392
 21
21.1662237822
 31
0.0
  0
LINE
  5
435
100
AcDbEntity
  8
LAYER1
 62
         3
100
AcDbLine
 10
-18.8565108863
 20
24.4875436007
 30
0.0
 11
-18.8565108863
 21
31.6804346918
 31
0.0
  0
LINE
  5
436
100
AcDbEntity
  8
LAYER1
 62
         3
100
AcDbLine
 10
-18.8565108863
 20
31.6804346918
 30
0.0
 11
-23.271579196
 21
31.6804346918
 31
0.0
  0
LINE
  5
437
100
AcDbEntity
  8
LAYER1
 62
         3
100
AcDbLine
 10
-23.271579196
 20
31.6804346918
 30
0.0
 11
-23.271579196
 21
24.4875436007
 31
0.0
  0
ARC
  5
438
100
AcDbEntity
  8
LAYER1
 62
         3
100
AcDbCircle
 10
-23.9892860101
 20
24.4732294915
 30
0.0
 40
0.7178495418
210
-0.0
220
0.0
230
1.0
100
AcDbArc
 50
331.7980372121
 51
1.1425687067
  0
ARC
  5
439
100
AcDbEntity
  8
LAYER1
 62
         3
100
AcDbCircle
 10
-18.1388040722
 20
24.4732294915
 30
0.0
 40
0.7178495418
210
0.0
220
0.0
230
1.0
100
AcDbArc
 50
178.8574343638
 51
208.2019597174
  0
LINE
  5
43A
100
AcDbEntity
  8
LAYER1
 62
         3
100
AcDbLine
 10
-23.271579196
 20
24.4875436007
 30
0.0
 11
-18.8565108863
 21
24.4875436007
 31
0.0
  0
LINE
  5
43B
100
AcDbEntity
  8
LAYER1
 62
         3
100
AcDbLine
 10
-18.7714357332
 20
24.1339874744
 30
0.0
 11
-23.3566543491
 21
24.1339874744
 31
0.0
  0
LINE
  5
43C
100
AcDbEntity
  8
LAYER0
 62
         3
100
AcDbLine
 10
95.0
 20
-125.5
 30
0.0
 11
-40.0
 21
-125.5
 31
0.0
  0
LINE
  5
43D
100
AcDbEntity
  8
LAYER0
 62
         3
100
AcDbLine
 10
95.0
 20
-130.5
 30
0.0
 11
-40.0
 21
-130.5
 31
0.0
  0
LINE
  5
43E
100
AcDbEntity
  8
LAYER0
 62
         3
100
AcDbLine
 10
95.0
 20
-138.5
 30
0.0
 11
-40.0
 21
-138.5
 31
0.0
  0
ARC
  5
43F
100
AcDbEntity
  8
LAYER1
 62
         3
100
AcDbCircle
 10
-21.4372737792
 20
1.9838336541
 30
0.0
 40
8.5
210
-0.0
220
-0.0
230
1.0
100
AcDbArc
 50
109.6241177274
 51
358.9567993461
  0
ARC
  5
440
100
AcDbEntity
  8
LAYER1
 62
         3
100
AcDbCircle
 10
-21.4372737792
 20
1.9838336541
 30
0.0
 40
5.5
210
-0.0
220
-0.0
230
1.0
100
AcDbArc
 50
122.012532596
 51
358.9567993461
  0
LINE
  5
441
100
AcDbEntity
  8
LAYER3
 62
         4
100
AcDbLine
 10
-50.1507720573
 20
-3.5161663459
 30
0.0
 11
-50.7745071297
 21
-0.5817235437
 31
0.0
  0
LINE
  5
442
100
AcDbEntity
  8
LAYER3
 62
         4
100
AcDbLine
 10
-50.1507720573
 20
-3.5161663459
 30
0.0
 11
-49.5270369848
 21
-0.5817235437
 31
0.0
  0
LINE
  5
443
100
AcDbEntity
  8
LAYER3
 62
         4
100
AcDbLine
 10
-50.1507720573
 20
32.4804358191
 30
0.0
 11
-50.1507720573
 21
-3.5161663459
 31
0.0
  0
LINE
  5
444
100
AcDbEntity
  8
LAYER1
 62
         3
100
AcDbLine
 10
32.1291740786
 20
-6.5161662818
 30
0.0
 11
32.1291740786
 21
1.8290800332
 31
0.0
  0
LINE
  5
445
100
AcDbEntity
  8
LAYER1
 62
         3
100
AcDbLine
 10
34.3291740667
 20
-6.5161662818
 30
0.0
 11
34.3291740667
 21
1.8290800332
 31
0.0
  0
LINE
  5
446
100
AcDbEntity
  8
LAYER3
 62
         4
100
AcDbLine
 10
56.7592378753
 20
-6.5161662818
 30
0.0
 11
56.7592378753
 21
45.4804336011
 31
0.0
  0
MTEXT
  5
447
100
AcDbEntity
  8
LAYER0
100
AcDbMText
 10
-13.9221737419
 20
-132.5157576176
 30
0.0
 40
3.0922104359
 41
7.3861805462
 71
         1
 72
         1
  1
\W0.8;S-5A
  0
MTEXT
  5
448
100
AcDbEntity
  8
LAYER0
100
AcDbMText
 10
-35.7051459079
 20
-126.6461242782
 30
0.0
 40
2.1473683357
 41
6.4116149902
 71
         1
 72
         1
  1
\W0.8;Ｎｏ.
  0
LINE
  5
449
100
AcDbEntity
  8
LAYER0
 62
         3
100
AcDbLine
 10
-25.0
 20
-125.5
 30
0.0
 11
-25.0
 21
-138.5
 31
0.0
  0
MTEXT
  5
44A
100
AcDbEntity
  8
LAYER0
100
AcDbMText
 10
-10.6564309049
 20
-126.7970201517
 30
0.0
 40
2.1473683357
 41
7.6538653946
 71
         1
 72
         1
  1
\W0.8;品　番
  0
LINE
  5
44B
100
AcDbEntity
  8
LAYER0
 62
         3
100
AcDbLine
 10
-40.0
 20
-138.5
 30
0.0
 11
-40.0
 21
-125.5
 31
0.0
  0
LINE
  5
44C
100
AcDbEntity
  8
LAYER3
 62
         4
100
AcDbLine
 10
-22.4372737792
 20
-3.5161663459
 30
0.0
 11
-51.1507720573
 21
-3.5161663459
 31
0.0
  0
LINE
  5
44D
100
AcDbEntity
  8
LAYER1
 62
         3
100
AcDbLine
 10
-18.5660458107
 20
31.6804346918
 30
0.0
 11
-18.8565108863
 21
31.6804346918
 31
0.0
  0
LINE
  5
44E
100
AcDbEntity
  8
LAYER1
 62
         3
100
AcDbLine
 10
-15.4348799431
 20
21.1662237822
 30
0.0
 11
-15.0018670999
 21
21.1662237822
 31
0.0
  0
LINE
  5
44F
100
AcDbEntity
  8
LAYER1
 62
         3
100
AcDbLine
 10
-26.3140831546
 20
21.8733285844
 30
0.0
 11
-15.8140069277
 21
21.8733285844
 31
0.0
  0
LINE
  5
450
100
AcDbEntity
  8
LAYER1
 62
         3
100
AcDbLine
 10
-15.4348799431
 20
14.980435121
 30
0.0
 11
-15.4348799431
 21
21.1662237822
 31
0.0
  0
LINE
  5
451
100
AcDbEntity
  8
LAYER1
 62
         3
100
AcDbLine
 10
-15.4348799431
 20
21.1662237822
 30
0.0
 11
-26.6932101392
 21
21.1662237822
 31
0.0
  0
LINE
  5
452
100
AcDbEntity
  8
LAYER1
 62
         3
100
AcDbLine
 10
-26.6932101392
 20
21.1662237822
 30
0.0
 11
-26.6932101392
 21
14.980435121
 31
0.0
  0
LINE
  5
453
100
AcDbEntity
  8
LAYER1
 62
         3
100
AcDbLine
 10
-11.541708506
 20
39.9490368842
 30
0.0
 11
-12.0419553884
 21
40.2378511905
 31
0.0
  0
LINE
  5
454
100
AcDbEntity
  8
LAYER1
 62
         3
100
AcDbLine
 10
-11.5829670274
 20
15.9804371476
 30
0.0
 11
-11.0831755617
 21
15.9804371476
 31
0.0
  0
ENDSEC
  0
SECTION
  2
OBJECTS
  0
DICTIONARY
  5
19
100
AcDbDictionary
280
         0
281
         1
  3
ACAD_GROUP
350
1A
  3
ACAD_MLINESTYLE
350
1B
  3
ACAD_LAYOUT
350
1E
  3
ACAD_PLOTSETTINGS
350
22
  3
ACAD_PLOTSTYLENAME
350
1F
  3
ACAD_WIPEOUT_VARS
350
23
  0
DICTIONARY
  5
1A
102
{ACAD_REACTORS
330
19
102
}
100
AcDbDictionary
280
         0
281
         1
  0
DICTIONARY
  5
1B
102
{ACAD_REACTORS
330
19
102
}
100
AcDbDictionary
280
         0
281
         1
  3
Standard
350
1C
  0
MLINESTYLE
  5
1C
102
{ACAD_REACTORS
330
1B
102
}
100
AcDbMlineStyle
  2
Standard
 70
         0
  3

 62
         0
 51
90.0
 52
90.0
 71
         2
 49
0.5
 62
       256
  6
BYLAYER
 49
-0.5
 62
       256
  6
BYLAYER
  0
ACDBDICTIONARYWDFLT
  5
1F
102
{ACAD_REACTORS
330
19
102
}
100
AcDbDictionary
281
         1
  3
Normal
350
1D
100
AcDbDictionaryWithDefault
340
1D
  0
ACDBPLACEHOLDER
  5
1D
102
{ACAD_REACTORS
330
1F
102
}
  0
LAYOUT
  5
20
102
{ACAD_REACTORS
330
1E
102
}
100
AcDbPlotSettings
  1

  2

  4

  6

 40
0.0
 41
0.0
 42
0.0
 43
0.0
 44
0.0
 45
0.0
 46
0.0
 47
0.0
 48
0.0
 49
0.0
140
0.0
141
0.0
142
1.0
143
1.0
 70
         0
 72
         0
 73
         0
 74
         0
  7

 75
         0
147
1.0
148
0.0
149
0.0
100
AcDbLayout
  1
Model
 70
         0
 71
         0
 10
0.0
 20
0.0
 11
0.0
 21
0.0
 12
0.0
 22
0.0
 32
0.0
 14
0.0
 24
0.0
 34
0.0
 15
0.0
 25
0.0
 35
0.0
146
0.0
 13
0.0
 23
0.0
 33
0.0
 16
0.0
 26
0.0
 36
0.0
 17
0.0
 27
0.0
 37
0.0
 76
         0
330
A
331
0
345
0
346
0
  0
LAYOUT
  5
21
102
{ACAD_REACTORS
330
1E
102
}
100
AcDbPlotSettings
  1

  2

  4

  6

 40
0.0
 41
0.0
 42
0.0
 43
0.0
 44
0.0
 45
0.0
 46
0.0
 47
0.0
 48
0.0
 49
0.0
140
0.0
141
0.0
142
1.0
143
1.0
 70
         0
 72
         0
 73
         0
 74
         0
  7

 75
         0
147
1.0
148
0.0
149
0.0
100
AcDbLayout
  1
Layout1
 70
         0
 71
         0
 10
0.0
 20
0.0
 11
0.0
 21
0.0
 12
0.0
 22
0.0
 32
0.0
 14
0.0
 24
0.0
 34
0.0
 15
0.0
 25
0.0
 35
0.0
146
0.0
 13
0.0
 23
0.0
 33
0.0
 16
0.0
 26
0.0
 36
0.0
 17
0.0
 27
0.0
 37
0.0
 76
         0
330
B
331
0
345
0
346
0
  0
DICTIONARY
  5
1E
102
{ACAD_REACTORS
330
19
102
}
100
AcDbDictionary
280
         0
281
         1
  3
Layout1
350
21
  3
Model
350
20
  0
DICTIONARY
  5
22
102
{ACAD_REACTORS
330
19
102
}
100
AcDbDictionary
280
         0
281
         1
  0
WIPEOUTVARIABLES
  5
23
100
AcDbWipeoutVariables
 70
         1
  0
ENDSEC
  0
EOF
