  0
SECTION
  2
HEADER
  9
$ACADVER
  1
AC1015
  9
$ACADMAINTVER
 70
         6
  9
$DWGCODEPAGE
  3
ANSI_932
  9
$INSBASE
 10
0.0
 20
0.0
 30
0.0
  9
$EXTMIN
 10
1.0000000000E+20
 20
1.0000000000E+20
 30
1.0000000000E+20
  9
$EXTMAX
 10
-1.0000000000E+20
 20
-1.0000000000E+20
 30
-1.0000000000E+20
  9
$LIMMIN
 10
0.0
 20
0.0
  9
$LIMMAX
 10
0.0
 20
0.0
  9
$ORTHOMODE
 70
         0
  9
$REGENMODE
 70
         1
  9
$FILLMODE
 70
         1
  9
$QTEXTMODE
 70
         0
  9
$MIRRTEXT
 70
         1
  9
$LTSCALE
 40
1.0
  9
$ATTMODE
 70
         1
  9
$TEXTSIZE
 40
0.2
  9
$TRACEWID
 40
0.05
  9
$TEXTSTYLE
  7
Standard
  9
$CLAYER
  8
0
  9
$CELTYPE
  6
Continuous
  9
$CECOLOR
 62
       256
  9
$CELTSCALE
 40
1.0
  9
$DISPSILH
 70
         0
  9
$DIMSCALE
 40
1.0
  9
$DIMASZ
 40
0.18
  9
$DIMEXO
 40
0.0625
  9
$DIMDLI
 40
0.38
  9
$DIMRND
 40
0.0
  9
$DIMDLE
 40
0.0
  9
$DIMEXE
 40
0.18
  9
$DIMTP
 40
0.0
  9
$DIMTM
 40
0.0
  9
$DIMTXT
 40
0.18
  9
$DIMCEN
 40
0.09
  9
$DIMTSZ
 40
0.0
  9
$DIMTOL
 70
         0
  9
$DIMLIM
 70
         0
  9
$DIMTIH
 70
         1
  9
$DIMTOH
 70
         1
  9
$DIMSE1
 70
         0
  9
$DIMSE2
 70
         0
  9
$DIMTAD
 70
         0
  9
$DIMZIN
 70
         0
  9
$DIMBLK
  1

  9
$DIMASO
 70
         1
  9
$DIMSHO
 70
         1
  9
$DIMPOST
  1

  9
$DIMAPOST
  1

  9
$DIMALT
 70
         0
  9
$DIMALTD
 70
         2
  9
$DIMALTF
 40
25.4
  9
$DIMLFAC
 40
1.0
  9
$DIMTOFL
 70
         0
  9
$DIMTVP
 40
0.0
  9
$DIMTIX
 70
         0
  9
$DIMSOXD
 70
         0
  9
$DIMSAH
 70
         0
  9
$DIMBLK1
  1

  9
$DIMBLK2
  1

  9
$DIMSTYLE
  2
Standard
  9
$DIMCLRD
 70
         0
  9
$DIMCLRE
 70
         0
  9
$DIMCLRT
 70
         0
  9
$DIMTFAC
 40
1.0
  9
$DIMGAP
 40
0.09
  9
$DIMJUST
 70
         0
  9
$DIMSD1
 70
         0
  9
$DIMSD2
 70
         0
  9
$DIMTOLJ
 70
         1
  9
$DIMTZIN
 70
         0
  9
$DIMALTZ
 70
         0
  9
$DIMALTTZ
 70
         0
  9
$DIMUPT
 70
         0
  9
$DIMDEC
 70
         4
  9
$DIMTDEC
 70
         4
  9
$DIMALTU
 70
         2
  9
$DIMALTTD
 70
         2
  9
$DIMTXSTY
  7
Standard
  9
$DIMAUNIT
 70
         0
  9
$DIMADEC
 70
         0
  9
$DIMALTRND
 40
0.0
  9
$DIMAZIN
 70
         0
  9
$DIMDSEP
 70
         0
  9
$DIMATFIT
 70
         3
  9
$DIMFRAC
 70
         0
  9
$DIMLDRBLK
  1

  9
$DIMLUNIT
 70
         2
  9
$DIMLWD
 70
         0
  9
$DIMLWE
 70
         0
  9
$DIMTMOVE
 70
         0
  9
$LUNITS
 70
         2
  9
$LUPREC
 70
         4
  9
$SKETCHINC
 40
0.1
  9
$FILLETRAD
 40
0.0
  9
$AUNITS
 70
         0
  9
$AUPREC
 70
         0
  9
$MENU
  1
acad
  9
$ELEVATION
 40
0.0
  9
$PELEVATION
 40
0.0
  9
$THICKNESS
 40
0.0
  9
$LIMCHECK
 70
         0
  9
$CHAMFERA
 40
0.0
  9
$CHAMFERB
 40
0.0
  9
$CHAMFERC
 40
0.0
  9
$CHAMFERD
 40
0.0
  9
$SKPOLY
 70
         0
  9
$TDCREATE
 40
0.000000000
  9
$TDUCREATE
 40
0.000000000
  9
$TDUPDATE
 40
0.000000000
  9
$TDUUPDATE
 40
0.000000000
  9
$TDINDWG
 40
0.0000000000
  9
$TDUSRTIMER
 40
0.0000000000
  9
$USRTIMER
 70
         1
  9
$ANGBASE
 50
0.0
  9
$ANGDIR
 70
         0
  9
$PDMODE
 70
         3
  9
$PDSIZE
 40
-1.0
  9
$PLINEWID
 40
0.0
  9
$SPLFRAME
 70
         0
  9
$SPLINETYPE
 70
         6
  9
$SPLINESEGS
 70
         8
  9
$HANDSEED
  5
5CB
  9
$SURFTAB1
 70
         6
  9
$SURFTAB2
 70
         6
  9
$SURFTYPE
 70
         6
  9
$SURFU
 70
         6
  9
$SURFV
 70
         6
  9
$UCSBASE
  2

  9
$UCSNAME
  2

  9
$UCSORG
 10
0.0
 20
0.0
 30
0.0
  9
$UCSXDIR
 10
1.0
 20
0.0
 30
0.0
  9
$UCSYDIR
 10
0.0
 20
1.0
 30
0.0
  9
$UCSORTHOREF
  2

  9
$UCSORTHOVIEW
 70
         0
  9
$UCSORGTOP
 10
0.0
 20
0.0
 30
0.0
  9
$UCSORGBOTTOM
 10
0.0
 20
0.0
 30
0.0
  9
$UCSORGLEFT
 10
0.0
 20
0.0
 30
0.0
  9
$UCSORGRIGHT
 10
0.0
 20
0.0
 30
0.0
  9
$UCSORGFRONT
 10
0.0
 20
0.0
 30
0.0
  9
$UCSORGBACK
 10
0.0
 20
0.0
 30
0.0
  9
$PUCSBASE
  2

  9
$PUCSNAME
  2

  9
$PUCSORG
 10
0.0
 20
0.0
 30
0.0
  9
$PUCSXDIR
 10
1.0
 20
0.0
 30
0.0
  9
$PUCSYDIR
 10
0.0
 20
1.0
 30
0.0
  9
$PUCSORTHOREF
  2

  9
$PUCSORTHOVIEW
 70
         0
  9
$PUCSORGTOP
 10
0.0
 20
0.0
 30
0.0
  9
$PUCSORGBOTTOM
 10
0.0
 20
0.0
 30
0.0
  9
$PUCSORGLEFT
 10
0.0
 20
0.0
 30
0.0
  9
$PUCSORGRIGHT
 10
0.0
 20
0.0
 30
0.0
  9
$PUCSORGFRONT
 10
0.0
 20
0.0
 30
0.0
  9
$PUCSORGBACK
 10
0.0
 20
0.0
 30
0.0
  9
$USERI1
 70
         0
  9
$USERI2
 70
         0
  9
$USERI3
 70
         0
  9
$USERI4
 70
         0
  9
$USERI5
 70
         0
  9
$USERR1
 40
0.0
  9
$USERR2
 40
0.0
  9
$USERR3
 40
0.0
  9
$USERR4
 40
0.0
  9
$USERR5
 40
0.0
  9
$WORLDVIEW
 70
         1
  9
$SHADEDGE
 70
         3
  9
$SHADEDIF
 70
        70
  9
$TILEMODE
 70
         1
  9
$MAXACTVP
 70
        16
  9
$PINSBASE
 10
0.0
 20
0.0
 30
0.0
  9
$PLIMCHECK
 70
         0
  9
$PEXTMIN
 10
1.0000000000E+20
 20
1.0000000000E+20
 30
1.0000000000E+20
  9
$PEXTMAX
 10
-1.0000000000E+20
 20
-1.0000000000E+20
 30
-1.0000000000E+20
  9
$PLIMMIN
 10
0.0
 20
0.0
  9
$PLIMMAX
 10
12.0
 20
9.0
  9
$UNITMODE
 70
         0
  9
$VISRETAIN
 70
         0
  9
$PLINEGEN
 70
         1
  9
$PSLTSCALE
 70
         0
  9
$TREEDEPTH
 70
      3020
  9
$CMLSTYLE
  2
Standard
  9
$CMLJUST
 70
         0
  9
$CMLSCALE
 40
1.0
  9
$PROXYGRAPHICS
 70
         0
  9
$MEASUREMENT
 70
         0
  9
$CELWEIGHT
370
         0
  9
$ENDCAPS
280
         0
  9
$JOINSTYLE
280
         0
  9
$LWDISPLAY
290
         0
  9
$INSUNITS
 70
         0
  9
$HYPERLINKBASE
  1

  9
$XEDIT
290
         1
  9
$CEPSNTYPE
380
         0
  9
$PSTYLEMODE
290
         0
  9
$FINGERPRINTGUID
  2

  9
$VERSIONGUID
  2

  9
$EXTNAMES
290
         1
  9
$PSVPSCALE
 40
0.0
  0
ENDSEC
  0
SECTION
  2
CLASSES
  0
CLASS
  1
LWPOLYLINE
  2
AcDbPolyline
  3
"AutoCAD"
 90
        0
280
         0
281
         1
  0
CLASS
  1
IMAGE
  2
AcDbRasterImage
  3
ISM
 90
      127
280
         0
281
         1
  0
CLASS
  1
OLE2FRAME
  2
AcDbOle2Frame
  3
""
 90
        0
280
         0
281
         1
  0
CLASS
  1
HATCH
  2
AcDbHatch
  3
"ACAD_SEDONA"
 90
        0
280
         0
281
         1
  0
CLASS
  1
DICTIONARYVAR
  2
AcDbDictionaryVar
  3
"AutoCAD"
 90
        0
280
         0
281
         0
  0
CLASS
  1
RASTERVARIABLES
  2
AcDbRasterVariables
  3
ISM
 90
        0
280
         0
281
         0
  0
CLASS
  1
IMAGEDEF
  2
AcDbRasterImageDef
  3
ISM
 90
        0
280
         0
281
         0
  0
CLASS
  1
IMAGEDEF_REACTOR
  2
AcDbRasterImageDefReactor
  3
ISM
 90
        1
280
         0
281
         0
  0
CLASS
  1
IDBUFFER
  2
AcDbIdBuffer
  3
"Acad"
 90
        0
280
         0
281
         0
  0
CLASS
  1
SPATIAL_FILTER
  2
AcDbSpatialFilter
  3
"Acad"
 90
        0
280
         0
281
         0
  0
CLASS
  1
XRECORD
  2
AcDbXrecord
  3
"<Built In>"
 90
        0
280
         0
281
         0
  0
CLASS
  1
SORTENTSTABLE
  2
AcDbSortentsTable
  3
"AutoCAD"
 90
        0
280
         0
281
         0
  0
CLASS
  1
LAYER_INDEX
  2
AcDbLayerIndex
  3
"Acad"
 90
        0
280
         0
281
         0
  0
CLASS
  1
SPATIAL_INDEX
  2
AcDbSpatialIndex
  3
"Acad"
 90
        0
280
         0
281
         0
  0
CLASS
  1
OBJECT_PTR
  2
CAseDLPNTableRecord
  3
"ASE-LPNTableRecord"
 90
        1
280
         0
281
         0
  0
CLASS
  1
LAYOUT
  2
AcDbLayout
  3
"AutoCAD 2000"
 90
        1
280
         0
281
         0
  0
CLASS
  1
PLOTSETTINGS
  2
AcDbPlotSettings
  3
"AutoCAD 2000"
 90
        1
280
         0
281
         0
  0
CLASS
  1
ACDBDICTIONARYWDFLT
  2
AcDbDictionaryWithDefault
  3
"AutoCAD 2000"
 90
        1
280
         0
281
         0
  0
CLASS
  1
ACDBPLACEHOLDER
  2
AcDbPlaceHolder
  3
"AutoCAD 2000"
 90
        1
280
         0
281
         0
  0
CLASS
  1
VBA_PROJECT
  2
AcDbVbaProject
  3
"acadvba"
 90
        1
280
         0
281
         0
  0
CLASS
  1
WIPEOUT
  2
AcDbWipeout
  3
WipeOut|AutoCAD Express Tool|expresstools@autodesk.com
 90
      127
280
         0
281
         1
  0
CLASS
  1
WIPEOUTVARIABLES
  2
AcDbWipeoutVariables
  3
WipeOut|AutoCAD Express Tool|expresstools@autodesk.com
 90
        0
280
         0
281
         0
  0
CLASS
  1
RTEXT
  2
RText
  3
RText|AutoCAD Express Tool|expresstools@autodesk.com
 90
        0
280
         0
281
         1
  0
CLASS
  1
ARCALIGNEDTEXT
  2
AcDbArcAlignedText
  3
ATEXT|AutoCAD Express Tool|expresstools@autodesk.com
 90
        0
280
         0
281
         1
  0
ENDSEC
  0
SECTION
  2
TABLES
  0
TABLE
  2
VPORT
  5
7
100
AcDbSymbolTable
 70
         1
  0
VPORT
  5
15
100
AcDbSymbolTableRecord
100
AcDbViewportTableRecord
  2
*ACTIVE
 70
         0
 10
0.0
 20
0.0
 11
1.0
 21
1.0
 12
6.591288
 22
4.579184
 13
0.0
 23
0.0
 14
1.0
 24
1.0
 15
0.0
 25
0.0
 16
0.0
 26
0.0
 36
1.0
 17
0.0
 27
0.0
 37
0.0
 40
9.158369
 41
0.688564
 42
50.0
 43
0.0
 44
0.0
 50
0.0
 51
0.0
 71
         0
 72
       100
 73
         1
 74
         1
 75
         0
 76
         0
 77
         0
 78
         0
281
         0
 65
         0
110
0.0
120
0.0
130
0.0
111
1.0
121
0.0
131
0.0
112
0.0
122
1.0
132
0.0
345
0
346
0
 79
         0
146
0.0
  0
ENDTAB
  0
TABLE
  2
LTYPE
  5
4
100
AcDbSymbolTable
 70
        13
  0
LTYPE
  5
11
100
AcDbSymbolTableRecord
100
AcDbLinetypeTableRecord
  2
ByBlock
 70
        64
  3

 72
        65
 73
         0
 40
0.0
  0
LTYPE
  5
12
100
AcDbSymbolTableRecord
100
AcDbLinetypeTableRecord
  2
ByLayer
 70
        64
  3

 72
        65
 73
         0
 40
0.0
  0
LTYPE
  5
13
100
AcDbSymbolTableRecord
100
AcDbLinetypeTableRecord
  2
Continuous
 70
        64
  3
Solid line
 72
        65
 73
         0
 40
0.0
  0
LTYPE
  5
24
100
AcDbSymbolTableRecord
100
AcDbLinetypeTableRecord
  2
DOT
 70
        64
  3
. . . . . . . . 
 72
        65
 73
         2
 40
1.0
 49
0.0
 74
         0
 49
-1.0
 74
         0
  0
LTYPE
  5
25
100
AcDbSymbolTableRecord
100
AcDbLinetypeTableRecord
  2
DASHED
 70
        64
  3
___  ___  ___  ___  
 72
        65
 73
         2
 40
4.0
 49
3.0
 74
         0
 49
-1.0
 74
         0
  0
LTYPE
  5
26
100
AcDbSymbolTableRecord
100
AcDbLinetypeTableRecord
  2
HIDDEN
 70
        64
  3
__ __ __ __ 
 72
        65
 73
         2
 40
3.0
 49
2.0
 74
         0
 49
-1.0
 74
         0
  0
LTYPE
  5
27
100
AcDbSymbolTableRecord
100
AcDbLinetypeTableRecord
  2
STITCH
 70
        64
  3
_ _ _ _ 
 72
        65
 73
         2
 40
2.0
 49
1.0
 74
         0
 49
-1.0
 74
         0
  0
LTYPE
  5
28
100
AcDbSymbolTableRecord
100
AcDbLinetypeTableRecord
  2
CENTER
 70
        64
  3
______  __  ______  __  
 72
        65
 73
         4
 40
43.0
 49
40.0
 74
         0
 49
-1.0
 74
         0
 49
1.0
 74
         0
 49
-1.0
 74
         0
  0
LTYPE
  5
29
100
AcDbSymbolTableRecord
100
AcDbLinetypeTableRecord
  2
DASHDOT
 70
        64
  3
____ . ____ . 
 72
        65
 73
         4
 40
32.0
 49
30.0
 74
         0
 49
-1.0
 74
         0
 49
0.0
 74
         0
 49
-1.0
 74
         0
  0
LTYPE
  5
2A
100
AcDbSymbolTableRecord
100
AcDbLinetypeTableRecord
  2
BORDER
 70
        64
  3
__ . __ . 
 72
        65
 73
         4
 40
22.0
 49
20.0
 74
         0
 49
-1.0
 74
         0
 49
0.0
 74
         0
 49
-1.0
 74
         0
  0
LTYPE
  5
2B
100
AcDbSymbolTableRecord
100
AcDbLinetypeTableRecord
  2
CUTTING
 70
        64
  3
________   ___   ___   
 72
        65
 73
         6
 40
45.0
 49
40.0
 74
         0
 49
-1.0
 74
         0
 49
1.0
 74
         0
 49
-1.0
 74
         0
 49
1.0
 74
         0
 49
-1.0
 74
         0
  0
LTYPE
  5
2C
100
AcDbSymbolTableRecord
100
AcDbLinetypeTableRecord
  2
PHANTOM
 70
        64
  3
______  __  __  
 72
        65
 73
         6
 40
35.0
 49
30.0
 74
         0
 49
-1.0
 74
         0
 49
1.0
 74
         0
 49
-1.0
 74
         0
 49
1.0
 74
         0
 49
-1.0
 74
         0
  0
LTYPE
  5
2D
100
AcDbSymbolTableRecord
100
AcDbLinetypeTableRecord
  2
DIVIDE
 70
        64
  3
____ . . ____ . . 
 72
        65
 73
         6
 40
23.0
 49
20.0
 74
         0
 49
-1.0
 74
         0
 49
0.0
 74
         0
 49
-1.0
 74
         0
 49
0.0
 74
         0
 49
-1.0
 74
         0
  0
ENDTAB
  0
TABLE
  2
LAYER
  5
2
100
AcDbSymbolTable
 70
         4
  0
LAYER
  5
14
100
AcDbSymbolTableRecord
100
AcDbLayerTableRecord
  2
0
 70
         0
 62
         7
  6
Continuous
290
         1
370
        -3
390
1D
  0
LAYER
  5
2E
100
AcDbSymbolTableRecord
100
AcDbLayerTableRecord
  2
LAYER3
 70
         0
 62
         7
  6
Continuous
290
         1
370
        -3
390
1F
  0
LAYER
  5
40
100
AcDbSymbolTableRecord
100
AcDbLayerTableRecord
  2
LAYER0
 70
         0
 62
         7
  6
Continuous
290
         1
370
        -3
390
1F
  0
LAYER
  5
EB
100
AcDbSymbolTableRecord
100
AcDbLayerTableRecord
  2
LAYER1
 70
         0
 62
         7
  6
Continuous
290
         1
370
        -3
390
1F
  0
ENDTAB
  0
TABLE
  2
STYLE
  5
3
100
AcDbSymbolTable
 70
         1
  0
STYLE
  5
17
100
AcDbSymbolTableRecord
100
AcDbTextStyleTableRecord
  2
Standard
 70
         0
 40
0.0
 41
1.0
 50
0.0
 71
         0
 42
0.0
  3
txt
  4
extfont
  0
ENDTAB
  0
TABLE
  2
VIEW
  5
5
100
AcDbSymbolTable
 70
         0
  0
ENDTAB
  0
TABLE
  2
UCS
  5
6
100
AcDbSymbolTable
 70
         0
  0
ENDTAB
  0
TABLE
  2
APPID
  5
8
100
AcDbSymbolTable
 70
         1
  0
APPID
  5
16
100
AcDbSymbolTableRecord
100
AcDbRegAppTableRecord
  2
ACAD
 70
         0
  0
ENDTAB
  0
TABLE
  2
DIMSTYLE
  5
9
100
AcDbSymbolTable
 70
         1
100
AcDbDimStyleTable
 71
         0
  0
DIMSTYLE
105
18
100
AcDbSymbolTableRecord
100
AcDbDimStyleTableRecord
  2
Standard
 70
         0
  3

  4

 40
1.0
 41
0.18
 42
0.0625
 43
0.38
 44
0.18
 45
0.0
 46
0.0
 47
0.0
 48
0.0
 71
         0
 72
         0
 73
         1
 74
         1
 75
         0
 76
         0
 77
         0
 78
         0
 79
         0
140
0.18
141
0.09
142
0.0
143
25.4
144
1.0
145
0.0
146
1.0
147
0.09
148
0.0
170
         0
171
         2
172
         0
173
         0
174
         0
175
         0
176
         0
177
         0
178
         0
179
         0
271
         4
272
         4
273
         2
274
         2
275
         0
276
         0
277
         2
278
        46
279
         0
280
         0
281
         0
282
         0
283
         1
284
         0
285
         0
286
         0
288
         0
340
17
341
0
342
0
343
0
344
0
371
        -2
372
        -2
  0
ENDTAB
  0
TABLE
  2
BLOCK_RECORD
  5
1
100
AcDbSymbolTable
 70
       116
  0
BLOCK_RECORD
  5
A
100
AcDbSymbolTableRecord
100
AcDbBlockTableRecord
  2
*MODEL_SPACE
340
20
  0
BLOCK_RECORD
  5
B
100
AcDbSymbolTableRecord
100
AcDbBlockTableRecord
  2
*PAPER_SPACE
340
21
  0
BLOCK_RECORD
  5
3A
100
AcDbSymbolTableRecord
100
AcDbBlockTableRecord
  2
CLUMP0
340
0
  0
BLOCK_RECORD
  5
3D
100
AcDbSymbolTableRecord
100
AcDbBlockTableRecord
  2
CLUMP1
340
0
  0
BLOCK_RECORD
  5
6A
100
AcDbSymbolTableRecord
100
AcDbBlockTableRecord
  2
CLUMP2
340
0
  0
BLOCK_RECORD
  5
6D
100
AcDbSymbolTableRecord
100
AcDbBlockTableRecord
  2
CLUMP3
340
0
  0
BLOCK_RECORD
  5
7A
100
AcDbSymbolTableRecord
100
AcDbBlockTableRecord
  2
CLUMP4
340
0
  0
BLOCK_RECORD
  5
7D
100
AcDbSymbolTableRecord
100
AcDbBlockTableRecord
  2
CLUMP5
340
0
  0
BLOCK_RECORD
  5
86
100
AcDbSymbolTableRecord
100
AcDbBlockTableRecord
  2
CLUMP6
340
0
  0
BLOCK_RECORD
  5
89
100
AcDbSymbolTableRecord
100
AcDbBlockTableRecord
  2
CLUMP7
340
0
  0
BLOCK_RECORD
  5
A0
100
AcDbSymbolTableRecord
100
AcDbBlockTableRecord
  2
CLUMP8
340
0
  0
BLOCK_RECORD
  5
A3
100
AcDbSymbolTableRecord
100
AcDbBlockTableRecord
  2
CLUMP9
340
0
  0
BLOCK_RECORD
  5
CF
100
AcDbSymbolTableRecord
100
AcDbBlockTableRecord
  2
CLUMP10
340
0
  0
BLOCK_RECORD
  5
D2
100
AcDbSymbolTableRecord
100
AcDbBlockTableRecord
  2
CLUMP11
340
0
  0
BLOCK_RECORD
  5
E5
100
AcDbSymbolTableRecord
100
AcDbBlockTableRecord
  2
CLUMP12
340
0
  0
BLOCK_RECORD
  5
E8
100
AcDbSymbolTableRecord
100
AcDbBlockTableRecord
  2
CLUMP13
340
0
  0
BLOCK_RECORD
  5
FB
100
AcDbSymbolTableRecord
100
AcDbBlockTableRecord
  2
CLUMP14
340
0
  0
BLOCK_RECORD
  5
FE
100
AcDbSymbolTableRecord
100
AcDbBlockTableRecord
  2
CLUMP15
340
0
  0
BLOCK_RECORD
  5
10C
100
AcDbSymbolTableRecord
100
AcDbBlockTableRecord
  2
CLUMP16
340
0
  0
BLOCK_RECORD
  5
10F
100
AcDbSymbolTableRecord
100
AcDbBlockTableRecord
  2
CLUMP17
340
0
  0
BLOCK_RECORD
  5
11D
100
AcDbSymbolTableRecord
100
AcDbBlockTableRecord
  2
CLUMP18
340
0
  0
BLOCK_RECORD
  5
120
100
AcDbSymbolTableRecord
100
AcDbBlockTableRecord
  2
CLUMP19
340
0
  0
BLOCK_RECORD
  5
12E
100
AcDbSymbolTableRecord
100
AcDbBlockTableRecord
  2
CLUMP20
340
0
  0
BLOCK_RECORD
  5
131
100
AcDbSymbolTableRecord
100
AcDbBlockTableRecord
  2
CLUMP21
340
0
  0
BLOCK_RECORD
  5
13F
100
AcDbSymbolTableRecord
100
AcDbBlockTableRecord
  2
CLUMP22
340
0
  0
BLOCK_RECORD
  5
142
100
AcDbSymbolTableRecord
100
AcDbBlockTableRecord
  2
CLUMP23
340
0
  0
BLOCK_RECORD
  5
14C
100
AcDbSymbolTableRecord
100
AcDbBlockTableRecord
  2
CLUMP24
340
0
  0
BLOCK_RECORD
  5
14F
100
AcDbSymbolTableRecord
100
AcDbBlockTableRecord
  2
CLUMP25
340
0
  0
BLOCK_RECORD
  5
15D
100
AcDbSymbolTableRecord
100
AcDbBlockTableRecord
  2
CLUMP26
340
0
  0
BLOCK_RECORD
  5
160
100
AcDbSymbolTableRecord
100
AcDbBlockTableRecord
  2
CLUMP27
340
0
  0
BLOCK_RECORD
  5
169
100
AcDbSymbolTableRecord
100
AcDbBlockTableRecord
  2
CLUMP28
340
0
  0
BLOCK_RECORD
  5
16C
100
AcDbSymbolTableRecord
100
AcDbBlockTableRecord
  2
CLUMP29
340
0
  0
BLOCK_RECORD
  5
175
100
AcDbSymbolTableRecord
100
AcDbBlockTableRecord
  2
CLUMP30
340
0
  0
BLOCK_RECORD
  5
178
100
AcDbSymbolTableRecord
100
AcDbBlockTableRecord
  2
CLUMP31
340
0
  0
BLOCK_RECORD
  5
184
100
AcDbSymbolTableRecord
100
AcDbBlockTableRecord
  2
CLUMP32
340
0
  0
BLOCK_RECORD
  5
187
100
AcDbSymbolTableRecord
100
AcDbBlockTableRecord
  2
CLUMP33
340
0
  0
BLOCK_RECORD
  5
190
100
AcDbSymbolTableRecord
100
AcDbBlockTableRecord
  2
CLUMP34
340
0
  0
BLOCK_RECORD
  5
193
100
AcDbSymbolTableRecord
100
AcDbBlockTableRecord
  2
CLUMP35
340
0
  0
BLOCK_RECORD
  5
1A8
100
AcDbSymbolTableRecord
100
AcDbBlockTableRecord
  2
CLUMP36
340
0
  0
BLOCK_RECORD
  5
1AB
100
AcDbSymbolTableRecord
100
AcDbBlockTableRecord
  2
CLUMP37
340
0
  0
BLOCK_RECORD
  5
1B9
100
AcDbSymbolTableRecord
100
AcDbBlockTableRecord
  2
CLUMP38
340
0
  0
BLOCK_RECORD
  5
1BC
100
AcDbSymbolTableRecord
100
AcDbBlockTableRecord
  2
CLUMP39
340
0
  0
BLOCK_RECORD
  5
270
100
AcDbSymbolTableRecord
100
AcDbBlockTableRecord
  2
CLUMP40
340
0
  0
BLOCK_RECORD
  5
273
100
AcDbSymbolTableRecord
100
AcDbBlockTableRecord
  2
CLUMP41
340
0
  0
BLOCK_RECORD
  5
280
100
AcDbSymbolTableRecord
100
AcDbBlockTableRecord
  2
CLUMP42
340
0
  0
BLOCK_RECORD
  5
283
100
AcDbSymbolTableRecord
100
AcDbBlockTableRecord
  2
CLUMP43
340
0
  0
BLOCK_RECORD
  5
294
100
AcDbSymbolTableRecord
100
AcDbBlockTableRecord
  2
CLUMP44
340
0
  0
BLOCK_RECORD
  5
297
100
AcDbSymbolTableRecord
100
AcDbBlockTableRecord
  2
CLUMP45
340
0
  0
BLOCK_RECORD
  5
2AD
100
AcDbSymbolTableRecord
100
AcDbBlockTableRecord
  2
CLUMP46
340
0
  0
BLOCK_RECORD
  5
2B0
100
AcDbSymbolTableRecord
100
AcDbBlockTableRecord
  2
CLUMP47
340
0
  0
BLOCK_RECORD
  5
2BD
100
AcDbSymbolTableRecord
100
AcDbBlockTableRecord
  2
CLUMP48
340
0
  0
BLOCK_RECORD
  5
2C0
100
AcDbSymbolTableRecord
100
AcDbBlockTableRecord
  2
CLUMP49
340
0
  0
BLOCK_RECORD
  5
2D5
100
AcDbSymbolTableRecord
100
AcDbBlockTableRecord
  2
CLUMP50
340
0
  0
BLOCK_RECORD
  5
2D8
100
AcDbSymbolTableRecord
100
AcDbBlockTableRecord
  2
CLUMP51
340
0
  0
BLOCK_RECORD
  5
2E5
100
AcDbSymbolTableRecord
100
AcDbBlockTableRecord
  2
CLUMP52
340
0
  0
BLOCK_RECORD
  5
2E8
100
AcDbSymbolTableRecord
100
AcDbBlockTableRecord
  2
CLUMP53
340
0
  0
BLOCK_RECORD
  5
2F6
100
AcDbSymbolTableRecord
100
AcDbBlockTableRecord
  2
CLUMP54
340
0
  0
BLOCK_RECORD
  5
2F9
100
AcDbSymbolTableRecord
100
AcDbBlockTableRecord
  2
CLUMP55
340
0
  0
BLOCK_RECORD
  5
307
100
AcDbSymbolTableRecord
100
AcDbBlockTableRecord
  2
CLUMP56
340
0
  0
BLOCK_RECORD
  5
30A
100
AcDbSymbolTableRecord
100
AcDbBlockTableRecord
  2
CLUMP57
340
0
  0
BLOCK_RECORD
  5
321
100
AcDbSymbolTableRecord
100
AcDbBlockTableRecord
  2
CLUMP58
340
0
  0
BLOCK_RECORD
  5
324
100
AcDbSymbolTableRecord
100
AcDbBlockTableRecord
  2
CLUMP59
340
0
  0
BLOCK_RECORD
  5
33C
100
AcDbSymbolTableRecord
100
AcDbBlockTableRecord
  2
CLUMP60
340
0
  0
BLOCK_RECORD
  5
33F
100
AcDbSymbolTableRecord
100
AcDbBlockTableRecord
  2
CLUMP61
340
0
  0
BLOCK_RECORD
  5
34C
100
AcDbSymbolTableRecord
100
AcDbBlockTableRecord
  2
CLUMP62
340
0
  0
BLOCK_RECORD
  5
34F
100
AcDbSymbolTableRecord
100
AcDbBlockTableRecord
  2
CLUMP63
340
0
  0
BLOCK_RECORD
  5
358
100
AcDbSymbolTableRecord
100
AcDbBlockTableRecord
  2
CLUMP64
340
0
  0
BLOCK_RECORD
  5
35B
100
AcDbSymbolTableRecord
100
AcDbBlockTableRecord
  2
CLUMP65
340
0
  0
BLOCK_RECORD
  5
372
100
AcDbSymbolTableRecord
100
AcDbBlockTableRecord
  2
CLUMP66
340
0
  0
BLOCK_RECORD
  5
375
100
AcDbSymbolTableRecord
100
AcDbBlockTableRecord
  2
CLUMP67
340
0
  0
BLOCK_RECORD
  5
385
100
AcDbSymbolTableRecord
100
AcDbBlockTableRecord
  2
CLUMP68
340
0
  0
BLOCK_RECORD
  5
388
100
AcDbSymbolTableRecord
100
AcDbBlockTableRecord
  2
CLUMP69
340
0
  0
BLOCK_RECORD
  5
39A
100
AcDbSymbolTableRecord
100
AcDbBlockTableRecord
  2
CLUMP70
340
0
  0
BLOCK_RECORD
  5
39D
100
AcDbSymbolTableRecord
100
AcDbBlockTableRecord
  2
CLUMP71
340
0
  0
BLOCK_RECORD
  5
3C4
100
AcDbSymbolTableRecord
100
AcDbBlockTableRecord
  2
CLUMP72
340
0
  0
BLOCK_RECORD
  5
3C7
100
AcDbSymbolTableRecord
100
AcDbBlockTableRecord
  2
CLUMP73
340
0
  0
BLOCK_RECORD
  5
3D4
100
AcDbSymbolTableRecord
100
AcDbBlockTableRecord
  2
CLUMP74
340
0
  0
BLOCK_RECORD
  5
3D7
100
AcDbSymbolTableRecord
100
AcDbBlockTableRecord
  2
CLUMP75
340
0
  0
BLOCK_RECORD
  5
3E0
100
AcDbSymbolTableRecord
100
AcDbBlockTableRecord
  2
CLUMP76
340
0
  0
BLOCK_RECORD
  5
3E3
100
AcDbSymbolTableRecord
100
AcDbBlockTableRecord
  2
CLUMP77
340
0
  0
BLOCK_RECORD
  5
3FC
100
AcDbSymbolTableRecord
100
AcDbBlockTableRecord
  2
CLUMP78
340
0
  0
BLOCK_RECORD
  5
3FF
100
AcDbSymbolTableRecord
100
AcDbBlockTableRecord
  2
CLUMP79
340
0
  0
BLOCK_RECORD
  5
413
100
AcDbSymbolTableRecord
100
AcDbBlockTableRecord
  2
CLUMP80
340
0
  0
BLOCK_RECORD
  5
416
100
AcDbSymbolTableRecord
100
AcDbBlockTableRecord
  2
CLUMP81
340
0
  0
BLOCK_RECORD
  5
41F
100
AcDbSymbolTableRecord
100
AcDbBlockTableRecord
  2
CLUMP82
340
0
  0
BLOCK_RECORD
  5
422
100
AcDbSymbolTableRecord
100
AcDbBlockTableRecord
  2
CLUMP83
340
0
  0
BLOCK_RECORD
  5
42B
100
AcDbSymbolTableRecord
100
AcDbBlockTableRecord
  2
CLUMP84
340
0
  0
BLOCK_RECORD
  5
42E
100
AcDbSymbolTableRecord
100
AcDbBlockTableRecord
  2
CLUMP85
340
0
  0
BLOCK_RECORD
  5
43B
100
AcDbSymbolTableRecord
100
AcDbBlockTableRecord
  2
CLUMP86
340
0
  0
BLOCK_RECORD
  5
43E
100
AcDbSymbolTableRecord
100
AcDbBlockTableRecord
  2
CLUMP87
340
0
  0
BLOCK_RECORD
  5
44C
100
AcDbSymbolTableRecord
100
AcDbBlockTableRecord
  2
CLUMP88
340
0
  0
BLOCK_RECORD
  5
44F
100
AcDbSymbolTableRecord
100
AcDbBlockTableRecord
  2
CLUMP89
340
0
  0
BLOCK_RECORD
  5
45C
100
AcDbSymbolTableRecord
100
AcDbBlockTableRecord
  2
CLUMP90
340
0
  0
BLOCK_RECORD
  5
45F
100
AcDbSymbolTableRecord
100
AcDbBlockTableRecord
  2
CLUMP91
340
0
  0
BLOCK_RECORD
  5
46C
100
AcDbSymbolTableRecord
100
AcDbBlockTableRecord
  2
CLUMP92
340
0
  0
BLOCK_RECORD
  5
46F
100
AcDbSymbolTableRecord
100
AcDbBlockTableRecord
  2
CLUMP93
340
0
  0
BLOCK_RECORD
  5
481
100
AcDbSymbolTableRecord
100
AcDbBlockTableRecord
  2
CLUMP94
340
0
  0
BLOCK_RECORD
  5
484
100
AcDbSymbolTableRecord
100
AcDbBlockTableRecord
  2
CLUMP95
340
0
  0
BLOCK_RECORD
  5
49C
100
AcDbSymbolTableRecord
100
AcDbBlockTableRecord
  2
CLUMP96
340
0
  0
BLOCK_RECORD
  5
49F
100
AcDbSymbolTableRecord
100
AcDbBlockTableRecord
  2
CLUMP97
340
0
  0
BLOCK_RECORD
  5
4B8
100
AcDbSymbolTableRecord
100
AcDbBlockTableRecord
  2
CLUMP98
340
0
  0
BLOCK_RECORD
  5
4BB
100
AcDbSymbolTableRecord
100
AcDbBlockTableRecord
  2
CLUMP99
340
0
  0
BLOCK_RECORD
  5
4C9
100
AcDbSymbolTableRecord
100
AcDbBlockTableRecord
  2
CLUMP100
340
0
  0
BLOCK_RECORD
  5
4CC
100
AcDbSymbolTableRecord
100
AcDbBlockTableRecord
  2
CLUMP101
340
0
  0
BLOCK_RECORD
  5
4DA
100
AcDbSymbolTableRecord
100
AcDbBlockTableRecord
  2
CLUMP102
340
0
  0
BLOCK_RECORD
  5
4DD
100
AcDbSymbolTableRecord
100
AcDbBlockTableRecord
  2
CLUMP103
340
0
  0
BLOCK_RECORD
  5
4E6
100
AcDbSymbolTableRecord
100
AcDbBlockTableRecord
  2
CLUMP104
340
0
  0
BLOCK_RECORD
  5
4E9
100
AcDbSymbolTableRecord
100
AcDbBlockTableRecord
  2
CLUMP105
340
0
  0
BLOCK_RECORD
  5
4F2
100
AcDbSymbolTableRecord
100
AcDbBlockTableRecord
  2
CLUMP106
340
0
  0
BLOCK_RECORD
  5
4F5
100
AcDbSymbolTableRecord
100
AcDbBlockTableRecord
  2
CLUMP107
340
0
  0
BLOCK_RECORD
  5
559
100
AcDbSymbolTableRecord
100
AcDbBlockTableRecord
  2
CLUMP108
340
0
  0
BLOCK_RECORD
  5
55C
100
AcDbSymbolTableRecord
100
AcDbBlockTableRecord
  2
CLUMP109
340
0
  0
BLOCK_RECORD
  5
575
100
AcDbSymbolTableRecord
100
AcDbBlockTableRecord
  2
CLUMP110
340
0
  0
BLOCK_RECORD
  5
578
100
AcDbSymbolTableRecord
100
AcDbBlockTableRecord
  2
CLUMP111
340
0
  0
BLOCK_RECORD
  5
5AF
100
AcDbSymbolTableRecord
100
AcDbBlockTableRecord
  2
CLUMP112
340
0
  0
BLOCK_RECORD
  5
5B2
100
AcDbSymbolTableRecord
100
AcDbBlockTableRecord
  2
CLUMP113
340
0
  0
BLOCK_RECORD
  5
5BB
100
AcDbSymbolTableRecord
100
AcDbBlockTableRecord
  2
CLUMP114
340
0
  0
BLOCK_RECORD
  5
5BE
100
AcDbSymbolTableRecord
100
AcDbBlockTableRecord
  2
CLUMP115
340
0
  0
ENDTAB
  0
ENDSEC
  0
SECTION
  2
BLOCKS
  0
BLOCK
  5
D
100
AcDbEntity
  8
0
100
AcDbBlockBegin
  2
*MODEL_SPACE
 70
         0
 10
0.0
 20
0.0
 30
0.0
  3
*MODEL_SPACE
  1

  0
ENDBLK
  5
E
100
AcDbEntity
  8
0
100
AcDbBlockEnd
  0
BLOCK
  5
F
100
AcDbEntity
 67
         1
  8
0
100
AcDbBlockBegin
  2
*PAPER_SPACE
 70
         0
 10
0.0
 20
0.0
 30
0.0
  3
*PAPER_SPACE
  1

  0
ENDBLK
  5
10
100
AcDbEntity
 67
         1
  8
0
100
AcDbBlockEnd
  0
BLOCK
  5
3C
100
AcDbEntity
  8
0
100
AcDbBlockBegin
  2
CLUMP0
 70
         0
 10
0.0
 20
0.0
 30
0.0
  3

  1

  0
INSERT
  5
3E
100
AcDbEntity
  8
0
100
AcDbBlockReference
  2
CLUMP1
 10
0.0
 20
0.0
 30
0.0
  0
ENDBLK
  5
69
100
AcDbEntity
  8
0
100
AcDbBlockEnd
  0
BLOCK
  5
3F
100
AcDbEntity
  8
0
100
AcDbBlockBegin
  2
CLUMP1
 70
         0
 10
0.0
 20
0.0
 30
0.0
  3

  1

  0
LINE
  5
41
100
AcDbEntity
  8
LAYER0
 62
         3
100
AcDbLine
 10
22.2392933055
 20
45.9587732212
 30
0.0
 11
22.2417262404
 21
45.9480943812
 31
0.0
  0
LINE
  5
42
100
AcDbEntity
  8
LAYER0
 62
         3
100
AcDbLine
 10
22.2417262404
 20
45.9480943812
 30
0.0
 11
22.2458348778
 21
45.9381031645
 31
0.0
  0
LINE
  5
43
100
AcDbEntity
  8
LAYER0
 62
         3
100
AcDbLine
 10
22.2458348778
 20
45.9381031645
 30
0.0
 11
22.2515237539
 21
45.9289203121
 31
0.0
  0
LINE
  5
44
100
AcDbEntity
  8
LAYER0
 62
         3
100
AcDbLine
 10
22.2515237539
 20
45.9289203121
 30
0.0
 11
22.2585619968
 21
45.9208846928
 31
0.0
  0
LINE
  5
45
100
AcDbEntity
  8
LAYER0
 62
         3
100
AcDbLine
 10
22.2585619968
 20
45.9208846928
 30
0.0
 11
22.266814208
 21
45.9141011073
 31
0.0
  0
LINE
  5
46
100
AcDbEntity
  8
LAYER0
 62
         3
100
AcDbLine
 10
22.266814208
 20
45.9141011073
 30
0.0
 11
22.2760020731
 21
45.9087906237
 31
0.0
  0
LINE
  5
47
100
AcDbEntity
  8
LAYER0
 62
         3
100
AcDbLine
 10
22.2760020731
 20
45.9087906237
 30
0.0
 11
22.2859258785
 21
45.9050412013
 31
0.0
  0
LINE
  5
48
100
AcDbEntity
  8
LAYER0
 62
         3
100
AcDbLine
 10
22.2859258785
 20
45.9050412013
 30
0.0
 11
22.294788465
 21
45.9031591029
 31
0.0
  0
LINE
  5
49
100
AcDbEntity
  8
LAYER0
 62
         3
100
AcDbLine
 10
22.294788465
 20
45.9031591029
 30
0.0
 11
22.3038212418
 21
45.9025266303
 31
0.0
  0
LINE
  5
4A
100
AcDbEntity
  8
LAYER0
 62
         3
100
AcDbLine
 10
22.3038212418
 20
45.9025266303
 30
0.0
 11
22.3119692024
 21
45.9030390239
 31
0.0
  0
LINE
  5
4B
100
AcDbEntity
  8
LAYER0
 62
         3
100
AcDbLine
 10
22.3119692024
 20
45.9030390239
 30
0.0
 11
22.3199908643
 21
45.9045718147
 31
0.0
  0
LINE
  5
4C
100
AcDbEntity
  8
LAYER0
 62
         3
100
AcDbLine
 10
22.3199908643
 20
45.9045718147
 30
0.0
 11
22.330065615
 21
45.9080720688
 31
0.0
  0
LINE
  5
4D
100
AcDbEntity
  8
LAYER0
 62
         3
100
AcDbLine
 10
22.330065615
 20
45.9080720688
 30
0.0
 11
22.3394424676
 21
45.9131697847
 31
0.0
  0
LINE
  5
4E
100
AcDbEntity
  8
LAYER0
 62
         3
100
AcDbLine
 10
22.3394424676
 20
45.9131697847
 30
0.0
 11
22.3479213184
 21
45.9197901041
 31
0.0
  0
LINE
  5
4F
100
AcDbEntity
  8
LAYER0
 62
         3
100
AcDbLine
 10
22.3479213184
 20
45.9197901041
 30
0.0
 11
22.3551995143
 21
45.9277095927
 31
0.0
  0
LINE
  5
50
100
AcDbEntity
  8
LAYER0
 62
         3
100
AcDbLine
 10
22.3551995143
 20
45.9277095927
 30
0.0
 11
22.3611276405
 21
45.9368086043
 31
0.0
  0
LINE
  5
51
100
AcDbEntity
  8
LAYER0
 62
         3
100
AcDbLine
 10
22.3611276405
 20
45.9368086043
 30
0.0
 11
22.3654766589
 21
45.9467607273
 31
0.0
  0
LINE
  5
52
100
AcDbEntity
  8
LAYER0
 62
         3
100
AcDbLine
 10
22.3654766589
 20
45.9467607273
 30
0.0
 11
22.3681390514
 21
45.9573984882
 31
0.0
  0
LINE
  5
53
100
AcDbEntity
  8
LAYER0
 62
         3
100
AcDbLine
 10
22.3681390514
 20
45.9573984882
 30
0.0
 11
22.3690007835
 21
45.9683301581
 31
0.0
  0
LINE
  5
54
100
AcDbEntity
  8
LAYER0
 62
         3
100
AcDbLine
 10
22.3690007835
 20
45.9683301581
 30
0.0
 11
22.3680124917
 21
45.9793539077
 31
0.0
  0
LINE
  5
55
100
AcDbEntity
  8
LAYER0
 62
         3
100
AcDbLine
 10
22.3680124917
 20
45.9793539077
 30
0.0
 11
22.3651926055
 21
45.9900597765
 31
0.0
  0
LINE
  5
56
100
AcDbEntity
  8
LAYER0
 62
         3
100
AcDbLine
 10
22.3651926055
 20
45.9900597765
 30
0.0
 11
22.3605594757
 21
46.0002328093
 31
0.0
  0
LINE
  5
57
100
AcDbEntity
  8
LAYER0
 62
         3
100
AcDbLine
 10
22.3605594757
 20
46.0002328093
 30
0.0
 11
22.354271917
 21
46.0094648136
 31
0.0
  0
LINE
  5
58
100
AcDbEntity
  8
LAYER0
 62
         3
100
AcDbLine
 10
22.354271917
 20
46.0094648136
 30
0.0
 11
22.3464246714
 21
46.0175429518
 31
0.0
  0
LINE
  5
59
100
AcDbEntity
  8
LAYER0
 62
         3
100
AcDbLine
 10
22.3464246714
 20
46.0175429518
 30
0.0
 11
22.3372994944
 21
46.0241908862
 31
0.0
  0
LINE
  5
5A
100
AcDbEntity
  8
LAYER0
 62
         3
100
AcDbLine
 10
22.3372994944
 20
46.0241908862
 30
0.0
 11
22.3270766794
 21
46.0292446379
 31
0.0
  0
LINE
  5
5B
100
AcDbEntity
  8
LAYER0
 62
         3
100
AcDbLine
 10
22.3270766794
 20
46.0292446379
 30
0.0
 11
22.3161594033
 21
46.0323082937
 31
0.0
  0
LINE
  5
5C
100
AcDbEntity
  8
LAYER0
 62
         3
100
AcDbLine
 10
22.3161594033
 20
46.0323082937
 30
0.0
 11
22.3038119286
 21
46.033492936
 31
0.0
  0
LINE
  5
5D
100
AcDbEntity
  8
LAYER0
 62
         3
100
AcDbLine
 10
22.3038119286
 20
46.033492936
 30
0.0
 11
22.2934062614
 21
46.0326510204
 31
0.0
  0
LINE
  5
5E
100
AcDbEntity
  8
LAYER0
 62
         3
100
AcDbLine
 10
22.2934062614
 20
46.0326510204
 30
0.0
 11
22.2827740191
 21
46.0300215903
 31
0.0
  0
LINE
  5
5F
100
AcDbEntity
  8
LAYER0
 62
         3
100
AcDbLine
 10
22.2827740191
 20
46.0300215903
 30
0.0
 11
22.2727513894
 21
46.0255729689
 31
0.0
  0
LINE
  5
60
100
AcDbEntity
  8
LAYER0
 62
         3
100
AcDbLine
 10
22.2727513894
 20
46.0255729689
 30
0.0
 11
22.2719243749
 21
46.0251147582
 31
0.0
  0
LINE
  5
61
100
AcDbEntity
  8
LAYER0
 62
         3
100
AcDbLine
 10
22.2719243749
 20
46.0251147582
 30
0.0
 11
22.262561219
 21
46.0186925189
 31
0.0
  0
LINE
  5
62
100
AcDbEntity
  8
LAYER0
 62
         3
100
AcDbLine
 10
22.262561219
 20
46.0186925189
 30
0.0
 11
22.2544229611
 21
46.0107239617
 31
0.0
  0
LINE
  5
63
100
AcDbEntity
  8
LAYER0
 62
         3
100
AcDbLine
 10
22.2544229611
 20
46.0107239617
 30
0.0
 11
22.2478568433
 21
46.0015691156
 31
0.0
  0
LINE
  5
64
100
AcDbEntity
  8
LAYER0
 62
         3
100
AcDbLine
 10
22.2478568433
 20
46.0015691156
 30
0.0
 11
22.2429574489
 21
45.9914344086
 31
0.0
  0
LINE
  5
65
100
AcDbEntity
  8
LAYER0
 62
         3
100
AcDbLine
 10
22.2429574489
 20
45.9914344086
 30
0.0
 11
22.2398921246
 21
45.9807535122
 31
0.0
  0
LINE
  5
66
100
AcDbEntity
  8
LAYER0
 62
         3
100
AcDbLine
 10
22.2398921246
 20
45.9807535122
 30
0.0
 11
22.2386631205
 21
45.9697085156
 31
0.0
  0
LINE
  5
67
100
AcDbEntity
  8
LAYER0
 62
         3
100
AcDbLine
 10
22.2386631205
 20
45.9697085156
 30
0.0
 11
22.2392933055
 21
45.9587732212
 31
0.0
  0
ENDBLK
  5
68
100
AcDbEntity
  8
0
100
AcDbBlockEnd
  0
BLOCK
  5
6C
100
AcDbEntity
  8
0
100
AcDbBlockBegin
  2
CLUMP2
 70
         0
 10
0.0
 20
0.0
 30
0.0
  3

  1

  0
INSERT
  5
6E
100
AcDbEntity
  8
0
100
AcDbBlockReference
  2
CLUMP3
 10
0.0
 20
0.0
 30
0.0
  0
ENDBLK
  5
79
100
AcDbEntity
  8
0
100
AcDbBlockEnd
  0
BLOCK
  5
6F
100
AcDbEntity
  8
0
100
AcDbBlockBegin
  2
CLUMP3
 70
         0
 10
0.0
 20
0.0
 30
0.0
  3

  1

  0
LINE
  5
70
100
AcDbEntity
  8
LAYER0
 62
         3
100
AcDbLine
 10
19.0538202434
 20
29.1598054303
 30
0.0
 11
19.0506743963
 21
29.3104412756
 31
0.0
  0
LINE
  5
71
100
AcDbEntity
  8
LAYER0
 62
         3
100
AcDbLine
 10
19.0506743963
 20
29.3104412756
 30
0.0
 11
19.0449149369
 21
29.4560963942
 31
0.0
  0
LINE
  5
72
100
AcDbEntity
  8
LAYER0
 62
         3
100
AcDbLine
 10
19.0449149369
 20
29.4560963942
 30
0.0
 11
19.0401858637
 21
29.5271524082
 31
0.0
  0
LINE
  5
73
100
AcDbEntity
  8
LAYER0
 62
         3
100
AcDbLine
 10
19.0401858637
 20
29.5271524082
 30
0.0
 11
19.0342135883
 21
29.5949692885
 31
0.0
  0
LINE
  5
74
100
AcDbEntity
  8
LAYER0
 62
         3
100
AcDbLine
 10
19.0342135883
 20
29.5949692885
 30
0.0
 11
19.0271258146
 21
29.6589204188
 31
0.0
  0
LINE
  5
75
100
AcDbEntity
  8
LAYER0
 62
         3
100
AcDbLine
 10
19.0271258146
 20
29.6589204188
 30
0.0
 11
19.0190502464
 21
29.718379183
 31
0.0
  0
LINE
  5
76
100
AcDbEntity
  8
LAYER0
 62
         3
100
AcDbLine
 10
19.0190502464
 20
29.718379183
 30
0.0
 11
19.0061787558
 21
29.7952406967
 31
0.0
  0
LINE
  5
77
100
AcDbEntity
  8
LAYER0
 62
         3
100
AcDbLine
 10
19.0061787558
 20
29.7952406967
 30
0.0
 11
18.9924349099
 21
29.8669102325
 31
0.0
  0
ENDBLK
  5
78
100
AcDbEntity
  8
0
100
AcDbBlockEnd
  0
BLOCK
  5
7C
100
AcDbEntity
  8
0
100
AcDbBlockBegin
  2
CLUMP4
 70
         0
 10
0.0
 20
0.0
 30
0.0
  3

  1

  0
INSERT
  5
7E
100
AcDbEntity
  8
0
100
AcDbBlockReference
  2
CLUMP5
 10
0.0
 20
0.0
 30
0.0
  0
ENDBLK
  5
85
100
AcDbEntity
  8
0
100
AcDbBlockEnd
  0
BLOCK
  5
7F
100
AcDbEntity
  8
0
100
AcDbBlockBegin
  2
CLUMP5
 70
         0
 10
0.0
 20
0.0
 30
0.0
  3

  1

  0
LINE
  5
80
100
AcDbEntity
  8
LAYER0
 62
         3
100
AcDbLine
 10
18.9924349099
 20
29.8669102325
 30
0.0
 11
19.0207638799
 21
30.7236152424
 31
0.0
  0
LINE
  5
81
100
AcDbEntity
  8
LAYER0
 62
         3
100
AcDbLine
 10
19.0207638799
 20
30.7236152424
 30
0.0
 11
19.0376512299
 21
31.1406061503
 31
0.0
  0
LINE
  5
82
100
AcDbEntity
  8
LAYER0
 62
         3
100
AcDbLine
 10
19.0376512299
 20
31.1406061503
 30
0.0
 11
19.0569960534
 21
31.5398859514
 31
0.0
  0
LINE
  5
83
100
AcDbEntity
  8
LAYER0
 62
         3
100
AcDbLine
 10
19.0569960534
 20
31.5398859514
 30
0.0
 11
19.0915965497
 21
32.1275691225
 31
0.0
  0
ENDBLK
  5
84
100
AcDbEntity
  8
0
100
AcDbBlockEnd
  0
BLOCK
  5
88
100
AcDbEntity
  8
0
100
AcDbBlockBegin
  2
CLUMP6
 70
         0
 10
0.0
 20
0.0
 30
0.0
  3

  1

  0
INSERT
  5
8A
100
AcDbEntity
  8
0
100
AcDbBlockReference
  2
CLUMP7
 10
0.0
 20
0.0
 30
0.0
  0
ENDBLK
  5
9F
100
AcDbEntity
  8
0
100
AcDbBlockEnd
  0
BLOCK
  5
8B
100
AcDbEntity
  8
0
100
AcDbBlockBegin
  2
CLUMP7
 70
         0
 10
0.0
 20
0.0
 30
0.0
  3

  1

  0
LINE
  5
8C
100
AcDbEntity
  8
LAYER0
 62
         3
100
AcDbLine
 10
19.2107983886
 20
39.6740163399
 30
0.0
 11
19.2105208545
 21
39.7877718045
 31
0.0
  0
LINE
  5
8D
100
AcDbEntity
  8
LAYER0
 62
         3
100
AcDbLine
 10
19.2105208545
 20
39.7877718045
 30
0.0
 11
19.2086399033
 21
39.9915557101
 31
0.0
  0
LINE
  5
8E
100
AcDbEntity
  8
LAYER0
 62
         3
100
AcDbLine
 10
19.2086399033
 20
39.9915557101
 30
0.0
 11
19.2050428151
 21
40.1845822765
 31
0.0
  0
LINE
  5
8F
100
AcDbEntity
  8
LAYER0
 62
         3
100
AcDbLine
 10
19.2050428151
 20
40.1845822765
 30
0.0
 11
19.2038823872
 21
40.2316736712
 31
0.0
  0
LINE
  5
90
100
AcDbEntity
  8
LAYER0
 62
         3
100
AcDbLine
 10
19.2038823872
 20
40.2316736712
 30
0.0
 11
19.1976863763
 21
40.4271547421
 31
0.0
  0
LINE
  5
91
100
AcDbEntity
  8
LAYER0
 62
         3
100
AcDbLine
 10
19.1976863763
 20
40.4271547421
 30
0.0
 11
19.1940654464
 21
40.5157456848
 31
0.0
  0
LINE
  5
92
100
AcDbEntity
  8
LAYER0
 62
         3
100
AcDbLine
 10
19.1940654464
 20
40.5157456848
 30
0.0
 11
19.1901844948
 21
40.5977393223
 31
0.0
  0
LINE
  5
93
100
AcDbEntity
  8
LAYER0
 62
         3
100
AcDbLine
 10
19.1901844948
 20
40.5977393223
 30
0.0
 11
19.185154544
 21
40.6891819672
 31
0.0
  0
LINE
  5
94
100
AcDbEntity
  8
LAYER0
 62
         3
100
AcDbLine
 10
19.185154544
 20
40.6891819672
 30
0.0
 11
19.1799693918
 21
40.7704973784
 31
0.0
  0
LINE
  5
95
100
AcDbEntity
  8
LAYER0
 62
         3
100
AcDbLine
 10
19.1799693918
 20
40.7704973784
 30
0.0
 11
19.1747667229
 21
40.8421048925
 31
0.0
  0
LINE
  5
96
100
AcDbEntity
  8
LAYER0
 62
         3
100
AcDbLine
 10
19.1747667229
 20
40.8421048925
 30
0.0
 11
19.1696842223
 21
40.9044238462
 31
0.0
  0
LINE
  5
97
100
AcDbEntity
  8
LAYER0
 62
         3
100
AcDbLine
 10
19.1696842223
 20
40.9044238462
 30
0.0
 11
19.1653143951
 21
40.9529840215
 31
0.0
  0
LINE
  5
98
100
AcDbEntity
  8
LAYER0
 62
         3
100
AcDbLine
 10
19.1653143951
 20
40.9529840215
 30
0.0
 11
19.1611812475
 21
40.9950737338
 31
0.0
  0
LINE
  5
99
100
AcDbEntity
  8
LAYER0
 62
         3
100
AcDbLine
 10
19.1611812475
 20
40.9950737338
 30
0.0
 11
19.1537362545
 21
41.0626965298
 31
0.0
  0
LINE
  5
9A
100
AcDbEntity
  8
LAYER0
 62
         3
100
AcDbLine
 10
19.1537362545
 20
41.0626965298
 30
0.0
 11
19.1476375226
 21
41.1120179585
 31
0.0
  0
LINE
  5
9B
100
AcDbEntity
  8
LAYER0
 62
         3
100
AcDbLine
 10
19.1476375226
 20
41.1120179585
 30
0.0
 11
19.1456478113
 21
41.1270973249
 31
0.0
  0
LINE
  5
9C
100
AcDbEntity
  8
LAYER0
 62
         3
100
AcDbLine
 10
19.1456478113
 20
41.1270973249
 30
0.0
 11
19.1446558594
 21
41.134382291
 31
0.0
  0
LINE
  5
9D
100
AcDbEntity
  8
LAYER0
 62
         3
100
AcDbLine
 10
19.1446558594
 20
41.134382291
 30
0.0
 11
19.1450228005
 21
41.1316777302
 31
0.0
  0
ENDBLK
  5
9E
100
AcDbEntity
  8
0
100
AcDbBlockEnd
  0
BLOCK
  5
A2
100
AcDbEntity
  8
0
100
AcDbBlockBegin
  2
CLUMP8
 70
         0
 10
0.0
 20
0.0
 30
0.0
  3

  1

  0
INSERT
  5
A4
100
AcDbEntity
  8
0
100
AcDbBlockReference
  2
CLUMP9
 10
0.0
 20
0.0
 30
0.0
  0
ENDBLK
  5
CE
100
AcDbEntity
  8
0
100
AcDbBlockEnd
  0
BLOCK
  5
A5
100
AcDbEntity
  8
0
100
AcDbBlockBegin
  2
CLUMP9
 70
         0
 10
0.0
 20
0.0
 30
0.0
  3

  1

  0
LINE
  5
A6
100
AcDbEntity
  8
LAYER0
 62
         3
100
AcDbLine
 10
17.4190259457
 20
2.9943238835
 30
0.0
 11
17.4039878904
 21
3.1481503232
 31
0.0
  0
LINE
  5
A7
100
AcDbEntity
  8
LAYER0
 62
         3
100
AcDbLine
 10
17.4039878904
 20
3.1481503232
 30
0.0
 11
17.3647065656
 21
3.299806154
 31
0.0
  0
LINE
  5
A8
100
AcDbEntity
  8
LAYER0
 62
         3
100
AcDbLine
 10
17.3647065656
 20
3.299806154
 30
0.0
 11
17.302566862
 21
3.4428226484
 31
0.0
  0
LINE
  5
A9
100
AcDbEntity
  8
LAYER0
 62
         3
100
AcDbLine
 10
17.302566862
 20
3.4428226484
 30
0.0
 11
17.2117849936
 21
3.5838740993
 31
0.0
  0
LINE
  5
AA
100
AcDbEntity
  8
LAYER0
 62
         3
100
AcDbLine
 10
17.2117849936
 20
3.5838740993
 30
0.0
 11
17.0983203708
 21
3.7081052272
 31
0.0
  0
LINE
  5
AB
100
AcDbEntity
  8
LAYER0
 62
         3
100
AcDbLine
 10
17.0983203708
 20
3.7081052272
 30
0.0
 11
16.9619160957
 21
3.8139113102
 31
0.0
  0
LINE
  5
AC
100
AcDbEntity
  8
LAYER0
 62
         3
100
AcDbLine
 10
16.9619160957
 20
3.8139113102
 30
0.0
 11
16.8083922028
 21
3.8952014132
 31
0.0
  0
LINE
  5
AD
100
AcDbEntity
  8
LAYER0
 62
         3
100
AcDbLine
 10
16.8083922028
 20
3.8952014132
 30
0.0
 11
16.6524019218
 21
3.9463884566
 31
0.0
  0
LINE
  5
AE
100
AcDbEntity
  8
LAYER0
 62
         3
100
AcDbLine
 10
16.6524019218
 20
3.9463884566
 30
0.0
 11
16.4901238888
 21
3.9715037404
 31
0.0
  0
LINE
  5
AF
100
AcDbEntity
  8
LAYER0
 62
         3
100
AcDbLine
 10
16.4901238888
 20
3.9715037404
 30
0.0
 11
16.3338316555
 21
3.9703319702
 31
0.0
  0
LINE
  5
B0
100
AcDbEntity
  8
LAYER0
 62
         3
100
AcDbLine
 10
16.3338316555
 20
3.9703319702
 30
0.0
 11
16.1804777592
 21
3.9450895695
 31
0.0
  0
LINE
  5
B1
100
AcDbEntity
  8
LAYER0
 62
         3
100
AcDbLine
 10
16.1804777592
 20
3.9450895695
 30
0.0
 11
16.0294302696
 21
3.8948933696
 31
0.0
  0
LINE
  5
B2
100
AcDbEntity
  8
LAYER0
 62
         3
100
AcDbLine
 10
16.0294302696
 20
3.8948933696
 30
0.0
 11
15.8887893914
 21
3.8217172681
 31
0.0
  0
LINE
  5
B3
100
AcDbEntity
  8
LAYER0
 62
         3
100
AcDbLine
 10
15.8887893914
 20
3.8217172681
 30
0.0
 11
15.753697896
 21
3.7203744062
 31
0.0
  0
LINE
  5
B4
100
AcDbEntity
  8
LAYER0
 62
         3
100
AcDbLine
 10
15.753697896
 20
3.7203744062
 30
0.0
 11
15.6371944606
 21
3.5972079916
 31
0.0
  0
LINE
  5
B5
100
AcDbEntity
  8
LAYER0
 62
         3
100
AcDbLine
 10
15.6371944606
 20
3.5972079916
 30
0.0
 11
15.5418548733
 21
3.4536201325
 31
0.0
  0
LINE
  5
B6
100
AcDbEntity
  8
LAYER0
 62
         3
100
AcDbLine
 10
15.5418548733
 20
3.4536201325
 30
0.0
 11
15.4721268474
 21
3.2948448046
 31
0.0
  0
LINE
  5
B7
100
AcDbEntity
  8
LAYER0
 62
         3
100
AcDbLine
 10
15.4721268474
 20
3.2948448046
 30
0.0
 11
15.432910623
 21
3.1381987112
 31
0.0
  0
LINE
  5
B8
100
AcDbEntity
  8
LAYER0
 62
         3
100
AcDbLine
 10
15.432910623
 20
3.1381987112
 30
0.0
 11
15.4192724287
 21
2.9775618298
 31
0.0
  0
LINE
  5
B9
100
AcDbEntity
  8
LAYER0
 62
         3
100
AcDbLine
 10
15.4192724287
 20
2.9775618298
 30
0.0
 11
15.4306007435
 21
2.823967065
 31
0.0
  0
LINE
  5
BA
100
AcDbEntity
  8
LAYER0
 62
         3
100
AcDbLine
 10
15.4306007435
 20
2.823967065
 30
0.0
 11
15.4650674223
 21
2.6748438089
 31
0.0
  0
LINE
  5
BB
100
AcDbEntity
  8
LAYER0
 62
         3
100
AcDbLine
 10
15.4650674223
 20
2.6748438089
 30
0.0
 11
15.5254144505
 21
2.525638061
 31
0.0
  0
LINE
  5
BC
100
AcDbEntity
  8
LAYER0
 62
         3
100
AcDbLine
 10
15.5254144505
 20
2.525638061
 30
0.0
 11
15.60873138
 21
2.3883261441
 31
0.0
  0
LINE
  5
BD
100
AcDbEntity
  8
LAYER0
 62
         3
100
AcDbLine
 10
15.60873138
 20
2.3883261441
 30
0.0
 11
15.7206699828
 21
2.2585780226
 31
0.0
  0
LINE
  5
BE
100
AcDbEntity
  8
LAYER0
 62
         3
100
AcDbLine
 10
15.7206699828
 20
2.2585780226
 30
0.0
 11
15.8540119439
 21
2.1491001083
 31
0.0
  0
LINE
  5
BF
100
AcDbEntity
  8
LAYER0
 62
         3
100
AcDbLine
 10
15.8540119439
 20
2.1491001083
 30
0.0
 11
16.0022921159
 21
2.0648768417
 31
0.0
  0
LINE
  5
C0
100
AcDbEntity
  8
LAYER0
 62
         3
100
AcDbLine
 10
16.0022921159
 20
2.0648768417
 30
0.0
 11
16.1630434006
 21
2.0073993786
 31
0.0
  0
LINE
  5
C1
100
AcDbEntity
  8
LAYER0
 62
         3
100
AcDbLine
 10
16.1630434006
 20
2.0073993786
 30
0.0
 11
16.204524508
 21
1.9973466827
 31
0.0
  0
LINE
  5
C2
100
AcDbEntity
  8
LAYER0
 62
         3
100
AcDbLine
 10
16.204524508
 20
1.9973466827
 30
0.0
 11
16.3654105511
 21
1.9803238522
 31
0.0
  0
LINE
  5
C3
100
AcDbEntity
  8
LAYER0
 62
         3
100
AcDbLine
 10
16.3654105511
 20
1.9803238522
 30
0.0
 11
16.5250522106
 21
1.9796282707
 31
0.0
  0
LINE
  5
C4
100
AcDbEntity
  8
LAYER0
 62
         3
100
AcDbLine
 10
16.5250522106
 20
1.9796282707
 30
0.0
 11
16.6814122142
 21
2.007807715
 31
0.0
  0
LINE
  5
C5
100
AcDbEntity
  8
LAYER0
 62
         3
100
AcDbLine
 10
16.6814122142
 20
2.007807715
 30
0.0
 11
16.8308184504
 21
2.0626314639
 31
0.0
  0
LINE
  5
C6
100
AcDbEntity
  8
LAYER0
 62
         3
100
AcDbLine
 10
16.8308184504
 20
2.0626314639
 30
0.0
 11
16.9747963951
 21
2.1428179458
 31
0.0
  0
LINE
  5
C7
100
AcDbEntity
  8
LAYER0
 62
         3
100
AcDbLine
 10
16.9747963951
 20
2.1428179458
 30
0.0
 11
17.1036065578
 21
2.2448549701
 31
0.0
  0
LINE
  5
C8
100
AcDbEntity
  8
LAYER0
 62
         3
100
AcDbLine
 10
17.1036065578
 20
2.2448549701
 30
0.0
 11
17.2188162081
 21
2.3733838366
 31
0.0
  0
LINE
  5
C9
100
AcDbEntity
  8
LAYER0
 62
         3
100
AcDbLine
 10
17.2188162081
 20
2.3733838366
 30
0.0
 11
17.3107885777
 21
2.5210414736
 31
0.0
  0
LINE
  5
CA
100
AcDbEntity
  8
LAYER0
 62
         3
100
AcDbLine
 10
17.3107885777
 20
2.5210414736
 30
0.0
 11
17.3736743632
 21
2.6758345364
 31
0.0
  0
LINE
  5
CB
100
AcDbEntity
  8
LAYER0
 62
         3
100
AcDbLine
 10
17.3736743632
 20
2.6758345364
 30
0.0
 11
17.4101346194
 21
2.8391877843
 31
0.0
  0
LINE
  5
CC
100
AcDbEntity
  8
LAYER0
 62
         3
100
AcDbLine
 10
17.4101346194
 20
2.8391877843
 30
0.0
 11
17.4190259457
 21
2.9943238835
 31
0.0
  0
ENDBLK
  5
CD
100
AcDbEntity
  8
0
100
AcDbBlockEnd
  0
BLOCK
  5
D1
100
AcDbEntity
  8
0
100
AcDbBlockBegin
  2
CLUMP10
 70
         0
 10
0.0
 20
0.0
 30
0.0
  3

  1

  0
INSERT
  5
D3
100
AcDbEntity
  8
0
100
AcDbBlockReference
  2
CLUMP11
 10
0.0
 20
0.0
 30
0.0
  0
ENDBLK
  5
E4
100
AcDbEntity
  8
0
100
AcDbBlockEnd
  0
BLOCK
  5
D4
100
AcDbEntity
  8
0
100
AcDbBlockBegin
  2
CLUMP11
 70
         0
 10
0.0
 20
0.0
 30
0.0
  3

  1

  0
LINE
  5
D5
100
AcDbEntity
  8
LAYER0
 62
         3
100
AcDbLine
 10
14.750651738
 20
5.4671547098
 30
0.0
 11
15.0167417734
 21
5.6259843244
 31
0.0
  0
LINE
  5
D6
100
AcDbEntity
  8
LAYER0
 62
         3
100
AcDbLine
 10
15.0167417734
 20
5.6259843244
 30
0.0
 11
15.3689996361
 21
5.783942221
 31
0.0
  0
LINE
  5
D7
100
AcDbEntity
  8
LAYER0
 62
         3
100
AcDbLine
 10
15.3689996361
 20
5.783942221
 30
0.0
 11
15.7757566332
 21
5.9041871412
 31
0.0
  0
LINE
  5
D8
100
AcDbEntity
  8
LAYER0
 62
         3
100
AcDbLine
 10
15.7757566332
 20
5.9041871412
 30
0.0
 11
16.1081046819
 21
5.957671134
 31
0.0
  0
LINE
  5
D9
100
AcDbEntity
  8
LAYER0
 62
         3
100
AcDbLine
 10
16.1081046819
 20
5.957671134
 30
0.0
 11
16.4603439181
 21
5.9737364484
 31
0.0
  0
LINE
  5
DA
100
AcDbEntity
  8
LAYER0
 62
         3
100
AcDbLine
 10
16.4603439181
 20
5.9737364484
 30
0.0
 11
16.7615350329
 21
5.9543396696
 31
0.0
  0
LINE
  5
DB
100
AcDbEntity
  8
LAYER0
 62
         3
100
AcDbLine
 10
16.7615350329
 20
5.9543396696
 30
0.0
 11
17.0634870439
 21
5.904030679
 31
0.0
  0
LINE
  5
DC
100
AcDbEntity
  8
LAYER0
 62
         3
100
AcDbLine
 10
17.0634870439
 20
5.904030679
 30
0.0
 11
17.4049564659
 21
5.8071917577
 31
0.0
  0
LINE
  5
DD
100
AcDbEntity
  8
LAYER0
 62
         3
100
AcDbLine
 10
17.4049564659
 20
5.8071917577
 30
0.0
 11
17.7268308609
 21
5.6740666463
 31
0.0
  0
LINE
  5
DE
100
AcDbEntity
  8
LAYER0
 62
         3
100
AcDbLine
 10
17.7268308609
 20
5.6740666463
 30
0.0
 11
18.0187935134
 21
5.5120085085
 31
0.0
  0
LINE
  5
DF
100
AcDbEntity
  8
LAYER0
 62
         3
100
AcDbLine
 10
18.0187935134
 20
5.5120085085
 30
0.0
 11
18.2789412349
 21
5.3280793785
 31
0.0
  0
LINE
  5
E0
100
AcDbEntity
  8
LAYER0
 62
         3
100
AcDbLine
 10
18.2789412349
 20
5.3280793785
 30
0.0
 11
18.5803526103
 21
5.0545499383
 31
0.0
  0
LINE
  5
E1
100
AcDbEntity
  8
LAYER0
 62
         3
100
AcDbLine
 10
18.5803526103
 20
5.0545499383
 30
0.0
 11
18.8206226587
 21
4.77220553
 31
0.0
  0
LINE
  5
E2
100
AcDbEntity
  8
LAYER0
 62
         3
100
AcDbLine
 10
18.8206226587
 20
4.77220553
 30
0.0
 11
18.9797614723
 21
4.5373008309
 31
0.0
  0
ENDBLK
  5
E3
100
AcDbEntity
  8
0
100
AcDbBlockEnd
  0
BLOCK
  5
E7
100
AcDbEntity
  8
0
100
AcDbBlockBegin
  2
CLUMP12
 70
         0
 10
0.0
 20
0.0
 30
0.0
  3

  1

  0
INSERT
  5
E9
100
AcDbEntity
  8
0
100
AcDbBlockReference
  2
CLUMP13
 10
0.0
 20
0.0
 30
0.0
  0
ENDBLK
  5
FA
100
AcDbEntity
  8
0
100
AcDbBlockEnd
  0
BLOCK
  5
EA
100
AcDbEntity
  8
0
100
AcDbBlockBegin
  2
CLUMP13
 70
         0
 10
0.0
 20
0.0
 30
0.0
  3

  1

  0
LINE
  5
EC
100
AcDbEntity
  8
LAYER1
 62
         3
100
AcDbLine
 10
14.6078408717
 20
6.0265349878
 30
0.0
 11
14.8340907901
 21
6.0326053484
 31
0.0
  0
LINE
  5
ED
100
AcDbEntity
  8
LAYER1
 62
         3
100
AcDbLine
 10
14.8340907901
 20
6.0326053484
 30
0.0
 11
15.1135099142
 21
6.0401006325
 31
0.0
  0
LINE
  5
EE
100
AcDbEntity
  8
LAYER1
 62
         3
100
AcDbLine
 10
15.1135099142
 20
6.0401006325
 30
0.0
 11
15.4385470807
 21
6.0488215371
 31
0.0
  0
LINE
  5
EF
100
AcDbEntity
  8
LAYER1
 62
         3
100
AcDbLine
 10
15.4385470807
 20
6.0488215371
 30
0.0
 11
15.8004087418
 21
6.0585296436
 31
0.0
  0
LINE
  5
F0
100
AcDbEntity
  8
LAYER1
 62
         3
100
AcDbLine
 10
15.8004087418
 20
6.0585296436
 30
0.0
 11
16.1893104225
 21
6.0689641817
 31
0.0
  0
LINE
  5
F1
100
AcDbEntity
  8
LAYER1
 62
         3
100
AcDbLine
 10
16.1893104225
 20
6.0689641817
 30
0.0
 11
16.5947337656
 21
6.0798401667
 31
0.0
  0
LINE
  5
F2
100
AcDbEntity
  8
LAYER1
 62
         3
100
AcDbLine
 10
16.5947337656
 20
6.0798401667
 30
0.0
 11
17.0057133793
 21
6.090867026
 31
0.0
  0
LINE
  5
F3
100
AcDbEntity
  8
LAYER1
 62
         3
100
AcDbLine
 10
17.0057133793
 20
6.090867026
 30
0.0
 11
17.4111367225
 21
6.101743011
 31
0.0
  0
LINE
  5
F4
100
AcDbEntity
  8
LAYER1
 62
         3
100
AcDbLine
 10
17.4111367225
 20
6.101743011
 30
0.0
 11
17.8000384032
 21
6.1121775492
 31
0.0
  0
LINE
  5
F5
100
AcDbEntity
  8
LAYER1
 62
         3
100
AcDbLine
 10
17.8000384032
 20
6.1121775492
 30
0.0
 11
18.1619000643
 21
6.1218856557
 31
0.0
  0
LINE
  5
F6
100
AcDbEntity
  8
LAYER1
 62
         3
100
AcDbLine
 10
18.1619000643
 20
6.1218856557
 30
0.0
 11
18.4869372308
 21
6.1306065603
 31
0.0
  0
LINE
  5
F7
100
AcDbEntity
  8
LAYER1
 62
         3
100
AcDbLine
 10
18.4869372308
 20
6.1306065603
 30
0.0
 11
18.7663582175
 21
6.1381018443
 31
0.0
  0
LINE
  5
F8
100
AcDbEntity
  8
LAYER1
 62
         3
100
AcDbLine
 10
18.7663582175
 20
6.1381018443
 30
0.0
 11
18.9926062732
 21
6.1441722049
 31
0.0
  0
ENDBLK
  5
F9
100
AcDbEntity
  8
0
100
AcDbBlockEnd
  0
BLOCK
  5
FD
100
AcDbEntity
  8
0
100
AcDbBlockBegin
  2
CLUMP14
 70
         0
 10
0.0
 20
0.0
 30
0.0
  3

  1

  0
INSERT
  5
FF
100
AcDbEntity
  8
0
100
AcDbBlockReference
  2
CLUMP15
 10
0.0
 20
0.0
 30
0.0
  0
ENDBLK
  5
10B
100
AcDbEntity
  8
0
100
AcDbBlockEnd
  0
BLOCK
  5
100
100
AcDbEntity
  8
0
100
AcDbBlockBegin
  2
CLUMP15
 70
         0
 10
0.0
 20
0.0
 30
0.0
  3

  1

  0
LINE
  5
101
100
AcDbEntity
  8
LAYER0
 62
         3
100
AcDbLine
 10
24.3038209607
 20
49.1102134632
 30
0.0
 11
24.4989112827
 21
49.1214330371
 31
0.0
  0
LINE
  5
102
100
AcDbEntity
  8
LAYER0
 62
         3
100
AcDbLine
 10
24.4989112827
 20
49.1214330371
 30
0.0
 11
24.6865043931
 21
49.1546605969
 31
0.0
  0
LINE
  5
103
100
AcDbEntity
  8
LAYER0
 62
         3
100
AcDbLine
 10
24.6865043931
 20
49.1546605969
 30
0.0
 11
24.8593911937
 21
49.2086192262
 31
0.0
  0
LINE
  5
104
100
AcDbEntity
  8
LAYER0
 62
         3
100
AcDbLine
 10
24.8593911937
 20
49.2086192262
 30
0.0
 11
25.0109277419
 21
49.2812353249
 31
0.0
  0
LINE
  5
105
100
AcDbEntity
  8
LAYER0
 62
         3
100
AcDbLine
 10
25.0109277419
 20
49.2812353249
 30
0.0
 11
25.135290573
 21
49.3697182973
 31
0.0
  0
LINE
  5
106
100
AcDbEntity
  8
LAYER0
 62
         3
100
AcDbLine
 10
25.135290573
 20
49.3697182973
 30
0.0
 11
25.2277004932
 21
49.4706677923
 31
0.0
  0
LINE
  5
107
100
AcDbEntity
  8
LAYER0
 62
         3
100
AcDbLine
 10
25.2277004932
 20
49.4706677923
 30
0.0
 11
25.2846062411
 21
49.5802043773
 31
0.0
  0
LINE
  5
108
100
AcDbEntity
  8
LAYER0
 62
         3
100
AcDbLine
 10
25.2846062411
 20
49.5802043773
 30
0.0
 11
25.3038209607
 21
49.694118623
 31
0.0
  0
LINE
  5
109
100
AcDbEntity
  8
LAYER0
 62
         3
100
AcDbLine
 10
25.3038209607
 20
49.694118623
 30
0.0
 11
24.3038209607
 21
49.1102134632
 31
0.0
  0
ENDBLK
  5
10A
100
AcDbEntity
  8
0
100
AcDbBlockEnd
  0
BLOCK
  5
10E
100
AcDbEntity
  8
0
100
AcDbBlockBegin
  2
CLUMP16
 70
         0
 10
0.0
 20
0.0
 30
0.0
  3

  1

  0
INSERT
  5
110
100
AcDbEntity
  8
0
100
AcDbBlockReference
  2
CLUMP17
 10
0.0
 20
0.0
 30
0.0
  0
ENDBLK
  5
11C
100
AcDbEntity
  8
0
100
AcDbBlockEnd
  0
BLOCK
  5
111
100
AcDbEntity
  8
0
100
AcDbBlockBegin
  2
CLUMP17
 70
         0
 10
0.0
 20
0.0
 30
0.0
  3

  1

  0
LINE
  5
112
100
AcDbEntity
  8
LAYER0
 62
         3
100
AcDbLine
 10
21.3038209607
 20
49.1102134632
 30
0.0
 11
21.1087306387
 21
49.0877784204
 31
0.0
  0
LINE
  5
113
100
AcDbEntity
  8
LAYER0
 62
         3
100
AcDbLine
 10
21.1087306387
 20
49.0877784204
 30
0.0
 11
20.9211375284
 21
49.0213354579
 31
0.0
  0
LINE
  5
114
100
AcDbEntity
  8
LAYER0
 62
         3
100
AcDbLine
 10
20.9211375284
 20
49.0213354579
 30
0.0
 11
20.7482507277
 21
48.9134379418
 31
0.0
  0
LINE
  5
115
100
AcDbEntity
  8
LAYER0
 62
         3
100
AcDbLine
 10
20.7482507277
 20
48.9134379418
 30
0.0
 11
20.5967141795
 21
48.7682323128
 31
0.0
  0
LINE
  5
116
100
AcDbEntity
  8
LAYER0
 62
         3
100
AcDbLine
 10
20.5967141795
 20
48.7682323128
 30
0.0
 11
20.4723513484
 21
48.591298742
 31
0.0
  0
LINE
  5
117
100
AcDbEntity
  8
LAYER0
 62
         3
100
AcDbLine
 10
20.4723513484
 20
48.591298742
 30
0.0
 11
20.3799414282
 21
48.3894366873
 31
0.0
  0
LINE
  5
118
100
AcDbEntity
  8
LAYER0
 62
         3
100
AcDbLine
 10
20.3799414282
 20
48.3894366873
 30
0.0
 11
20.3230356803
 21
48.1704035941
 31
0.0
  0
LINE
  5
119
100
AcDbEntity
  8
LAYER0
 62
         3
100
AcDbLine
 10
20.3230356803
 20
48.1704035941
 30
0.0
 11
20.3038209607
 21
47.9426167815
 31
0.0
  0
LINE
  5
11A
100
AcDbEntity
  8
LAYER0
 62
         3
100
AcDbLine
 10
20.3038209607
 20
47.9426167815
 30
0.0
 11
21.3038209607
 21
49.1102134632
 31
0.0
  0
ENDBLK
  5
11B
100
AcDbEntity
  8
0
100
AcDbBlockEnd
  0
BLOCK
  5
11F
100
AcDbEntity
  8
0
100
AcDbBlockBegin
  2
CLUMP18
 70
         0
 10
0.0
 20
0.0
 30
0.0
  3

  1

  0
INSERT
  5
121
100
AcDbEntity
  8
0
100
AcDbBlockReference
  2
CLUMP19
 10
0.0
 20
0.0
 30
0.0
  0
ENDBLK
  5
12D
100
AcDbEntity
  8
0
100
AcDbBlockEnd
  0
BLOCK
  5
122
100
AcDbEntity
  8
0
100
AcDbBlockBegin
  2
CLUMP19
 70
         0
 10
0.0
 20
0.0
 30
0.0
  3

  1

  0
LINE
  5
123
100
AcDbEntity
  8
LAYER0
 62
         3
100
AcDbLine
 10
21.3038209607
 20
49.4021660431
 30
0.0
 11
21.1087306387
 21
49.3797310003
 31
0.0
  0
LINE
  5
124
100
AcDbEntity
  8
LAYER0
 62
         3
100
AcDbLine
 10
21.1087306387
 20
49.3797310003
 30
0.0
 11
20.9211375284
 21
49.3132880378
 31
0.0
  0
LINE
  5
125
100
AcDbEntity
  8
LAYER0
 62
         3
100
AcDbLine
 10
20.9211375284
 20
49.3132880378
 30
0.0
 11
20.7482507277
 21
49.2053905217
 31
0.0
  0
LINE
  5
126
100
AcDbEntity
  8
LAYER0
 62
         3
100
AcDbLine
 10
20.7482507277
 20
49.2053905217
 30
0.0
 11
20.5967141795
 21
49.0601848927
 31
0.0
  0
LINE
  5
127
100
AcDbEntity
  8
LAYER0
 62
         3
100
AcDbLine
 10
20.5967141795
 20
49.0601848927
 30
0.0
 11
20.4723513484
 21
48.8832513219
 31
0.0
  0
LINE
  5
128
100
AcDbEntity
  8
LAYER0
 62
         3
100
AcDbLine
 10
20.4723513484
 20
48.8832513219
 30
0.0
 11
20.3799414282
 21
48.6813892672
 31
0.0
  0
LINE
  5
129
100
AcDbEntity
  8
LAYER0
 62
         3
100
AcDbLine
 10
20.3799414282
 20
48.6813892672
 30
0.0
 11
20.3230356803
 21
48.462356174
 31
0.0
  0
LINE
  5
12A
100
AcDbEntity
  8
LAYER0
 62
         3
100
AcDbLine
 10
20.3230356803
 20
48.462356174
 30
0.0
 11
20.3038209607
 21
48.2345693614
 31
0.0
  0
LINE
  5
12B
100
AcDbEntity
  8
LAYER0
 62
         3
100
AcDbLine
 10
20.3038209607
 20
48.2345693614
 30
0.0
 11
21.3038209607
 21
49.4021660431
 31
0.0
  0
ENDBLK
  5
12C
100
AcDbEntity
  8
0
100
AcDbBlockEnd
  0
BLOCK
  5
130
100
AcDbEntity
  8
0
100
AcDbBlockBegin
  2
CLUMP20
 70
         0
 10
0.0
 20
0.0
 30
0.0
  3

  1

  0
INSERT
  5
132
100
AcDbEntity
  8
0
100
AcDbBlockReference
  2
CLUMP21
 10
0.0
 20
0.0
 30
0.0
  0
ENDBLK
  5
13E
100
AcDbEntity
  8
0
100
AcDbBlockEnd
  0
BLOCK
  5
133
100
AcDbEntity
  8
0
100
AcDbBlockBegin
  2
CLUMP21
 70
         0
 10
0.0
 20
0.0
 30
0.0
  3

  1

  0
LINE
  5
134
100
AcDbEntity
  8
LAYER0
 62
         3
100
AcDbLine
 10
19.3038209607
 20
49.9827202048
 30
0.0
 11
19.3230356803
 21
49.8688203086
 31
0.0
  0
LINE
  5
135
100
AcDbEntity
  8
LAYER0
 62
         3
100
AcDbLine
 10
19.3230356803
 20
49.8688203086
 30
0.0
 11
19.3799414282
 21
49.7592975215
 31
0.0
  0
LINE
  5
136
100
AcDbEntity
  8
LAYER0
 62
         3
100
AcDbLine
 10
19.3799414282
 20
49.7592975215
 30
0.0
 11
19.4723513484
 21
49.6583607429
 31
0.0
  0
LINE
  5
137
100
AcDbEntity
  8
LAYER0
 62
         3
100
AcDbLine
 10
19.4723513484
 20
49.6583607429
 30
0.0
 11
19.5967141795
 21
49.5698889164
 31
0.0
  0
LINE
  5
138
100
AcDbEntity
  8
LAYER0
 62
         3
100
AcDbLine
 10
19.5967141795
 20
49.5698889164
 30
0.0
 11
19.7482507277
 21
49.4972819649
 31
0.0
  0
LINE
  5
139
100
AcDbEntity
  8
LAYER0
 62
         3
100
AcDbLine
 10
19.7482507277
 20
49.4972819649
 30
0.0
 11
19.9211375283
 21
49.4433301327
 31
0.0
  0
LINE
  5
13A
100
AcDbEntity
  8
LAYER0
 62
         3
100
AcDbLine
 10
19.9211375283
 20
49.4433301327
 30
0.0
 11
20.1087306387
 21
49.4101067584
 31
0.0
  0
LINE
  5
13B
100
AcDbEntity
  8
LAYER0
 62
         3
100
AcDbLine
 10
20.1087306387
 20
49.4101067584
 30
0.0
 11
20.3038209607
 21
49.3988885978
 31
0.0
  0
LINE
  5
13C
100
AcDbEntity
  8
LAYER0
 62
         3
100
AcDbLine
 10
20.3038209607
 20
49.3988885978
 30
0.0
 11
19.3038209607
 21
49.9827202048
 31
0.0
  0
ENDBLK
  5
13D
100
AcDbEntity
  8
0
100
AcDbBlockEnd
  0
BLOCK
  5
141
100
AcDbEntity
  8
0
100
AcDbBlockBegin
  2
CLUMP22
 70
         0
 10
0.0
 20
0.0
 30
0.0
  3

  1

  0
INSERT
  5
143
100
AcDbEntity
  8
0
100
AcDbBlockReference
  2
CLUMP23
 10
0.0
 20
0.0
 30
0.0
  0
ENDBLK
  5
14B
100
AcDbEntity
  8
0
100
AcDbBlockEnd
  0
BLOCK
  5
144
100
AcDbEntity
  8
0
100
AcDbBlockBegin
  2
CLUMP23
 70
         0
 10
0.0
 20
0.0
 30
0.0
  3

  1

  0
LINE
  5
145
100
AcDbEntity
  8
LAYER0
 62
         3
100
AcDbLine
 10
23.9621130511
 20
49.4021660431
 30
0.0
 11
23.8170223764
 21
49.5253390125
 31
0.0
  0
LINE
  5
146
100
AcDbEntity
  8
LAYER0
 62
         3
100
AcDbLine
 10
23.8170223764
 20
49.5253390125
 30
0.0
 11
23.6554154754
 21
49.616265238
 31
0.0
  0
LINE
  5
147
100
AcDbEntity
  8
LAYER0
 62
         3
100
AcDbLine
 10
23.6554154754
 20
49.616265238
 30
0.0
 11
23.4824933005
 21
49.6720184647
 31
0.0
  0
LINE
  5
148
100
AcDbEntity
  8
LAYER0
 62
         3
100
AcDbLine
 10
23.4824933005
 20
49.6720184647
 30
0.0
 11
23.3038209607
 21
49.6908044013
 31
0.0
  0
LINE
  5
149
100
AcDbEntity
  8
LAYER0
 62
         3
100
AcDbLine
 10
23.3038209607
 20
49.6908044013
 30
0.0
 11
23.9621130511
 21
49.4021660431
 31
0.0
  0
ENDBLK
  5
14A
100
AcDbEntity
  8
0
100
AcDbBlockEnd
  0
BLOCK
  5
14E
100
AcDbEntity
  8
0
100
AcDbBlockBegin
  2
CLUMP24
 70
         0
 10
0.0
 20
0.0
 30
0.0
  3

  1

  0
INSERT
  5
150
100
AcDbEntity
  8
0
100
AcDbBlockReference
  2
CLUMP25
 10
0.0
 20
0.0
 30
0.0
  0
ENDBLK
  5
15C
100
AcDbEntity
  8
0
100
AcDbBlockEnd
  0
BLOCK
  5
151
100
AcDbEntity
  8
0
100
AcDbBlockBegin
  2
CLUMP25
 70
         0
 10
0.0
 20
0.0
 30
0.0
  3

  1

  0
LINE
  5
152
100
AcDbEntity
  8
LAYER0
 62
         3
100
AcDbLine
 10
19.8038209607
 20
49.9827202048
 30
0.0
 11
19.8134283205
 21
49.9257702567
 31
0.0
  0
LINE
  5
153
100
AcDbEntity
  8
LAYER0
 62
         3
100
AcDbLine
 10
19.8134283205
 20
49.9257702567
 30
0.0
 11
19.8418811944
 21
49.8710088632
 31
0.0
  0
LINE
  5
154
100
AcDbEntity
  8
LAYER0
 62
         3
100
AcDbLine
 10
19.8418811944
 20
49.8710088632
 30
0.0
 11
19.8880861545
 21
49.8205404738
 31
0.0
  0
LINE
  5
155
100
AcDbEntity
  8
LAYER0
 62
         3
100
AcDbLine
 10
19.8880861545
 20
49.8205404738
 30
0.0
 11
19.9502675701
 21
49.7763045606
 31
0.0
  0
LINE
  5
156
100
AcDbEntity
  8
LAYER0
 62
         3
100
AcDbLine
 10
19.9502675701
 20
49.7763045606
 30
0.0
 11
20.0260358442
 21
49.7400010848
 31
0.0
  0
LINE
  5
157
100
AcDbEntity
  8
LAYER0
 62
         3
100
AcDbLine
 10
20.0260358442
 20
49.7400010848
 30
0.0
 11
20.1124792445
 21
49.7130251687
 31
0.0
  0
LINE
  5
158
100
AcDbEntity
  8
LAYER0
 62
         3
100
AcDbLine
 10
20.1124792445
 20
49.7130251687
 30
0.0
 11
20.2062757997
 21
49.6964134816
 31
0.0
  0
LINE
  5
159
100
AcDbEntity
  8
LAYER0
 62
         3
100
AcDbLine
 10
20.2062757997
 20
49.6964134816
 30
0.0
 11
20.3038209607
 21
49.6908044013
 31
0.0
  0
LINE
  5
15A
100
AcDbEntity
  8
LAYER0
 62
         3
100
AcDbLine
 10
20.3038209607
 20
49.6908044013
 30
0.0
 11
19.8038209607
 21
49.9827202048
 31
0.0
  0
ENDBLK
  5
15B
100
AcDbEntity
  8
0
100
AcDbBlockEnd
  0
BLOCK
  5
15F
100
AcDbEntity
  8
0
100
AcDbBlockBegin
  2
CLUMP26
 70
         0
 10
0.0
 20
0.0
 30
0.0
  3

  1

  0
INSERT
  5
161
100
AcDbEntity
  8
0
100
AcDbBlockReference
  2
CLUMP27
 10
0.0
 20
0.0
 30
0.0
  0
ENDBLK
  5
168
100
AcDbEntity
  8
0
100
AcDbBlockEnd
  0
BLOCK
  5
162
100
AcDbEntity
  8
0
100
AcDbBlockBegin
  2
CLUMP27
 70
         0
 10
0.0
 20
0.0
 30
0.0
  3

  1

  0
LINE
  5
163
100
AcDbEntity
  8
LAYER1
 62
         3
100
AcDbLine
 10
18.7185348033
 20
3.2262175067
 30
0.0
 11
18.8481544166
 21
3.198031029
 31
0.0
  0
LINE
  5
164
100
AcDbEntity
  8
LAYER1
 62
         3
100
AcDbLine
 10
18.8481544166
 20
3.198031029
 30
0.0
 11
18.942216134
 21
3.1775763913
 31
0.0
  0
LINE
  5
165
100
AcDbEntity
  8
LAYER1
 62
         3
100
AcDbLine
 10
18.942216134
 20
3.1775763913
 30
0.0
 11
18.9992466032
 21
3.1651748998
 31
0.0
  0
LINE
  5
166
100
AcDbEntity
  8
LAYER1
 62
         3
100
AcDbLine
 10
18.9992466032
 20
3.1651748998
 30
0.0
 11
19.0183573424
 21
3.1610193385
 31
0.0
  0
ENDBLK
  5
167
100
AcDbEntity
  8
0
100
AcDbBlockEnd
  0
BLOCK
  5
16B
100
AcDbEntity
  8
0
100
AcDbBlockBegin
  2
CLUMP28
 70
         0
 10
0.0
 20
0.0
 30
0.0
  3

  1

  0
INSERT
  5
16D
100
AcDbEntity
  8
0
100
AcDbBlockReference
  2
CLUMP29
 10
0.0
 20
0.0
 30
0.0
  0
ENDBLK
  5
174
100
AcDbEntity
  8
0
100
AcDbBlockEnd
  0
BLOCK
  5
16E
100
AcDbEntity
  8
0
100
AcDbBlockBegin
  2
CLUMP29
 70
         0
 10
0.0
 20
0.0
 30
0.0
  3

  1

  0
LINE
  5
16F
100
AcDbEntity
  8
LAYER1
 62
         3
100
AcDbLine
 10
14.1325422584
 20
4.2234767883
 30
0.0
 11
14.1516529977
 21
4.2193212269
 31
0.0
  0
LINE
  5
170
100
AcDbEntity
  8
LAYER1
 62
         3
100
AcDbLine
 10
14.1516529977
 20
4.2193212269
 30
0.0
 11
14.2086853295
 21
4.2069188042
 31
0.0
  0
LINE
  5
171
100
AcDbEntity
  8
LAYER1
 62
         3
100
AcDbLine
 10
14.2086853295
 20
4.2069188042
 30
0.0
 11
14.3027451842
 21
4.1864650978
 31
0.0
  0
LINE
  5
172
100
AcDbEntity
  8
LAYER1
 62
         3
100
AcDbLine
 10
14.3027451842
 20
4.1864650978
 30
0.0
 11
14.4323647975
 21
4.1582786201
 31
0.0
  0
ENDBLK
  5
173
100
AcDbEntity
  8
0
100
AcDbBlockEnd
  0
BLOCK
  5
177
100
AcDbEntity
  8
0
100
AcDbBlockBegin
  2
CLUMP30
 70
         0
 10
0.0
 20
0.0
 30
0.0
  3

  1

  0
INSERT
  5
179
100
AcDbEntity
  8
0
100
AcDbBlockReference
  2
CLUMP31
 10
0.0
 20
0.0
 30
0.0
  0
ENDBLK
  5
183
100
AcDbEntity
  8
0
100
AcDbBlockEnd
  0
BLOCK
  5
17A
100
AcDbEntity
  8
0
100
AcDbBlockBegin
  2
CLUMP31
 70
         0
 10
0.0
 20
0.0
 30
0.0
  3

  1

  0
LINE
  5
17B
100
AcDbEntity
  8
LAYER0
 62
         3
100
AcDbLine
 10
25.6152066424
 20
29.8669102325
 30
0.0
 11
25.5944883201
 21
29.7497063
 31
0.0
  0
LINE
  5
17C
100
AcDbEntity
  8
LAYER0
 62
         3
100
AcDbLine
 10
25.5944883201
 20
29.7497063
 30
0.0
 11
25.5849461787
 21
29.6871524784
 31
0.0
  0
LINE
  5
17D
100
AcDbEntity
  8
LAYER0
 62
         3
100
AcDbLine
 10
25.5849461787
 20
29.6871524784
 30
0.0
 11
25.5763844609
 21
29.6198564304
 31
0.0
  0
LINE
  5
17E
100
AcDbEntity
  8
LAYER0
 62
         3
100
AcDbLine
 10
25.5763844609
 20
29.6198564304
 30
0.0
 11
25.5693220242
 21
29.5493752779
 31
0.0
  0
LINE
  5
17F
100
AcDbEntity
  8
LAYER0
 62
         3
100
AcDbLine
 10
25.5693220242
 20
29.5493752779
 30
0.0
 11
25.5635520701
 21
29.4741912156
 31
0.0
  0
LINE
  5
180
100
AcDbEntity
  8
LAYER0
 62
         3
100
AcDbLine
 10
25.5635520701
 20
29.4741912156
 30
0.0
 11
25.5561905935
 21
29.3144534065
 31
0.0
  0
LINE
  5
181
100
AcDbEntity
  8
LAYER0
 62
         3
100
AcDbLine
 10
25.5561905935
 20
29.3144534065
 30
0.0
 11
25.5538213088
 21
29.1598054303
 31
0.0
  0
ENDBLK
  5
182
100
AcDbEntity
  8
0
100
AcDbBlockEnd
  0
BLOCK
  5
186
100
AcDbEntity
  8
0
100
AcDbBlockBegin
  2
CLUMP32
 70
         0
 10
0.0
 20
0.0
 30
0.0
  3

  1

  0
INSERT
  5
188
100
AcDbEntity
  8
0
100
AcDbBlockReference
  2
CLUMP33
 10
0.0
 20
0.0
 30
0.0
  0
ENDBLK
  5
18F
100
AcDbEntity
  8
0
100
AcDbBlockEnd
  0
BLOCK
  5
189
100
AcDbEntity
  8
0
100
AcDbBlockBegin
  2
CLUMP33
 70
         0
 10
0.0
 20
0.0
 30
0.0
  3

  1

  0
LINE
  5
18A
100
AcDbEntity
  8
LAYER0
 62
         3
100
AcDbLine
 10
25.5160450026
 20
32.1275691225
 30
0.0
 11
25.5506464302
 21
31.5398859514
 31
0.0
  0
LINE
  5
18B
100
AcDbEntity
  8
LAYER0
 62
         3
100
AcDbLine
 10
25.5506464302
 20
31.5398859514
 30
0.0
 11
25.5699601504
 21
31.1412861282
 31
0.0
  0
LINE
  5
18C
100
AcDbEntity
  8
LAYER0
 62
         3
100
AcDbLine
 10
25.5699601504
 20
31.1412861282
 30
0.0
 11
25.5868236556
 21
30.7250234021
 31
0.0
  0
LINE
  5
18D
100
AcDbEntity
  8
LAYER0
 62
         3
100
AcDbLine
 10
25.5868236556
 20
30.7250234021
 30
0.0
 11
25.6152066424
 21
29.8669102325
 31
0.0
  0
ENDBLK
  5
18E
100
AcDbEntity
  8
0
100
AcDbBlockEnd
  0
BLOCK
  5
192
100
AcDbEntity
  8
0
100
AcDbBlockBegin
  2
CLUMP34
 70
         0
 10
0.0
 20
0.0
 30
0.0
  3

  1

  0
INSERT
  5
194
100
AcDbEntity
  8
0
100
AcDbBlockReference
  2
CLUMP35
 10
0.0
 20
0.0
 30
0.0
  0
ENDBLK
  5
1A7
100
AcDbEntity
  8
0
100
AcDbBlockEnd
  0
BLOCK
  5
195
100
AcDbEntity
  8
0
100
AcDbBlockBegin
  2
CLUMP35
 70
         0
 10
0.0
 20
0.0
 30
0.0
  3

  1

  0
LINE
  5
196
100
AcDbEntity
  8
LAYER0
 62
         3
100
AcDbLine
 10
25.4626196831
 20
41.1316777302
 30
0.0
 11
25.4621009364
 21
41.127863033
 31
0.0
  0
LINE
  5
197
100
AcDbEntity
  8
LAYER0
 62
         3
100
AcDbLine
 10
25.4621009364
 20
41.127863033
 30
0.0
 11
25.4605910841
 21
41.1165124571
 31
0.0
  0
LINE
  5
198
100
AcDbEntity
  8
LAYER0
 62
         3
100
AcDbLine
 10
25.4605910841
 20
41.1165124571
 30
0.0
 11
25.4582252795
 21
41.0981290602
 31
0.0
  0
LINE
  5
199
100
AcDbEntity
  8
LAYER0
 62
         3
100
AcDbLine
 10
25.4582252795
 20
41.0981290602
 30
0.0
 11
25.4516617417
 21
41.0431760086
 31
0.0
  0
LINE
  5
19A
100
AcDbEntity
  8
LAYER0
 62
         3
100
AcDbLine
 10
25.4516617417
 20
41.0431760086
 30
0.0
 11
25.4463108777
 21
40.9933884685
 31
0.0
  0
LINE
  5
19B
100
AcDbEntity
  8
LAYER0
 62
         3
100
AcDbLine
 10
25.4463108777
 20
40.9933884685
 30
0.0
 11
25.4404355793
 21
40.932370974
 31
0.0
  0
LINE
  5
19C
100
AcDbEntity
  8
LAYER0
 62
         3
100
AcDbLine
 10
25.4404355793
 20
40.932370974
 30
0.0
 11
25.4339744347
 21
40.8563461394
 31
0.0
  0
LINE
  5
19D
100
AcDbEntity
  8
LAYER0
 62
         3
100
AcDbLine
 10
25.4339744347
 20
40.8563461394
 30
0.0
 11
25.4273141756
 21
40.7653773858
 31
0.0
  0
LINE
  5
19E
100
AcDbEntity
  8
LAYER0
 62
         3
100
AcDbLine
 10
25.4273141756
 20
40.7653773858
 30
0.0
 11
25.4232410523
 21
40.7015271775
 31
0.0
  0
LINE
  5
19F
100
AcDbEntity
  8
LAYER0
 62
         3
100
AcDbLine
 10
25.4232410523
 20
40.7015271775
 30
0.0
 11
25.4192548627
 21
40.6315279549
 31
0.0
  0
LINE
  5
1A0
100
AcDbEntity
  8
LAYER0
 62
         3
100
AcDbLine
 10
25.4192548627
 20
40.6315279549
 30
0.0
 11
25.4154033057
 21
40.5552580126
 31
0.0
  0
LINE
  5
1A1
100
AcDbEntity
  8
LAYER0
 62
         3
100
AcDbLine
 10
25.4154033057
 20
40.5552580126
 30
0.0
 11
25.4117340802
 21
40.4725956453
 31
0.0
  0
LINE
  5
1A2
100
AcDbEntity
  8
LAYER0
 62
         3
100
AcDbLine
 10
25.4117340802
 20
40.4725956453
 30
0.0
 11
25.405471279
 21
40.2969641041
 31
0.0
  0
LINE
  5
1A3
100
AcDbEntity
  8
LAYER0
 62
         3
100
AcDbLine
 10
25.405471279
 20
40.2969641041
 30
0.0
 11
25.4008217736
 21
40.100804223
 31
0.0
  0
LINE
  5
1A4
100
AcDbEntity
  8
LAYER0
 62
         3
100
AcDbLine
 10
25.4008217736
 20
40.100804223
 30
0.0
 11
25.3982543488
 21
39.891590513
 31
0.0
  0
LINE
  5
1A5
100
AcDbEntity
  8
LAYER0
 62
         3
100
AcDbLine
 10
25.3982543488
 20
39.891590513
 30
0.0
 11
25.3968440949
 21
39.6740163399
 31
0.0
  0
ENDBLK
  5
1A6
100
AcDbEntity
  8
0
100
AcDbBlockEnd
  0
BLOCK
  5
1AA
100
AcDbEntity
  8
0
100
AcDbBlockBegin
  2
CLUMP36
 70
         0
 10
0.0
 20
0.0
 30
0.0
  3

  1

  0
INSERT
  5
1AC
100
AcDbEntity
  8
0
100
AcDbBlockReference
  2
CLUMP37
 10
0.0
 20
0.0
 30
0.0
  0
ENDBLK
  5
1B8
100
AcDbEntity
  8
0
100
AcDbBlockEnd
  0
BLOCK
  5
1AD
100
AcDbEntity
  8
0
100
AcDbBlockBegin
  2
CLUMP37
 70
         0
 10
0.0
 20
0.0
 30
0.0
  3

  1

  0
LINE
  5
1AE
100
AcDbEntity
  8
LAYER0
 62
         3
100
AcDbLine
 10
24.3038209607
 20
49.4021660431
 30
0.0
 11
24.4013661217
 21
49.4077758301
 31
0.0
  0
LINE
  5
1AF
100
AcDbEntity
  8
LAYER0
 62
         3
100
AcDbLine
 10
24.4013661217
 20
49.4077758301
 30
0.0
 11
24.4951626769
 21
49.42438961
 31
0.0
  0
LINE
  5
1B0
100
AcDbEntity
  8
LAYER0
 62
         3
100
AcDbLine
 10
24.4951626769
 20
49.42438961
 30
0.0
 11
24.5816060772
 21
49.4513689246
 31
0.0
  0
LINE
  5
1B1
100
AcDbEntity
  8
LAYER0
 62
         3
100
AcDbLine
 10
24.5816060772
 20
49.4513689246
 30
0.0
 11
24.6573743513
 21
49.487676974
 31
0.0
  0
LINE
  5
1B2
100
AcDbEntity
  8
LAYER0
 62
         3
100
AcDbLine
 10
24.6573743513
 20
49.487676974
 30
0.0
 11
24.7195557669
 21
49.5319184602
 31
0.0
  0
LINE
  5
1B3
100
AcDbEntity
  8
LAYER0
 62
         3
100
AcDbLine
 10
24.7195557669
 20
49.5319184602
 30
0.0
 11
24.765760727
 21
49.5823932076
 31
0.0
  0
LINE
  5
1B4
100
AcDbEntity
  8
LAYER0
 62
         3
100
AcDbLine
 10
24.765760727
 20
49.5823932076
 30
0.0
 11
24.7942136009
 21
49.6371615002
 31
0.0
  0
LINE
  5
1B5
100
AcDbEntity
  8
LAYER0
 62
         3
100
AcDbLine
 10
24.7942136009
 20
49.6371615002
 30
0.0
 11
24.8038209607
 21
49.694118623
 31
0.0
  0
LINE
  5
1B6
100
AcDbEntity
  8
LAYER0
 62
         3
100
AcDbLine
 10
24.8038209607
 20
49.694118623
 30
0.0
 11
24.3038209607
 21
49.4021660431
 31
0.0
  0
ENDBLK
  5
1B7
100
AcDbEntity
  8
0
100
AcDbBlockEnd
  0
BLOCK
  5
1BB
100
AcDbEntity
  8
0
100
AcDbBlockBegin
  2
CLUMP38
 70
         0
 10
0.0
 20
0.0
 30
0.0
  3

  1

  0
INSERT
  5
1BD
100
AcDbEntity
  8
0
100
AcDbBlockReference
  2
CLUMP39
 10
0.0
 20
0.0
 30
0.0
  0
ENDBLK
  5
1E6
100
AcDbEntity
  8
0
100
AcDbBlockEnd
  0
BLOCK
  5
1BE
100
AcDbEntity
  8
0
100
AcDbBlockBegin
  2
CLUMP39
 70
         0
 10
0.0
 20
0.0
 30
0.0
  3

  1

  0
LINE
  5
1BF
100
AcDbEntity
  8
LAYER0
 62
         3
100
AcDbLine
 10
22.3616119672
 20
25.9982809068
 30
0.0
 11
22.3556009143
 21
26.0077777042
 31
0.0
  0
LINE
  5
1C0
100
AcDbEntity
  8
LAYER0
 62
         3
100
AcDbLine
 10
22.3556009143
 20
26.0077777042
 30
0.0
 11
22.3479659984
 21
26.0161823898
 31
0.0
  0
LINE
  5
1C1
100
AcDbEntity
  8
LAYER0
 62
         3
100
AcDbLine
 10
22.3479659984
 20
26.0161823898
 30
0.0
 11
22.3389889135
 21
26.0231408013
 31
0.0
  0
LINE
  5
1C2
100
AcDbEntity
  8
LAYER0
 62
         3
100
AcDbLine
 10
22.3389889135
 20
26.0231408013
 30
0.0
 11
22.3288711731
 21
26.0284548655
 31
0.0
  0
LINE
  5
1C3
100
AcDbEntity
  8
LAYER0
 62
         3
100
AcDbLine
 10
22.3288711731
 20
26.0284548655
 30
0.0
 11
22.317997834
 21
26.0319250359
 31
0.0
  0
LINE
  5
1C4
100
AcDbEntity
  8
LAYER0
 62
         3
100
AcDbLine
 10
22.317997834
 20
26.0319250359
 30
0.0
 11
22.3109530502
 21
26.0331026864
 31
0.0
  0
LINE
  5
1C5
100
AcDbEntity
  8
LAYER0
 62
         3
100
AcDbLine
 10
22.3109530502
 20
26.0331026864
 30
0.0
 11
22.3038212418
 21
26.0334933831
 31
0.0
  0
LINE
  5
1C6
100
AcDbEntity
  8
LAYER0
 62
         3
100
AcDbLine
 10
22.3038212418
 20
26.0334933831
 30
0.0
 11
22.2924749279
 21
26.0324859688
 31
0.0
  0
LINE
  5
1C7
100
AcDbEntity
  8
LAYER0
 62
         3
100
AcDbLine
 10
22.2924749279
 20
26.0324859688
 30
0.0
 11
22.2814620494
 21
26.0295184983
 31
0.0
  0
LINE
  5
1C8
100
AcDbEntity
  8
LAYER0
 62
         3
100
AcDbLine
 10
22.2814620494
 20
26.0295184983
 30
0.0
 11
22.2712062622
 21
26.0247030726
 31
0.0
  0
LINE
  5
1C9
100
AcDbEntity
  8
LAYER0
 62
         3
100
AcDbLine
 10
22.2712062622
 20
26.0247030726
 30
0.0
 11
22.2619424596
 21
26.0181861652
 31
0.0
  0
LINE
  5
1CA
100
AcDbEntity
  8
LAYER0
 62
         3
100
AcDbLine
 10
22.2619424596
 20
26.0181861652
 30
0.0
 11
22.2540096601
 21
26.0102344483
 31
0.0
  0
LINE
  5
1CB
100
AcDbEntity
  8
LAYER0
 62
         3
100
AcDbLine
 10
22.2540096601
 20
26.0102344483
 30
0.0
 11
22.2475488692
 21
26.0010461046
 31
0.0
  0
LINE
  5
1CC
100
AcDbEntity
  8
LAYER0
 62
         3
100
AcDbLine
 10
22.2475488692
 20
26.0010461046
 30
0.0
 11
22.2427914948
 21
25.9909884018
 31
0.0
  0
LINE
  5
1CD
100
AcDbEntity
  8
LAYER0
 62
         3
100
AcDbLine
 10
22.2427914948
 20
25.9909884018
 30
0.0
 11
22.2397956087
 21
25.9802738859
 31
0.0
  0
LINE
  5
1CE
100
AcDbEntity
  8
LAYER0
 62
         3
100
AcDbLine
 10
22.2397956087
 20
25.9802738859
 30
0.0
 11
22.2386558078
 21
25.9693096291
 31
0.0
  0
LINE
  5
1CF
100
AcDbEntity
  8
LAYER0
 62
         3
100
AcDbLine
 10
22.2386558078
 20
25.9693096291
 30
0.0
 11
22.2393588185
 21
25.9583095743
 31
0.0
  0
LINE
  5
1D0
100
AcDbEntity
  8
LAYER0
 62
         3
100
AcDbLine
 10
22.2393588185
 20
25.9583095743
 30
0.0
 11
22.2418603132
 21
25.9476854412
 31
0.0
  0
LINE
  5
1D1
100
AcDbEntity
  8
LAYER0
 62
         3
100
AcDbLine
 10
22.2418603132
 20
25.9476854412
 30
0.0
 11
22.2460829674
 21
25.937619312
 31
0.0
  0
LINE
  5
1D2
100
AcDbEntity
  8
LAYER0
 62
         3
100
AcDbLine
 10
22.2460829674
 20
25.937619312
 30
0.0
 11
22.2518587713
 21
25.9284740421
 31
0.0
  0
LINE
  5
1D3
100
AcDbEntity
  8
LAYER0
 62
         3
100
AcDbLine
 10
22.2518587713
 20
25.9284740421
 30
0.0
 11
22.2590562909
 21
25.9204084708
 31
0.0
  0
LINE
  5
1D4
100
AcDbEntity
  8
LAYER0
 62
         3
100
AcDbLine
 10
22.2590562909
 20
25.9204084708
 30
0.0
 11
22.267406026
 21
25.9137087888
 31
0.0
  0
LINE
  5
1D5
100
AcDbEntity
  8
LAYER0
 62
         3
100
AcDbLine
 10
22.267406026
 20
25.9137087888
 30
0.0
 11
22.2767458319
 21
25.9084428383
 31
0.0
  0
LINE
  5
1D6
100
AcDbEntity
  8
LAYER0
 62
         3
100
AcDbLine
 10
22.2767458319
 20
25.9084428383
 30
0.0
 11
22.2867551888
 21
25.9047746687
 31
0.0
  0
LINE
  5
1D7
100
AcDbEntity
  8
LAYER0
 62
         3
100
AcDbLine
 10
22.2867551888
 20
25.9047746687
 30
0.0
 11
22.2972014009
 21
25.9028660788
 31
0.0
  0
LINE
  5
1D8
100
AcDbEntity
  8
LAYER0
 62
         3
100
AcDbLine
 10
22.2972014009
 20
25.9028660788
 30
0.0
 11
22.3038212418
 21
25.9025270774
 31
0.0
  0
LINE
  5
1D9
100
AcDbEntity
  8
LAYER0
 62
         3
100
AcDbLine
 10
22.3038212418
 20
25.9025270774
 30
0.0
 11
22.3182818874
 21
25.9041587545
 31
0.0
  0
LINE
  5
1DA
100
AcDbEntity
  8
LAYER0
 62
         3
100
AcDbLine
 10
22.3182818874
 20
25.9041587545
 30
0.0
 11
22.328385712
 21
25.9072894225
 31
0.0
  0
LINE
  5
1DB
100
AcDbEntity
  8
LAYER0
 62
         3
100
AcDbLine
 10
22.328385712
 20
25.9072894225
 30
0.0
 11
22.3378461807
 21
25.9121569528
 31
0.0
  0
LINE
  5
1DC
100
AcDbEntity
  8
LAYER0
 62
         3
100
AcDbLine
 10
22.3378461807
 20
25.9121569528
 30
0.0
 11
22.3464452565
 21
25.9184873754
 31
0.0
  0
LINE
  5
1DD
100
AcDbEntity
  8
LAYER0
 62
         3
100
AcDbLine
 10
22.3464452565
 20
25.9184873754
 30
0.0
 11
22.3539021819
 21
25.9260932638
 31
0.0
  0
LINE
  5
1DE
100
AcDbEntity
  8
LAYER0
 62
         3
100
AcDbLine
 10
22.3539021819
 20
25.9260932638
 30
0.0
 11
22.3600742434
 21
25.9349239538
 31
0.0
  0
LINE
  5
1DF
100
AcDbEntity
  8
LAYER0
 62
         3
100
AcDbLine
 10
22.3600742434
 20
25.9349239538
 30
0.0
 11
22.3647185623
 21
25.9446563853
 31
0.0
  0
LINE
  5
1E0
100
AcDbEntity
  8
LAYER0
 62
         3
100
AcDbLine
 10
22.3647185623
 20
25.9446563853
 30
0.0
 11
22.3677334696
 21
25.9551609441
 31
0.0
  0
LINE
  5
1E1
100
AcDbEntity
  8
LAYER0
 62
         3
100
AcDbLine
 10
22.3677334696
 20
25.9551609441
 30
0.0
 11
22.3689709812
 21
25.9660171999
 31
0.0
  0
LINE
  5
1E2
100
AcDbEntity
  8
LAYER0
 62
         3
100
AcDbLine
 10
22.3689709812
 20
25.9660171999
 30
0.0
 11
22.3683683212
 21
25.9770864016
 31
0.0
  0
LINE
  5
1E3
100
AcDbEntity
  8
LAYER0
 62
         3
100
AcDbLine
 10
22.3683683212
 20
25.9770864016
 30
0.0
 11
22.3659190371
 21
25.9878995551
 31
0.0
  0
LINE
  5
1E4
100
AcDbEntity
  8
LAYER0
 62
         3
100
AcDbLine
 10
22.3659190371
 20
25.9878995551
 30
0.0
 11
22.3616119672
 21
25.9982809068
 31
0.0
  0
ENDBLK
  5
1E5
100
AcDbEntity
  8
0
100
AcDbBlockEnd
  0
BLOCK
  5
272
100
AcDbEntity
  8
0
100
AcDbBlockBegin
  2
CLUMP40
 70
         0
 10
0.0
 20
0.0
 30
0.0
  3

  1

  0
INSERT
  5
274
100
AcDbEntity
  8
0
100
AcDbBlockReference
  2
CLUMP41
 10
0.0
 20
0.0
 30
0.0
  0
ENDBLK
  5
27F
100
AcDbEntity
  8
0
100
AcDbBlockEnd
  0
BLOCK
  5
275
100
AcDbEntity
  8
0
100
AcDbBlockBegin
  2
CLUMP41
 70
         0
 10
0.0
 20
0.0
 30
0.0
  3

  1

  0
LINE
  5
276
100
AcDbEntity
  8
LAYER1
 62
         3
100
AcDbLine
 10
12.9034944832
 20
-14.1709771284
 30
0.0
 11
13.0138953238
 21
-14.19525112
 31
0.0
  0
LINE
  5
277
100
AcDbEntity
  8
LAYER1
 62
         3
100
AcDbLine
 10
13.0138953238
 20
-14.19525112
 30
0.0
 11
13.3590900361
 21
-14.2711492532
 31
0.0
  0
LINE
  5
278
100
AcDbEntity
  8
LAYER1
 62
         3
100
AcDbLine
 10
13.3590900361
 20
-14.2711492532
 30
0.0
 11
13.6896592587
 21
-14.343831064
 31
0.0
  0
LINE
  5
279
100
AcDbEntity
  8
LAYER1
 62
         3
100
AcDbLine
 10
13.6896592587
 20
-14.343831064
 30
0.0
 11
13.9986702263
 21
-14.4117733741
 31
0.0
  0
LINE
  5
27A
100
AcDbEntity
  8
LAYER1
 62
         3
100
AcDbLine
 10
13.9986702263
 20
-14.4117733741
 30
0.0
 11
14.2796483844
 21
-14.4735517257
 31
0.0
  0
LINE
  5
27B
100
AcDbEntity
  8
LAYER1
 62
         3
100
AcDbLine
 10
14.2796483844
 20
-14.4735517257
 30
0.0
 11
14.5267021864
 21
-14.5278715806
 31
0.0
  0
LINE
  5
27C
100
AcDbEntity
  8
LAYER1
 62
         3
100
AcDbLine
 10
14.5267021864
 20
-14.5278715806
 30
0.0
 11
14.7346534788
 21
-14.573593931
 31
0.0
  0
LINE
  5
27D
100
AcDbEntity
  8
LAYER1
 62
         3
100
AcDbLine
 10
14.7346534788
 20
-14.573593931
 30
0.0
 11
14.8991436719
 21
-14.6097599806
 31
0.0
  0
ENDBLK
  5
27E
100
AcDbEntity
  8
0
100
AcDbBlockEnd
  0
BLOCK
  5
282
100
AcDbEntity
  8
0
100
AcDbBlockBegin
  2
CLUMP42
 70
         0
 10
0.0
 20
0.0
 30
0.0
  3

  1

  0
INSERT
  5
284
100
AcDbEntity
  8
0
100
AcDbBlockReference
  2
CLUMP43
 10
0.0
 20
0.0
 30
0.0
  0
ENDBLK
  5
293
100
AcDbEntity
  8
0
100
AcDbBlockEnd
  0
BLOCK
  5
285
100
AcDbEntity
  8
0
100
AcDbBlockBegin
  2
CLUMP43
 70
         0
 10
0.0
 20
0.0
 30
0.0
  3

  1

  0
LINE
  5
286
100
AcDbEntity
  8
LAYER0
 62
         3
100
AcDbLine
 10
14.8045026719
 20
-17.1285148987
 30
0.0
 11
14.7880871475
 21
-17.102975677
 31
0.0
  0
LINE
  5
287
100
AcDbEntity
  8
LAYER0
 62
         3
100
AcDbLine
 10
14.7880871475
 20
-17.102975677
 30
0.0
 11
14.757979384
 21
-17.0561343709
 31
0.0
  0
LINE
  5
288
100
AcDbEntity
  8
LAYER0
 62
         3
100
AcDbLine
 10
14.757979384
 20
-17.0561343709
 30
0.0
 11
14.7265151032
 21
-17.007182791
 31
0.0
  0
LINE
  5
289
100
AcDbEntity
  8
LAYER0
 62
         3
100
AcDbLine
 10
14.7265151032
 20
-17.007182791
 30
0.0
 11
14.6871169119
 21
-16.9458881298
 31
0.0
  0
LINE
  5
28A
100
AcDbEntity
  8
LAYER0
 62
         3
100
AcDbLine
 10
14.6871169119
 20
-16.9458881298
 30
0.0
 11
14.5904474913
 21
-16.7954935038
 31
0.0
  0
LINE
  5
28B
100
AcDbEntity
  8
LAYER0
 62
         3
100
AcDbLine
 10
14.5904474913
 20
-16.7954935038
 30
0.0
 11
14.5011522067
 21
-16.6565704836
 31
0.0
  0
LINE
  5
28C
100
AcDbEntity
  8
LAYER0
 62
         3
100
AcDbLine
 10
14.5011522067
 20
-16.6565704836
 30
0.0
 11
14.4030486255
 21
-16.5039429718
 31
0.0
  0
LINE
  5
28D
100
AcDbEntity
  8
LAYER0
 62
         3
100
AcDbLine
 10
14.4030486255
 20
-16.5039429718
 30
0.0
 11
14.2954697253
 21
-16.3365736734
 31
0.0
  0
LINE
  5
28E
100
AcDbEntity
  8
LAYER0
 62
         3
100
AcDbLine
 10
14.2954697253
 20
-16.3365736734
 30
0.0
 11
14.1821947902
 21
-16.1603431495
 31
0.0
  0
LINE
  5
28F
100
AcDbEntity
  8
LAYER0
 62
         3
100
AcDbLine
 10
14.1821947902
 20
-16.1603431495
 30
0.0
 11
14.0253438196
 21
-15.9163197066
 31
0.0
  0
LINE
  5
290
100
AcDbEntity
  8
LAYER0
 62
         3
100
AcDbLine
 10
14.0253438196
 20
-15.9163197066
 30
0.0
 11
13.8611734866
 21
-15.6609093116
 31
0.0
  0
LINE
  5
291
100
AcDbEntity
  8
LAYER0
 62
         3
100
AcDbLine
 10
13.8611734866
 20
-15.6609093116
 30
0.0
 11
13.5093552082
 21
-15.1135589273
 31
0.0
  0
ENDBLK
  5
292
100
AcDbEntity
  8
0
100
AcDbBlockEnd
  0
BLOCK
  5
296
100
AcDbEntity
  8
0
100
AcDbBlockBegin
  2
CLUMP44
 70
         0
 10
0.0
 20
0.0
 30
0.0
  3

  1

  0
INSERT
  5
298
100
AcDbEntity
  8
0
100
AcDbBlockReference
  2
CLUMP45
 10
0.0
 20
0.0
 30
0.0
  0
ENDBLK
  5
2AC
100
AcDbEntity
  8
0
100
AcDbBlockEnd
  0
BLOCK
  5
299
100
AcDbEntity
  8
0
100
AcDbBlockBegin
  2
CLUMP45
 70
         0
 10
0.0
 20
0.0
 30
0.0
  3

  1

  0
LINE
  5
29A
100
AcDbEntity
  8
LAYER1
 62
         3
100
AcDbLine
 10
10.726758933
 20
-11.4383496854
 30
0.0
 11
10.757691881
 21
-11.4450760463
 31
0.0
  0
LINE
  5
29B
100
AcDbEntity
  8
LAYER1
 62
         3
100
AcDbLine
 10
10.757691881
 20
-11.4450760463
 30
0.0
 11
10.8497028261
 21
-11.4650848133
 31
0.0
  0
LINE
  5
29C
100
AcDbEntity
  8
LAYER1
 62
         3
100
AcDbLine
 10
10.8497028261
 20
-11.4650848133
 30
0.0
 11
11.0004653244
 21
-11.4978692306
 31
0.0
  0
LINE
  5
29D
100
AcDbEntity
  8
LAYER1
 62
         3
100
AcDbLine
 10
11.0004653244
 20
-11.4978692306
 30
0.0
 11
11.2061590909
 21
-11.542599024
 31
0.0
  0
LINE
  5
29E
100
AcDbEntity
  8
LAYER1
 62
         3
100
AcDbLine
 10
11.2061590909
 20
-11.542599024
 30
0.0
 11
11.4615780323
 21
-11.598141589
 31
0.0
  0
LINE
  5
29F
100
AcDbEntity
  8
LAYER1
 62
         3
100
AcDbLine
 10
11.4615780323
 20
-11.598141589
 30
0.0
 11
11.7602513193
 21
-11.6630903955
 31
0.0
  0
LINE
  5
2A0
100
AcDbEntity
  8
LAYER1
 62
         3
100
AcDbLine
 10
11.7602513193
 20
-11.6630903955
 30
0.0
 11
12.0946166127
 21
-11.7358006116
 31
0.0
  0
LINE
  5
2A1
100
AcDbEntity
  8
LAYER1
 62
         3
100
AcDbLine
 10
12.0946166127
 20
-11.7358006116
 30
0.0
 11
12.456204465
 21
-11.814430896
 31
0.0
  0
LINE
  5
2A2
100
AcDbEntity
  8
LAYER1
 62
         3
100
AcDbLine
 10
12.456204465
 20
-11.814430896
 30
0.0
 11
12.8358618378
 21
-11.8969900811
 31
0.0
  0
LINE
  5
2A3
100
AcDbEntity
  8
LAYER1
 62
         3
100
AcDbLine
 10
12.8358618378
 20
-11.8969900811
 30
0.0
 11
13.2239718943
 21
-11.9813875805
 31
0.0
  0
LINE
  5
2A4
100
AcDbEntity
  8
LAYER1
 62
         3
100
AcDbLine
 10
13.2239718943
 20
-11.9813875805
 30
0.0
 11
13.6107054561
 21
-12.065486009
 31
0.0
  0
LINE
  5
2A5
100
AcDbEntity
  8
LAYER1
 62
         3
100
AcDbLine
 10
13.6107054561
 20
-12.065486009
 30
0.0
 11
13.9862724601
 21
-12.1471556646
 31
0.0
  0
LINE
  5
2A6
100
AcDbEntity
  8
LAYER1
 62
         3
100
AcDbLine
 10
13.9862724601
 20
-12.1471556646
 30
0.0
 11
14.3411585151
 21
-12.2243283128
 31
0.0
  0
LINE
  5
2A7
100
AcDbEntity
  8
LAYER1
 62
         3
100
AcDbLine
 10
14.3411585151
 20
-12.2243283128
 30
0.0
 11
14.6663782208
 21
-12.2950499223
 31
0.0
  0
LINE
  5
2A8
100
AcDbEntity
  8
LAYER1
 62
         3
100
AcDbLine
 10
14.6663782208
 20
-12.2950499223
 30
0.0
 11
14.9536949604
 21
-12.357529327
 31
0.0
  0
LINE
  5
2A9
100
AcDbEntity
  8
LAYER1
 62
         3
100
AcDbLine
 10
14.9536949604
 20
-12.357529327
 30
0.0
 11
15.1958351045
 21
-12.4101842099
 31
0.0
  0
LINE
  5
2AA
100
AcDbEntity
  8
LAYER1
 62
         3
100
AcDbLine
 10
15.1958351045
 20
-12.4101842099
 30
0.0
 11
15.3866631001
 21
-12.4516813827
 31
0.0
  0
ENDBLK
  5
2AB
100
AcDbEntity
  8
0
100
AcDbBlockEnd
  0
BLOCK
  5
2AF
100
AcDbEntity
  8
0
100
AcDbBlockBegin
  2
CLUMP46
 70
         0
 10
0.0
 20
0.0
 30
0.0
  3

  1

  0
INSERT
  5
2B1
100
AcDbEntity
  8
0
100
AcDbBlockReference
  2
CLUMP47
 10
0.0
 20
0.0
 30
0.0
  0
ENDBLK
  5
2BC
100
AcDbEntity
  8
0
100
AcDbBlockEnd
  0
BLOCK
  5
2B2
100
AcDbEntity
  8
0
100
AcDbBlockBegin
  2
CLUMP47
 70
         0
 10
0.0
 20
0.0
 30
0.0
  3

  1

  0
LINE
  5
2B3
100
AcDbEntity
  8
LAYER1
 62
         3
100
AcDbLine
 10
14.9616801202
 20
-14.4060070904
 30
0.0
 11
14.793935886
 21
-14.3695299791
 31
0.0
  0
LINE
  5
2B4
100
AcDbEntity
  8
LAYER1
 62
         3
100
AcDbLine
 10
14.793935886
 20
-14.3695299791
 30
0.0
 11
14.5848409294
 21
-14.3240609483
 31
0.0
  0
LINE
  5
2B5
100
AcDbEntity
  8
LAYER1
 62
         3
100
AcDbLine
 10
14.5848409294
 20
-14.3240609483
 30
0.0
 11
14.3386160045
 21
-14.2705173509
 31
0.0
  0
LINE
  5
2B6
100
AcDbEntity
  8
LAYER1
 62
         3
100
AcDbLine
 10
14.3386160045
 20
-14.2705173509
 30
0.0
 11
14.0602287858
 21
-14.2099799865
 31
0.0
  0
LINE
  5
2B7
100
AcDbEntity
  8
LAYER1
 62
         3
100
AcDbLine
 10
14.0602287858
 20
-14.2099799865
 30
0.0
 11
13.7552970111
 21
-14.1436698192
 31
0.0
  0
LINE
  5
2B8
100
AcDbEntity
  8
LAYER1
 62
         3
100
AcDbLine
 10
13.7552970111
 20
-14.1436698192
 30
0.0
 11
13.4299729972
 21
-14.0729256251
 31
0.0
  0
LINE
  5
2B9
100
AcDbEntity
  8
LAYER1
 62
         3
100
AcDbLine
 10
13.4299729972
 20
-14.0729256251
 30
0.0
 11
13.0908207058
 21
-13.9991744233
 31
0.0
  0
LINE
  5
2BA
100
AcDbEntity
  8
LAYER1
 62
         3
100
AcDbLine
 10
13.0908207058
 20
-13.9991744233
 30
0.0
 11
12.7446834951
 21
-13.9239044671
 31
0.0
  0
ENDBLK
  5
2BB
100
AcDbEntity
  8
0
100
AcDbBlockEnd
  0
BLOCK
  5
2BF
100
AcDbEntity
  8
0
100
AcDbBlockBegin
  2
CLUMP48
 70
         0
 10
0.0
 20
0.0
 30
0.0
  3

  1

  0
INSERT
  5
2C1
100
AcDbEntity
  8
0
100
AcDbBlockReference
  2
CLUMP49
 10
0.0
 20
0.0
 30
0.0
  0
ENDBLK
  5
2C7
100
AcDbEntity
  8
0
100
AcDbBlockEnd
  0
BLOCK
  5
2C2
100
AcDbEntity
  8
0
100
AcDbBlockBegin
  2
CLUMP49
 70
         0
 10
0.0
 20
0.0
 30
0.0
  3

  1

  0
LINE
  5
2C3
100
AcDbEntity
  8
LAYER1
 62
         3
100
AcDbLine
 10
12.7446834951
 20
-13.9239044671
 30
0.0
 11
13.0060908406
 21
-14.3305951075
 31
0.0
  0
LINE
  5
2C4
100
AcDbEntity
  8
LAYER1
 62
         3
100
AcDbLine
 10
13.0060908406
 20
-14.3305951075
 30
0.0
 11
13.2625882535
 21
-14.7296454103
 31
0.0
  0
LINE
  5
2C5
100
AcDbEntity
  8
LAYER1
 62
         3
100
AcDbLine
 10
13.2625882535
 20
-14.7296454103
 30
0.0
 11
13.5093552082
 21
-15.1135589273
 31
0.0
  0
ENDBLK
  5
2C6
100
AcDbEntity
  8
0
100
AcDbBlockEnd
  0
BLOCK
  5
2D7
100
AcDbEntity
  8
0
100
AcDbBlockBegin
  2
CLUMP50
 70
         0
 10
0.0
 20
0.0
 30
0.0
  3

  1

  0
INSERT
  5
2D9
100
AcDbEntity
  8
0
100
AcDbBlockReference
  2
CLUMP51
 10
0.0
 20
0.0
 30
0.0
  0
ENDBLK
  5
2E4
100
AcDbEntity
  8
0
100
AcDbBlockEnd
  0
BLOCK
  5
2DA
100
AcDbEntity
  8
0
100
AcDbBlockBegin
  2
CLUMP51
 70
         0
 10
0.0
 20
0.0
 30
0.0
  3

  1

  0
LINE
  5
2DB
100
AcDbEntity
  8
LAYER1
 62
         3
100
AcDbLine
 10
-32.3448240996
 20
30.2204626335
 30
0.0
 11
-32.2972102329
 21
30.1641697718
 31
0.0
  0
LINE
  5
2DC
100
AcDbEntity
  8
LAYER1
 62
         3
100
AcDbLine
 10
-32.2972102329
 20
30.1641697718
 30
0.0
 11
-32.2506375849
 21
30.1091062559
 31
0.0
  0
LINE
  5
2DD
100
AcDbEntity
  8
LAYER1
 62
         3
100
AcDbLine
 10
-32.2506375849
 20
30.1091062559
 30
0.0
 11
-32.2061240912
 21
30.0564790799
 31
0.0
  0
LINE
  5
2DE
100
AcDbEntity
  8
LAYER1
 62
         3
100
AcDbLine
 10
-32.2061240912
 20
30.0564790799
 30
0.0
 11
-32.1646429837
 21
30.0074356331
 31
0.0
  0
LINE
  5
2DF
100
AcDbEntity
  8
LAYER1
 62
         3
100
AcDbLine
 10
-32.1646429837
 20
30.0074356331
 30
0.0
 11
-32.1271013707
 21
29.9630487992
 31
0.0
  0
LINE
  5
2E0
100
AcDbEntity
  8
LAYER1
 62
         3
100
AcDbLine
 10
-32.1271013707
 20
29.9630487992
 30
0.0
 11
-32.0943197474
 21
29.9242946042
 31
0.0
  0
LINE
  5
2E1
100
AcDbEntity
  8
LAYER1
 62
         3
100
AcDbLine
 10
-32.0943197474
 20
29.9242946042
 30
0.0
 11
-32.0670152322
 21
29.8920112385
 31
0.0
  0
LINE
  5
2E2
100
AcDbEntity
  8
LAYER1
 62
         3
100
AcDbLine
 10
-32.0670152322
 20
29.8920112385
 30
0.0
 11
-32.0457848027
 21
29.8669102325
 31
0.0
  0
ENDBLK
  5
2E3
100
AcDbEntity
  8
0
100
AcDbBlockEnd
  0
BLOCK
  5
2E7
100
AcDbEntity
  8
0
100
AcDbBlockBegin
  2
CLUMP52
 70
         0
 10
0.0
 20
0.0
 30
0.0
  3

  1

  0
INSERT
  5
2E9
100
AcDbEntity
  8
0
100
AcDbBlockReference
  2
CLUMP53
 10
0.0
 20
0.0
 30
0.0
  0
ENDBLK
  5
2F5
100
AcDbEntity
  8
0
100
AcDbBlockEnd
  0
BLOCK
  5
2EA
100
AcDbEntity
  8
0
100
AcDbBlockBegin
  2
CLUMP53
 70
         0
 10
0.0
 20
0.0
 30
0.0
  3

  1

  0
LINE
  5
2EB
100
AcDbEntity
  8
LAYER0
 62
         3
100
AcDbLine
 10
-32.8579246305
 20
29.1598054303
 30
0.0
 11
-32.85044766
 21
29.2760543994
 31
0.0
  0
LINE
  5
2EC
100
AcDbEntity
  8
LAYER0
 62
         3
100
AcDbLine
 10
-32.85044766
 20
29.2760543994
 30
0.0
 11
-32.837077906
 21
29.3917755319
 31
0.0
  0
LINE
  5
2ED
100
AcDbEntity
  8
LAYER0
 62
         3
100
AcDbLine
 10
-32.837077906
 20
29.3917755319
 30
0.0
 11
-32.8114335317
 21
29.5122048462
 31
0.0
  0
LINE
  5
2EE
100
AcDbEntity
  8
LAYER0
 62
         3
100
AcDbLine
 10
-32.8114335317
 20
29.5122048462
 30
0.0
 11
-32.7734148787
 21
29.6298060099
 31
0.0
  0
LINE
  5
2EF
100
AcDbEntity
  8
LAYER0
 62
         3
100
AcDbLine
 10
-32.7734148787
 20
29.6298060099
 30
0.0
 11
-32.7236938805
 21
29.7429194656
 31
0.0
  0
LINE
  5
2F0
100
AcDbEntity
  8
LAYER0
 62
         3
100
AcDbLine
 10
-32.7236938805
 20
29.7429194656
 30
0.0
 11
-32.6629424706
 21
29.8498856558
 31
0.0
  0
LINE
  5
2F1
100
AcDbEntity
  8
LAYER0
 62
         3
100
AcDbLine
 10
-32.6629424706
 20
29.8498856558
 30
0.0
 11
-32.5924138506
 21
29.9493136187
 31
0.0
  0
LINE
  5
2F2
100
AcDbEntity
  8
LAYER0
 62
         3
100
AcDbLine
 10
-32.5924138506
 20
29.9493136187
 30
0.0
 11
-32.5141701111
 21
30.0429269658
 31
0.0
  0
LINE
  5
2F3
100
AcDbEntity
  8
LAYER0
 62
         3
100
AcDbLine
 10
-32.5141701111
 20
30.0429269658
 30
0.0
 11
-32.3448240996
 21
30.2204626335
 31
0.0
  0
ENDBLK
  5
2F4
100
AcDbEntity
  8
0
100
AcDbBlockEnd
  0
BLOCK
  5
2F8
100
AcDbEntity
  8
0
100
AcDbBlockBegin
  2
CLUMP54
 70
         0
 10
0.0
 20
0.0
 30
0.0
  3

  1

  0
INSERT
  5
2FA
100
AcDbEntity
  8
0
100
AcDbBlockReference
  2
CLUMP55
 10
0.0
 20
0.0
 30
0.0
  0
ENDBLK
  5
306
100
AcDbEntity
  8
0
100
AcDbBlockEnd
  0
BLOCK
  5
2FB
100
AcDbEntity
  8
0
100
AcDbBlockBegin
  2
CLUMP55
 70
         0
 10
0.0
 20
0.0
 30
0.0
  3

  1

  0
LINE
  5
2FC
100
AcDbEntity
  8
LAYER0
 62
         3
100
AcDbLine
 10
-21.2466692791
 20
30.2204626335
 30
0.0
 11
-21.135427219
 21
30.112322087
 31
0.0
  0
LINE
  5
2FD
100
AcDbEntity
  8
LAYER0
 62
         3
100
AcDbLine
 10
-21.135427219
 20
30.112322087
 30
0.0
 11
-21.0308543645
 21
29.9976641966
 31
0.0
  0
LINE
  5
2FE
100
AcDbEntity
  8
LAYER0
 62
         3
100
AcDbLine
 10
-21.0308543645
 20
29.9976641966
 30
0.0
 11
-20.9626616417
 21
29.907192483
 31
0.0
  0
LINE
  5
2FF
100
AcDbEntity
  8
LAYER0
 62
         3
100
AcDbLine
 10
-20.9626616417
 20
29.907192483
 30
0.0
 11
-20.9026204047
 21
29.8108185045
 31
0.0
  0
LINE
  5
300
100
AcDbEntity
  8
LAYER0
 62
         3
100
AcDbLine
 10
-20.9026204047
 20
29.8108185045
 30
0.0
 11
-20.8518497462
 21
29.7095122576
 31
0.0
  0
LINE
  5
301
100
AcDbEntity
  8
LAYER0
 62
         3
100
AcDbLine
 10
-20.8518497462
 20
29.7095122576
 30
0.0
 11
-20.8114687592
 21
29.6042437388
 31
0.0
  0
LINE
  5
302
100
AcDbEntity
  8
LAYER0
 62
         3
100
AcDbLine
 10
-20.8114687592
 20
29.6042437388
 30
0.0
 11
-20.7818896356
 21
29.4957612303
 31
0.0
  0
LINE
  5
303
100
AcDbEntity
  8
LAYER0
 62
         3
100
AcDbLine
 10
-20.7818896356
 20
29.4957612303
 30
0.0
 11
-20.760971187
 21
29.3850269487
 31
0.0
  0
LINE
  5
304
100
AcDbEntity
  8
LAYER0
 62
         3
100
AcDbLine
 10
-20.760971187
 20
29.3850269487
 30
0.0
 11
-20.7335687481
 21
29.1598054303
 31
0.0
  0
ENDBLK
  5
305
100
AcDbEntity
  8
0
100
AcDbBlockEnd
  0
BLOCK
  5
309
100
AcDbEntity
  8
0
100
AcDbBlockBegin
  2
CLUMP56
 70
         0
 10
0.0
 20
0.0
 30
0.0
  3

  1

  0
INSERT
  5
30B
100
AcDbEntity
  8
0
100
AcDbBlockReference
  2
CLUMP57
 10
0.0
 20
0.0
 30
0.0
  0
ENDBLK
  5
320
100
AcDbEntity
  8
0
100
AcDbBlockEnd
  0
BLOCK
  5
30C
100
AcDbEntity
  8
0
100
AcDbBlockBegin
  2
CLUMP57
 70
         0
 10
0.0
 20
0.0
 30
0.0
  3

  1

  0
LINE
  5
30D
100
AcDbEntity
  8
LAYER0
 62
         3
100
AcDbLine
 10
-17.0319424249
 20
46.033492936
 30
0.0
 11
-17.0319442876
 21
46.0326510204
 31
0.0
  0
LINE
  5
30E
100
AcDbEntity
  8
LAYER0
 62
         3
100
AcDbLine
 10
-17.0319442876
 20
46.0326510204
 30
0.0
 11
-17.031948358
 21
46.0300215899
 31
0.0
  0
LINE
  5
30F
100
AcDbEntity
  8
LAYER0
 62
         3
100
AcDbLine
 10
-17.031948358
 20
46.0300215899
 30
0.0
 11
-17.0319563948
 21
46.0255729689
 31
0.0
  0
LINE
  5
310
100
AcDbEntity
  8
LAYER0
 62
         3
100
AcDbLine
 10
-17.0319563948
 20
46.0255729689
 30
0.0
 11
-17.0319573261
 21
46.0251147582
 31
0.0
  0
LINE
  5
311
100
AcDbEntity
  8
LAYER0
 62
         3
100
AcDbLine
 10
-17.0319573261
 20
46.0251147582
 30
0.0
 11
-17.0319686757
 21
46.0186924941
 31
0.0
  0
LINE
  5
312
100
AcDbEntity
  8
LAYER0
 62
         3
100
AcDbLine
 10
-17.0319686757
 20
46.0186924941
 30
0.0
 11
-17.0319815405
 21
46.0107239617
 31
0.0
  0
LINE
  5
313
100
AcDbEntity
  8
LAYER0
 62
         3
100
AcDbLine
 10
-17.0319815405
 20
46.0107239617
 30
0.0
 11
-17.0319971694
 21
46.001569234
 31
0.0
  0
LINE
  5
314
100
AcDbEntity
  8
LAYER0
 62
         3
100
AcDbLine
 10
-17.0319971694
 20
46.001569234
 30
0.0
 11
-17.0320150681
 21
45.9914344086
 31
0.0
  0
LINE
  5
315
100
AcDbEntity
  8
LAYER0
 62
         3
100
AcDbLine
 10
-17.0320150681
 20
45.9914344086
 30
0.0
 11
-17.0320532523
 21
45.9697085156
 31
0.0
  0
LINE
  5
316
100
AcDbEntity
  8
LAYER0
 62
         3
100
AcDbLine
 10
-17.0320532523
 20
45.9697085156
 30
0.0
 11
-17.0320905052
 21
45.9480943812
 31
0.0
  0
LINE
  5
317
100
AcDbEntity
  8
LAYER0
 62
         3
100
AcDbLine
 10
-17.0320905052
 20
45.9480943812
 30
0.0
 11
-17.032107912
 21
45.9380972709
 31
0.0
  0
LINE
  5
318
100
AcDbEntity
  8
LAYER0
 62
         3
100
AcDbLine
 10
-17.032107912
 20
45.9380972709
 30
0.0
 11
-17.0321240328
 21
45.9289203121
 31
0.0
  0
LINE
  5
319
100
AcDbEntity
  8
LAYER0
 62
         3
100
AcDbLine
 10
-17.0321240328
 20
45.9289203121
 30
0.0
 11
-17.032138151
 21
45.9209063159
 31
0.0
  0
LINE
  5
31A
100
AcDbEntity
  8
LAYER0
 62
         3
100
AcDbLine
 10
-17.032138151
 20
45.9209063159
 30
0.0
 11
-17.0321501099
 21
45.9141011073
 31
0.0
  0
LINE
  5
31B
100
AcDbEntity
  8
LAYER0
 62
         3
100
AcDbLine
 10
-17.0321501099
 20
45.9141011073
 30
0.0
 11
-17.0321595167
 21
45.9087107853
 31
0.0
  0
LINE
  5
31C
100
AcDbEntity
  8
LAYER0
 62
         3
100
AcDbLine
 10
-17.0321595167
 20
45.9087107853
 30
0.0
 11
-17.0321659424
 21
45.9050412013
 31
0.0
  0
LINE
  5
31D
100
AcDbEntity
  8
LAYER0
 62
         3
100
AcDbLine
 10
-17.0321659424
 20
45.9050412013
 30
0.0
 11
-17.0321689111
 21
45.9034059864
 31
0.0
  0
LINE
  5
31E
100
AcDbEntity
  8
LAYER0
 62
         3
100
AcDbLine
 10
-17.0321689111
 20
45.9034059864
 30
0.0
 11
-17.032170599
 21
45.9025378062
 31
0.0
  0
ENDBLK
  5
31F
100
AcDbEntity
  8
0
100
AcDbBlockEnd
  0
BLOCK
  5
323
100
AcDbEntity
  8
0
100
AcDbBlockBegin
  2
CLUMP58
 70
         0
 10
0.0
 20
0.0
 30
0.0
  3

  1

  0
INSERT
  5
325
100
AcDbEntity
  8
0
100
AcDbBlockReference
  2
CLUMP59
 10
0.0
 20
0.0
 30
0.0
  0
ENDBLK
  5
33B
100
AcDbEntity
  8
0
100
AcDbBlockEnd
  0
BLOCK
  5
326
100
AcDbEntity
  8
0
100
AcDbBlockBegin
  2
CLUMP59
 70
         0
 10
0.0
 20
0.0
 30
0.0
  3

  1

  0
LINE
  5
327
100
AcDbEntity
  8
LAYER0
 62
         3
100
AcDbLine
 10
-16.6535116039
 20
26.0334747566
 30
0.0
 11
-16.6535137962
 21
26.0321042021
 31
0.0
  0
LINE
  5
328
100
AcDbEntity
  8
LAYER0
 62
         3
100
AcDbLine
 10
-16.6535137962
 20
26.0321042021
 30
0.0
 11
-16.6535181232
 21
26.0295184983
 31
0.0
  0
LINE
  5
329
100
AcDbEntity
  8
LAYER0
 62
         3
100
AcDbLine
 10
-16.6535181232
 20
26.0295184983
 30
0.0
 11
-16.6535216852
 21
26.0274303577
 31
0.0
  0
LINE
  5
32A
100
AcDbEntity
  8
LAYER0
 62
         3
100
AcDbLine
 10
-16.6535216852
 20
26.0274303577
 30
0.0
 11
-16.6535262038
 21
26.0248020001
 31
0.0
  0
LINE
  5
32B
100
AcDbEntity
  8
LAYER0
 62
         3
100
AcDbLine
 10
-16.6535262038
 20
26.0248020001
 30
0.0
 11
-16.653537681
 21
26.0181861652
 31
0.0
  0
LINE
  5
32C
100
AcDbEntity
  8
LAYER0
 62
         3
100
AcDbLine
 10
-16.653537681
 20
26.0181861652
 30
0.0
 11
-16.6535516162
 21
26.0102082762
 31
0.0
  0
LINE
  5
32D
100
AcDbEntity
  8
LAYER0
 62
         3
100
AcDbLine
 10
-16.6535516162
 20
26.0102082762
 30
0.0
 11
-16.6535674833
 21
26.0010461046
 31
0.0
  0
LINE
  5
32E
100
AcDbEntity
  8
LAYER0
 62
         3
100
AcDbLine
 10
-16.6535674833
 20
26.0010461046
 30
0.0
 11
-16.6535846094
 21
25.9909953162
 31
0.0
  0
LINE
  5
32F
100
AcDbEntity
  8
LAYER0
 62
         3
100
AcDbLine
 10
-16.6535846094
 20
25.9909953162
 30
0.0
 11
-16.6536028735
 21
25.9802738859
 31
0.0
  0
LINE
  5
330
100
AcDbEntity
  8
LAYER0
 62
         3
100
AcDbLine
 10
-16.6536028735
 20
25.9802738859
 30
0.0
 11
-16.6536410578
 21
25.9583095743
 31
0.0
  0
LINE
  5
331
100
AcDbEntity
  8
LAYER0
 62
         3
100
AcDbLine
 10
-16.6536410578
 20
25.9583095743
 30
0.0
 11
-16.6536597573
 21
25.9476859237
 31
0.0
  0
LINE
  5
332
100
AcDbEntity
  8
LAYER0
 62
         3
100
AcDbLine
 10
-16.6536597573
 20
25.9476859237
 30
0.0
 11
-16.6536773794
 21
25.937619312
 31
0.0
  0
LINE
  5
333
100
AcDbEntity
  8
LAYER0
 62
         3
100
AcDbLine
 10
-16.6536773794
 20
25.937619312
 30
0.0
 11
-16.6536931639
 21
25.9284739147
 31
0.0
  0
LINE
  5
334
100
AcDbEntity
  8
LAYER0
 62
         3
100
AcDbLine
 10
-16.6536931639
 20
25.9284739147
 30
0.0
 11
-16.6537071817
 21
25.9204084708
 31
0.0
  0
LINE
  5
335
100
AcDbEntity
  8
LAYER0
 62
         3
100
AcDbLine
 10
-16.6537071817
 20
25.9204084708
 30
0.0
 11
-16.6537191996
 21
25.9137088222
 31
0.0
  0
LINE
  5
336
100
AcDbEntity
  8
LAYER0
 62
         3
100
AcDbLine
 10
-16.6537191996
 20
25.9137088222
 30
0.0
 11
-16.6537286021
 21
25.9084428383
 31
0.0
  0
LINE
  5
337
100
AcDbEntity
  8
LAYER0
 62
         3
100
AcDbLine
 10
-16.6537286021
 20
25.9084428383
 30
0.0
 11
-16.6537347007
 21
25.9047746609
 31
0.0
  0
LINE
  5
338
100
AcDbEntity
  8
LAYER0
 62
         3
100
AcDbLine
 10
-16.6537347007
 20
25.9047746609
 30
0.0
 11
-16.6537379153
 21
25.9028660788
 31
0.0
  0
LINE
  5
339
100
AcDbEntity
  8
LAYER0
 62
         3
100
AcDbLine
 10
-16.6537379153
 20
25.9028660788
 30
0.0
 11
-16.6537388466
 21
25.9025270774
 31
0.0
  0
ENDBLK
  5
33A
100
AcDbEntity
  8
0
100
AcDbBlockEnd
  0
BLOCK
  5
33E
100
AcDbEntity
  8
0
100
AcDbBlockBegin
  2
CLUMP60
 70
         0
 10
0.0
 20
0.0
 30
0.0
  3

  1

  0
INSERT
  5
340
100
AcDbEntity
  8
0
100
AcDbBlockReference
  2
CLUMP61
 10
0.0
 20
0.0
 30
0.0
  0
ENDBLK
  5
34B
100
AcDbEntity
  8
0
100
AcDbBlockEnd
  0
BLOCK
  5
341
100
AcDbEntity
  8
0
100
AcDbBlockBegin
  2
CLUMP61
 70
         0
 10
0.0
 20
0.0
 30
0.0
  3

  1

  0
LINE
  5
342
100
AcDbEntity
  8
LAYER1
 62
         3
100
AcDbLine
 10
-24.5031373814
 20
32.1275691225
 30
0.0
 11
-24.4844073203
 21
32.15981151
 31
0.0
  0
LINE
  5
343
100
AcDbEntity
  8
LAYER1
 62
         3
100
AcDbLine
 10
-24.4844073203
 20
32.15981151
 30
0.0
 11
-24.4630064588
 21
32.1966509058
 31
0.0
  0
LINE
  5
344
100
AcDbEntity
  8
LAYER1
 62
         3
100
AcDbLine
 10
-24.4630064588
 20
32.1966509058
 30
0.0
 11
-24.4392412022
 21
32.2375583185
 31
0.0
  0
LINE
  5
345
100
AcDbEntity
  8
LAYER1
 62
         3
100
AcDbLine
 10
-24.4392412022
 20
32.2375583185
 30
0.0
 11
-24.4134512503
 21
32.281952603
 31
0.0
  0
LINE
  5
346
100
AcDbEntity
  8
LAYER1
 62
         3
100
AcDbLine
 10
-24.4134512503
 20
32.281952603
 30
0.0
 11
-24.3860058725
 21
32.3291967346
 31
0.0
  0
LINE
  5
347
100
AcDbEntity
  8
LAYER1
 62
         3
100
AcDbLine
 10
-24.3860058725
 20
32.3291967346
 30
0.0
 11
-24.3572973885
 21
32.3786164357
 31
0.0
  0
LINE
  5
348
100
AcDbEntity
  8
LAYER1
 62
         3
100
AcDbLine
 10
-24.3572973885
 20
32.3786164357
 30
0.0
 11
-24.3277369771
 21
32.4295001759
 31
0.0
  0
LINE
  5
349
100
AcDbEntity
  8
LAYER1
 62
         3
100
AcDbLine
 10
-24.3277369771
 20
32.4295001759
 30
0.0
 11
-24.2977474589
 21
32.4811252488
 31
0.0
  0
ENDBLK
  5
34A
100
AcDbEntity
  8
0
100
AcDbBlockEnd
  0
BLOCK
  5
34E
100
AcDbEntity
  8
0
100
AcDbBlockBegin
  2
CLUMP62
 70
         0
 10
0.0
 20
0.0
 30
0.0
  3

  1

  0
INSERT
  5
350
100
AcDbEntity
  8
0
100
AcDbBlockReference
  2
CLUMP63
 10
0.0
 20
0.0
 30
0.0
  0
ENDBLK
  5
357
100
AcDbEntity
  8
0
100
AcDbBlockEnd
  0
BLOCK
  5
351
100
AcDbEntity
  8
0
100
AcDbBlockBegin
  2
CLUMP63
 70
         0
 10
0.0
 20
0.0
 30
0.0
  3

  1

  0
LINE
  5
352
100
AcDbEntity
  8
LAYER0
 62
         3
100
AcDbLine
 10
-24.2977474589
 20
32.4811252488
 30
0.0
 11
-23.3840808977
 21
31.8934383525
 31
0.0
  0
LINE
  5
353
100
AcDbEntity
  8
LAYER0
 62
         3
100
AcDbLine
 10
-23.3840808977
 20
31.8934383525
 30
0.0
 11
-22.8337314
 21
31.4977292069
 31
0.0
  0
LINE
  5
354
100
AcDbEntity
  8
LAYER0
 62
         3
100
AcDbLine
 10
-22.8337314
 20
31.4977292069
 30
0.0
 11
-22.2979182616
 21
31.0819620921
 31
0.0
  0
LINE
  5
355
100
AcDbEntity
  8
LAYER0
 62
         3
100
AcDbLine
 10
-22.2979182616
 20
31.0819620921
 30
0.0
 11
-21.2466692791
 21
30.2204626335
 31
0.0
  0
ENDBLK
  5
356
100
AcDbEntity
  8
0
100
AcDbBlockEnd
  0
BLOCK
  5
35A
100
AcDbEntity
  8
0
100
AcDbBlockBegin
  2
CLUMP64
 70
         0
 10
0.0
 20
0.0
 30
0.0
  3

  1

  0
INSERT
  5
35C
100
AcDbEntity
  8
0
100
AcDbBlockReference
  2
CLUMP65
 10
0.0
 20
0.0
 30
0.0
  0
ENDBLK
  5
371
100
AcDbEntity
  8
0
100
AcDbBlockEnd
  0
BLOCK
  5
35D
100
AcDbEntity
  8
0
100
AcDbBlockBegin
  2
CLUMP65
 70
         0
 10
0.0
 20
0.0
 30
0.0
  3

  1

  0
LINE
  5
35E
100
AcDbEntity
  8
LAYER0
 62
         3
100
AcDbLine
 10
-29.0870344505
 20
3.1887578501
 30
0.0
 11
-29.0948101268
 21
3.3412268974
 31
0.0
  0
LINE
  5
35F
100
AcDbEntity
  8
LAYER0
 62
         3
100
AcDbLine
 10
-29.0948101268
 20
3.3412268974
 30
0.0
 11
-29.1006003695
 21
3.4150749692
 31
0.0
  0
LINE
  5
360
100
AcDbEntity
  8
LAYER0
 62
         3
100
AcDbLine
 10
-29.1006003695
 20
3.4150749692
 30
0.0
 11
-29.1086734977
 21
3.486059299
 31
0.0
  0
LINE
  5
361
100
AcDbEntity
  8
LAYER0
 62
         3
100
AcDbLine
 10
-29.1086734977
 20
3.486059299
 30
0.0
 11
-29.1195190729
 21
3.5531877604
 31
0.0
  0
LINE
  5
362
100
AcDbEntity
  8
LAYER0
 62
         3
100
AcDbLine
 10
-29.1195190729
 20
3.5531877604
 30
0.0
 11
-29.132681715
 21
3.6161340902
 31
0.0
  0
LINE
  5
363
100
AcDbEntity
  8
LAYER0
 62
         3
100
AcDbLine
 10
-29.132681715
 20
3.6161340902
 30
0.0
 11
-29.1474470459
 21
3.6745189213
 31
0.0
  0
LINE
  5
364
100
AcDbEntity
  8
LAYER0
 62
         3
100
AcDbLine
 10
-29.1474470459
 20
3.6745189213
 30
0.0
 11
-29.1631006874
 21
3.7279628871
 31
0.0
  0
LINE
  5
365
100
AcDbEntity
  8
LAYER0
 62
         3
100
AcDbLine
 10
-29.1631006874
 20
3.7279628871
 30
0.0
 11
-29.179868825
 21
3.7785922562
 31
0.0
  0
LINE
  5
366
100
AcDbEntity
  8
LAYER0
 62
         3
100
AcDbLine
 10
-29.179868825
 20
3.7785922562
 30
0.0
 11
-29.1967707125
 21
3.8238745465
 31
0.0
  0
LINE
  5
367
100
AcDbEntity
  8
LAYER0
 62
         3
100
AcDbLine
 10
-29.1967707125
 20
3.8238745465
 30
0.0
 11
-29.2137476697
 21
3.8643487164
 31
0.0
  0
LINE
  5
368
100
AcDbEntity
  8
LAYER0
 62
         3
100
AcDbLine
 10
-29.2137476697
 20
3.8643487164
 30
0.0
 11
-29.2307410162
 21
3.900553724
 31
0.0
  0
LINE
  5
369
100
AcDbEntity
  8
LAYER0
 62
         3
100
AcDbLine
 10
-29.2307410162
 20
3.900553724
 30
0.0
 11
-29.2480773394
 21
3.9335331977
 31
0.0
  0
LINE
  5
36A
100
AcDbEntity
  8
LAYER0
 62
         3
100
AcDbLine
 10
-29.2480773394
 20
3.9335331977
 30
0.0
 11
-29.2636868356
 21
3.9589834692
 31
0.0
  0
LINE
  5
36B
100
AcDbEntity
  8
LAYER0
 62
         3
100
AcDbLine
 10
-29.2636868356
 20
3.9589834692
 30
0.0
 11
-29.270318649
 21
3.9677899592
 31
0.0
  0
LINE
  5
36C
100
AcDbEntity
  8
LAYER0
 62
         3
100
AcDbLine
 10
-29.270318649
 20
3.9677899592
 30
0.0
 11
-29.2758883062
 21
3.9733999146
 31
0.0
  0
LINE
  5
36D
100
AcDbEntity
  8
LAYER0
 62
         3
100
AcDbLine
 10
-29.2758883062
 20
3.9733999146
 30
0.0
 11
-29.2801856574
 21
3.9753752575
 31
0.0
  0
LINE
  5
36E
100
AcDbEntity
  8
LAYER0
 62
         3
100
AcDbLine
 10
-29.2801856574
 20
3.9753752575
 30
0.0
 11
-29.2830005527
 21
3.9732779099
 31
0.0
  0
LINE
  5
36F
100
AcDbEntity
  8
LAYER0
 62
         3
100
AcDbLine
 10
-29.2830005527
 20
3.9732779099
 30
0.0
 11
-29.2843179084
 21
3.9684080242
 31
0.0
  0
ENDBLK
  5
370
100
AcDbEntity
  8
0
100
AcDbBlockEnd
  0
BLOCK
  5
374
100
AcDbEntity
  8
0
100
AcDbBlockBegin
  2
CLUMP66
 70
         0
 10
0.0
 20
0.0
 30
0.0
  3

  1

  0
INSERT
  5
376
100
AcDbEntity
  8
0
100
AcDbBlockReference
  2
CLUMP67
 10
0.0
 20
0.0
 30
0.0
  0
ENDBLK
  5
384
100
AcDbEntity
  8
0
100
AcDbBlockEnd
  0
BLOCK
  5
377
100
AcDbEntity
  8
0
100
AcDbBlockBegin
  2
CLUMP67
 70
         0
 10
0.0
 20
0.0
 30
0.0
  3

  1

  0
LINE
  5
378
100
AcDbEntity
  8
LAYER0
 62
         3
100
AcDbLine
 10
-29.2945058789
 20
3.9307425453
 30
0.0
 11
-29.2828111472
 21
3.8689174349
 31
0.0
  0
LINE
  5
379
100
AcDbEntity
  8
LAYER0
 62
         3
100
AcDbLine
 10
-29.2828111472
 20
3.8689174349
 30
0.0
 11
-29.2754543098
 21
3.8339685898
 31
0.0
  0
LINE
  5
37A
100
AcDbEntity
  8
LAYER0
 62
         3
100
AcDbLine
 10
-29.2754543098
 20
3.8339685898
 30
0.0
 11
-29.2662861064
 21
3.7941761969
 31
0.0
  0
LINE
  5
37B
100
AcDbEntity
  8
LAYER0
 62
         3
100
AcDbLine
 10
-29.2662861064
 20
3.7941761969
 30
0.0
 11
-29.2546852377
 21
3.7475722151
 31
0.0
  0
LINE
  5
37C
100
AcDbEntity
  8
LAYER0
 62
         3
100
AcDbLine
 10
-29.2546852377
 20
3.7475722151
 30
0.0
 11
-29.2410749156
 21
3.695185887
 31
0.0
  0
LINE
  5
37D
100
AcDbEntity
  8
LAYER0
 62
         3
100
AcDbLine
 10
-29.2410749156
 20
3.695185887
 30
0.0
 11
-29.225936845
 21
3.6378961623
 31
0.0
  0
LINE
  5
37E
100
AcDbEntity
  8
LAYER0
 62
         3
100
AcDbLine
 10
-29.225936845
 20
3.6378961623
 30
0.0
 11
-29.2097527307
 21
3.5765819906
 31
0.0
  0
LINE
  5
37F
100
AcDbEntity
  8
LAYER0
 62
         3
100
AcDbLine
 10
-29.2097527307
 20
3.5765819906
 30
0.0
 11
-29.1741793471
 21
3.4353302448
 31
0.0
  0
LINE
  5
380
100
AcDbEntity
  8
LAYER0
 62
         3
100
AcDbLine
 10
-29.1741793471
 20
3.4353302448
 30
0.0
 11
-29.1419063468
 21
3.2812791599
 31
0.0
  0
LINE
  5
381
100
AcDbEntity
  8
LAYER0
 62
         3
100
AcDbLine
 10
-29.1419063468
 20
3.2812791599
 30
0.0
 11
-29.1195141537
 21
3.1359391376
 31
0.0
  0
LINE
  5
382
100
AcDbEntity
  8
LAYER0
 62
         3
100
AcDbLine
 10
-29.1195141537
 20
3.1359391376
 30
0.0
 11
-29.1007153463
 21
2.9861653878
 31
0.0
  0
ENDBLK
  5
383
100
AcDbEntity
  8
0
100
AcDbBlockEnd
  0
BLOCK
  5
387
100
AcDbEntity
  8
0
100
AcDbBlockBegin
  2
CLUMP68
 70
         0
 10
0.0
 20
0.0
 30
0.0
  3

  1

  0
INSERT
  5
389
100
AcDbEntity
  8
0
100
AcDbBlockReference
  2
CLUMP69
 10
0.0
 20
0.0
 30
0.0
  0
ENDBLK
  5
399
100
AcDbEntity
  8
0
100
AcDbBlockEnd
  0
BLOCK
  5
38A
100
AcDbEntity
  8
0
100
AcDbBlockBegin
  2
CLUMP69
 70
         0
 10
0.0
 20
0.0
 30
0.0
  3

  1

  0
LINE
  5
38B
100
AcDbEntity
  8
LAYER0
 62
         3
100
AcDbLine
 10
-29.2910346069
 20
2.0089137091
 30
0.0
 11
-29.2906407202
 21
2.0325404484
 31
0.0
  0
LINE
  5
38C
100
AcDbEntity
  8
LAYER0
 62
         3
100
AcDbLine
 10
-29.2906407202
 20
2.0325404484
 30
0.0
 11
-29.2869060539
 21
2.0642454459
 31
0.0
  0
LINE
  5
38D
100
AcDbEntity
  8
LAYER0
 62
         3
100
AcDbLine
 10
-29.2869060539
 20
2.0642454459
 30
0.0
 11
-29.2803302974
 21
2.0970457872
 31
0.0
  0
LINE
  5
38E
100
AcDbEntity
  8
LAYER0
 62
         3
100
AcDbLine
 10
-29.2803302974
 20
2.0970457872
 30
0.0
 11
-29.2707526828
 21
2.1373852075
 31
0.0
  0
LINE
  5
38F
100
AcDbEntity
  8
LAYER0
 62
         3
100
AcDbLine
 10
-29.2707526828
 20
2.1373852075
 30
0.0
 11
-29.2588625012
 21
2.1838773074
 31
0.0
  0
LINE
  5
390
100
AcDbEntity
  8
LAYER0
 62
         3
100
AcDbLine
 10
-29.2588625012
 20
2.1838773074
 30
0.0
 11
-29.2453490436
 21
2.2351356877
 31
0.0
  0
LINE
  5
391
100
AcDbEntity
  8
LAYER0
 62
         3
100
AcDbLine
 10
-29.2453490436
 20
2.2351356877
 30
0.0
 11
-29.2142339502
 21
2.353537574
 31
0.0
  0
LINE
  5
392
100
AcDbEntity
  8
LAYER0
 62
         3
100
AcDbLine
 10
-29.2142339502
 20
2.353537574
 30
0.0
 11
-29.1812726535
 21
2.4862193225
 31
0.0
  0
LINE
  5
393
100
AcDbEntity
  8
LAYER0
 62
         3
100
AcDbLine
 10
-29.1812726535
 20
2.4862193225
 30
0.0
 11
-29.1470034798
 21
2.6415259427
 31
0.0
  0
LINE
  5
394
100
AcDbEntity
  8
LAYER0
 62
         3
100
AcDbLine
 10
-29.1470034798
 20
2.6415259427
 30
0.0
 11
-29.1173559852
 21
2.807907453
 31
0.0
  0
LINE
  5
395
100
AcDbEntity
  8
LAYER0
 62
         3
100
AcDbLine
 10
-29.1173559852
 20
2.807907453
 30
0.0
 11
-29.097825109
 21
2.9647203544
 31
0.0
  0
LINE
  5
396
100
AcDbEntity
  8
LAYER0
 62
         3
100
AcDbLine
 10
-29.097825109
 20
2.9647203544
 30
0.0
 11
-29.0880407445
 21
3.1219354554
 31
0.0
  0
LINE
  5
397
100
AcDbEntity
  8
LAYER0
 62
         3
100
AcDbLine
 10
-29.0880407445
 20
3.1219354554
 30
0.0
 11
-29.0870344505
 21
3.1887578501
 31
0.0
  0
ENDBLK
  5
398
100
AcDbEntity
  8
0
100
AcDbBlockEnd
  0
BLOCK
  5
39C
100
AcDbEntity
  8
0
100
AcDbBlockBegin
  2
CLUMP70
 70
         0
 10
0.0
 20
0.0
 30
0.0
  3

  1

  0
INSERT
  5
39E
100
AcDbEntity
  8
0
100
AcDbBlockReference
  2
CLUMP71
 10
0.0
 20
0.0
 30
0.0
  0
ENDBLK
  5
3AE
100
AcDbEntity
  8
0
100
AcDbBlockEnd
  0
BLOCK
  5
39F
100
AcDbEntity
  8
0
100
AcDbBlockBegin
  2
CLUMP71
 70
         0
 10
0.0
 20
0.0
 30
0.0
  3

  1

  0
LINE
  5
3A0
100
AcDbEntity
  8
LAYER0
 62
         3
100
AcDbLine
 10
-24.4916371774
 20
2.9560194074
 30
0.0
 11
-24.4729110744
 21
3.1481503232
 31
0.0
  0
LINE
  5
3A1
100
AcDbEntity
  8
LAYER0
 62
         3
100
AcDbLine
 10
-24.4729110744
 20
3.1481503232
 30
0.0
 11
-24.4469249137
 21
3.299976176
 31
0.0
  0
LINE
  5
3A2
100
AcDbEntity
  8
LAYER0
 62
         3
100
AcDbLine
 10
-24.4469249137
 20
3.299976176
 30
0.0
 11
-24.4147134252
 21
3.4428226484
 31
0.0
  0
LINE
  5
3A3
100
AcDbEntity
  8
LAYER0
 62
         3
100
AcDbLine
 10
-24.4147134252
 20
3.4428226484
 30
0.0
 11
-24.3797170836
 21
3.5834716449
 31
0.0
  0
LINE
  5
3A4
100
AcDbEntity
  8
LAYER0
 62
         3
100
AcDbLine
 10
-24.3797170836
 20
3.5834716449
 30
0.0
 11
-24.3630929343
 21
3.6479216461
 31
0.0
  0
LINE
  5
3A5
100
AcDbEntity
  8
LAYER0
 62
         3
100
AcDbLine
 10
-24.3630929343
 20
3.6479216461
 30
0.0
 11
-24.3474016205
 21
3.7081052272
 31
0.0
  0
LINE
  5
3A6
100
AcDbEntity
  8
LAYER0
 62
         3
100
AcDbLine
 10
-24.3474016205
 20
3.7081052272
 30
0.0
 11
-24.3327034257
 21
3.7646361354
 31
0.0
  0
LINE
  5
3A7
100
AcDbEntity
  8
LAYER0
 62
         3
100
AcDbLine
 10
-24.3327034257
 20
3.7646361354
 30
0.0
 11
-24.3198805725
 21
3.8153833245
 31
0.0
  0
LINE
  5
3A8
100
AcDbEntity
  8
LAYER0
 62
         3
100
AcDbLine
 10
-24.3198805725
 20
3.8153833245
 30
0.0
 11
-24.3095671681
 21
3.8592655115
 31
0.0
  0
LINE
  5
3A9
100
AcDbEntity
  8
LAYER0
 62
         3
100
AcDbLine
 10
-24.3095671681
 20
3.8592655115
 30
0.0
 11
-24.3023973197
 21
3.8952014132
 31
0.0
  0
LINE
  5
3AA
100
AcDbEntity
  8
LAYER0
 62
         3
100
AcDbLine
 10
-24.3023973197
 20
3.8952014132
 30
0.0
 11
-24.2988625065
 21
3.9212650579
 31
0.0
  0
LINE
  5
3AB
100
AcDbEntity
  8
LAYER0
 62
         3
100
AcDbLine
 10
-24.2988625065
 20
3.9212650579
 30
0.0
 11
-24.2978341632
 21
3.9413389344
 31
0.0
  0
LINE
  5
3AC
100
AcDbEntity
  8
LAYER0
 62
         3
100
AcDbLine
 10
-24.2978341632
 20
3.9413389344
 30
0.0
 11
-24.2999549262
 21
3.9715037404
 31
0.0
  0
ENDBLK
  5
3AD
100
AcDbEntity
  8
0
100
AcDbBlockEnd
  0
BLOCK
  5
3C6
100
AcDbEntity
  8
0
100
AcDbBlockBegin
  2
CLUMP72
 70
         0
 10
0.0
 20
0.0
 30
0.0
  3

  1

  0
INSERT
  5
3C8
100
AcDbEntity
  8
0
100
AcDbBlockReference
  2
CLUMP73
 10
0.0
 20
0.0
 30
0.0
  0
ENDBLK
  5
3D3
100
AcDbEntity
  8
0
100
AcDbBlockEnd
  0
BLOCK
  5
3C9
100
AcDbEntity
  8
0
100
AcDbBlockBegin
  2
CLUMP73
 70
         0
 10
0.0
 20
0.0
 30
0.0
  3

  1

  0
LINE
  5
3CA
100
AcDbEntity
  8
LAYER1
 62
         3
100
AcDbLine
 10
-21.5457085759
 20
29.8669102325
 30
0.0
 11
-21.5244781464
 21
29.8920112385
 31
0.0
  0
LINE
  5
3CB
100
AcDbEntity
  8
LAYER1
 62
         3
100
AcDbLine
 10
-21.5244781464
 20
29.8920112385
 30
0.0
 11
-21.4971736312
 21
29.9242946042
 31
0.0
  0
LINE
  5
3CC
100
AcDbEntity
  8
LAYER1
 62
         3
100
AcDbLine
 10
-21.4971736312
 20
29.9242946042
 30
0.0
 11
-21.4643920079
 21
29.9630487992
 31
0.0
  0
LINE
  5
3CD
100
AcDbEntity
  8
LAYER1
 62
         3
100
AcDbLine
 10
-21.4643920079
 20
29.9630487992
 30
0.0
 11
-21.4268503949
 21
30.0074356331
 31
0.0
  0
LINE
  5
3CE
100
AcDbEntity
  8
LAYER1
 62
         3
100
AcDbLine
 10
-21.4268503949
 20
30.0074356331
 30
0.0
 11
-21.3853692874
 21
30.0564790799
 31
0.0
  0
LINE
  5
3CF
100
AcDbEntity
  8
LAYER1
 62
         3
100
AcDbLine
 10
-21.3853692874
 20
30.0564790799
 30
0.0
 11
-21.3408557937
 21
30.1091062559
 31
0.0
  0
LINE
  5
3D0
100
AcDbEntity
  8
LAYER1
 62
         3
100
AcDbLine
 10
-21.3408557937
 20
30.1091062559
 30
0.0
 11
-21.2942831457
 21
30.1641697718
 31
0.0
  0
LINE
  5
3D1
100
AcDbEntity
  8
LAYER1
 62
         3
100
AcDbLine
 10
-21.2942831457
 20
30.1641697718
 30
0.0
 11
-21.2466692791
 21
30.2204626335
 31
0.0
  0
ENDBLK
  5
3D2
100
AcDbEntity
  8
0
100
AcDbBlockEnd
  0
BLOCK
  5
3D6
100
AcDbEntity
  8
0
100
AcDbBlockBegin
  2
CLUMP74
 70
         0
 10
0.0
 20
0.0
 30
0.0
  3

  1

  0
INSERT
  5
3D8
100
AcDbEntity
  8
0
100
AcDbBlockReference
  2
CLUMP75
 10
0.0
 20
0.0
 30
0.0
  0
ENDBLK
  5
3DF
100
AcDbEntity
  8
0
100
AcDbBlockEnd
  0
BLOCK
  5
3D9
100
AcDbEntity
  8
0
100
AcDbBlockBegin
  2
CLUMP75
 70
         0
 10
0.0
 20
0.0
 30
0.0
  3

  1

  0
LINE
  5
3DA
100
AcDbEntity
  8
LAYER0
 62
         3
100
AcDbLine
 10
-32.3448240996
 20
30.2204626335
 30
0.0
 11
-31.2957916647
 21
31.0802112056
 31
0.0
  0
LINE
  5
3DB
100
AcDbEntity
  8
LAYER0
 62
         3
100
AcDbLine
 10
-31.2957916647
 20
31.0802112056
 30
0.0
 11
-30.7588956445
 21
31.4968879883
 31
0.0
  0
LINE
  5
3DC
100
AcDbEntity
  8
LAYER0
 62
         3
100
AcDbLine
 10
-30.7588956445
 20
31.4968879883
 30
0.0
 11
-30.2074124809
 21
31.8934383525
 31
0.0
  0
LINE
  5
3DD
100
AcDbEntity
  8
LAYER0
 62
         3
100
AcDbLine
 10
-30.2074124809
 20
31.8934383525
 30
0.0
 11
-29.2937459197
 21
32.4811252488
 31
0.0
  0
ENDBLK
  5
3DE
100
AcDbEntity
  8
0
100
AcDbBlockEnd
  0
BLOCK
  5
3E2
100
AcDbEntity
  8
0
100
AcDbBlockBegin
  2
CLUMP76
 70
         0
 10
0.0
 20
0.0
 30
0.0
  3

  1

  0
INSERT
  5
3E4
100
AcDbEntity
  8
0
100
AcDbBlockReference
  2
CLUMP77
 10
0.0
 20
0.0
 30
0.0
  0
ENDBLK
  5
3FB
100
AcDbEntity
  8
0
100
AcDbBlockEnd
  0
BLOCK
  5
3E5
100
AcDbEntity
  8
0
100
AcDbBlockBegin
  2
CLUMP77
 70
         0
 10
0.0
 20
0.0
 30
0.0
  3

  1

  0
LINE
  5
3E6
100
AcDbEntity
  8
LAYER0
 62
         3
100
AcDbLine
 10
-24.3079114478
 20
3.9655209242
 30
0.0
 11
-24.3200085451
 21
3.960363832
 31
0.0
  0
LINE
  5
3E7
100
AcDbEntity
  8
LAYER0
 62
         3
100
AcDbLine
 10
-24.3200085451
 20
3.960363832
 30
0.0
 11
-24.3350839481
 21
3.9450895695
 31
0.0
  0
LINE
  5
3E8
100
AcDbEntity
  8
LAYER0
 62
         3
100
AcDbLine
 10
-24.3350839481
 20
3.9450895695
 30
0.0
 11
-24.3479953446
 21
3.9249790029
 31
0.0
  0
LINE
  5
3E9
100
AcDbEntity
  8
LAYER0
 62
         3
100
AcDbLine
 10
-24.3479953446
 20
3.9249790029
 30
0.0
 11
-24.3628708836
 21
3.8969799815
 31
0.0
  0
LINE
  5
3EA
100
AcDbEntity
  8
LAYER0
 62
         3
100
AcDbLine
 10
-24.3628708836
 20
3.8969799815
 30
0.0
 11
-24.3957866222
 21
3.8217172681
 31
0.0
  0
LINE
  5
3EB
100
AcDbEntity
  8
LAYER0
 62
         3
100
AcDbLine
 10
-24.3957866222
 20
3.8217172681
 30
0.0
 11
-24.4309385323
 21
3.7197644036
 31
0.0
  0
LINE
  5
3EC
100
AcDbEntity
  8
LAYER0
 62
         3
100
AcDbLine
 10
-24.4309385323
 20
3.7197644036
 30
0.0
 11
-24.4624602381
 21
3.5972079916
 31
0.0
  0
LINE
  5
3ED
100
AcDbEntity
  8
LAYER0
 62
         3
100
AcDbLine
 10
-24.4624602381
 20
3.5972079916
 30
0.0
 11
-24.4872804609
 21
3.4537839421
 31
0.0
  0
LINE
  5
3EE
100
AcDbEntity
  8
LAYER0
 62
         3
100
AcDbLine
 10
-24.4872804609
 20
3.4537839421
 30
0.0
 11
-24.5018221211
 21
3.2948448046
 31
0.0
  0
LINE
  5
3EF
100
AcDbEntity
  8
LAYER0
 62
         3
100
AcDbLine
 10
-24.5018221211
 20
3.2948448046
 30
0.0
 11
-24.5038057631
 21
3.1381592843
 31
0.0
  0
LINE
  5
3F0
100
AcDbEntity
  8
LAYER0
 62
         3
100
AcDbLine
 10
-24.5038057631
 20
3.1381592843
 30
0.0
 11
-24.4947387144
 21
2.9775618298
 31
0.0
  0
LINE
  5
3F1
100
AcDbEntity
  8
LAYER0
 62
         3
100
AcDbLine
 10
-24.4947387144
 20
2.9775618298
 30
0.0
 11
-24.476507999
 21
2.8239771464
 31
0.0
  0
LINE
  5
3F2
100
AcDbEntity
  8
LAYER0
 62
         3
100
AcDbLine
 10
-24.476507999
 20
2.8239771464
 30
0.0
 11
-24.4511553791
 21
2.6748438089
 31
0.0
  0
LINE
  5
3F3
100
AcDbEntity
  8
LAYER0
 62
         3
100
AcDbLine
 10
-24.4511553791
 20
2.6748438089
 30
0.0
 11
-24.4194626891
 21
2.5256351268
 31
0.0
  0
LINE
  5
3F4
100
AcDbEntity
  8
LAYER0
 62
         3
100
AcDbLine
 10
-24.4194626891
 20
2.5256351268
 30
0.0
 11
-24.3860498775
 21
2.3883261441
 31
0.0
  0
LINE
  5
3F5
100
AcDbEntity
  8
LAYER0
 62
         3
100
AcDbLine
 10
-24.3860498775
 20
2.3883261441
 30
0.0
 11
-24.3523261701
 21
2.2585788651
 31
0.0
  0
LINE
  5
3F6
100
AcDbEntity
  8
LAYER0
 62
         3
100
AcDbLine
 10
-24.3523261701
 20
2.2585788651
 30
0.0
 11
-24.3240200687
 21
2.1491001083
 31
0.0
  0
LINE
  5
3F7
100
AcDbEntity
  8
LAYER0
 62
         3
100
AcDbLine
 10
-24.3240200687
 20
2.1491001083
 30
0.0
 11
-24.304712823
 21
2.0648766637
 31
0.0
  0
LINE
  5
3F8
100
AcDbEntity
  8
LAYER0
 62
         3
100
AcDbLine
 10
-24.304712823
 20
2.0648766637
 30
0.0
 11
-24.2961108923
 21
2.0073993786
 31
0.0
  0
LINE
  5
3F9
100
AcDbEntity
  8
LAYER0
 62
         3
100
AcDbLine
 10
-24.2961108923
 20
2.0073993786
 30
0.0
 11
-24.2957467452
 21
1.9973466827
 31
0.0
  0
ENDBLK
  5
3FA
100
AcDbEntity
  8
0
100
AcDbBlockEnd
  0
BLOCK
  5
3FE
100
AcDbEntity
  8
0
100
AcDbBlockBegin
  2
CLUMP78
 70
         0
 10
0.0
 20
0.0
 30
0.0
  3

  1

  0
INSERT
  5
400
100
AcDbEntity
  8
0
100
AcDbBlockReference
  2
CLUMP79
 10
0.0
 20
0.0
 30
0.0
  0
ENDBLK
  5
412
100
AcDbEntity
  8
0
100
AcDbBlockEnd
  0
BLOCK
  5
401
100
AcDbEntity
  8
0
100
AcDbBlockBegin
  2
CLUMP79
 70
         0
 10
0.0
 20
0.0
 30
0.0
  3

  1

  0
LINE
  5
402
100
AcDbEntity
  8
LAYER0
 62
         3
100
AcDbLine
 10
-29.2899780214
 20
5.8993833794
 30
0.0
 11
-29.2936264776
 21
5.9244098796
 31
0.0
  0
LINE
  5
403
100
AcDbEntity
  8
LAYER0
 62
         3
100
AcDbLine
 10
-29.2936264776
 20
5.9244098796
 30
0.0
 11
-29.2923110763
 21
5.9410146476
 31
0.0
  0
LINE
  5
404
100
AcDbEntity
  8
LAYER0
 62
         3
100
AcDbLine
 10
-29.2923110763
 20
5.9410146476
 30
0.0
 11
-29.2866546458
 21
5.9540451627
 31
0.0
  0
LINE
  5
405
100
AcDbEntity
  8
LAYER0
 62
         3
100
AcDbLine
 10
-29.2866546458
 20
5.9540451627
 30
0.0
 11
-29.263751205
 21
5.9704546696
 31
0.0
  0
LINE
  5
406
100
AcDbEntity
  8
LAYER0
 62
         3
100
AcDbLine
 10
-29.263751205
 20
5.9704546696
 30
0.0
 11
-29.227781171
 21
5.9757808712
 31
0.0
  0
LINE
  5
407
100
AcDbEntity
  8
LAYER0
 62
         3
100
AcDbLine
 10
-29.227781171
 20
5.9757808712
 30
0.0
 11
-29.1816095594
 21
5.9721662386
 31
0.0
  0
LINE
  5
408
100
AcDbEntity
  8
LAYER0
 62
         3
100
AcDbLine
 10
-29.1816095594
 20
5.9721662386
 30
0.0
 11
-29.1267788417
 21
5.9612112763
 31
0.0
  0
LINE
  5
409
100
AcDbEntity
  8
LAYER0
 62
         3
100
AcDbLine
 10
-29.1267788417
 20
5.9612112763
 30
0.0
 11
-29.0643625735
 21
5.9433903123
 31
0.0
  0
LINE
  5
40A
100
AcDbEntity
  8
LAYER0
 62
         3
100
AcDbLine
 10
-29.0643625735
 20
5.9433903123
 30
0.0
 11
-28.9943267445
 21
5.9188349154
 31
0.0
  0
LINE
  5
40B
100
AcDbEntity
  8
LAYER0
 62
         3
100
AcDbLine
 10
-28.9943267445
 20
5.9188349154
 30
0.0
 11
-28.9166373439
 21
5.8876766546
 31
0.0
  0
LINE
  5
40C
100
AcDbEntity
  8
LAYER0
 62
         3
100
AcDbLine
 10
-28.9166373439
 20
5.8876766546
 30
0.0
 11
-28.7921484032
 21
5.832072201
 31
0.0
  0
LINE
  5
40D
100
AcDbEntity
  8
LAYER0
 62
         3
100
AcDbLine
 10
-28.7921484032
 20
5.832072201
 30
0.0
 11
-28.6543061264
 21
5.7657981946
 31
0.0
  0
LINE
  5
40E
100
AcDbEntity
  8
LAYER0
 62
         3
100
AcDbLine
 10
-28.6543061264
 20
5.7657981946
 30
0.0
 11
-28.5005122542
 21
5.6891746984
 31
0.0
  0
LINE
  5
40F
100
AcDbEntity
  8
LAYER0
 62
         3
100
AcDbLine
 10
-28.5005122542
 20
5.6891746984
 30
0.0
 11
-28.3339405904
 21
5.6063222422
 31
0.0
  0
LINE
  5
410
100
AcDbEntity
  8
LAYER0
 62
         3
100
AcDbLine
 10
-28.3339405904
 20
5.6063222422
 30
0.0
 11
-28.0457466614
 21
5.4671547098
 31
0.0
  0
ENDBLK
  5
411
100
AcDbEntity
  8
0
100
AcDbBlockEnd
  0
BLOCK
  5
415
100
AcDbEntity
  8
0
100
AcDbBlockBegin
  2
CLUMP80
 70
         0
 10
0.0
 20
0.0
 30
0.0
  3

  1

  0
INSERT
  5
417
100
AcDbEntity
  8
0
100
AcDbBlockReference
  2
CLUMP81
 10
0.0
 20
0.0
 30
0.0
  0
ENDBLK
  5
41E
100
AcDbEntity
  8
0
100
AcDbBlockEnd
  0
BLOCK
  5
418
100
AcDbEntity
  8
0
100
AcDbBlockBegin
  2
CLUMP81
 70
         0
 10
0.0
 20
0.0
 30
0.0
  3

  1

  0
LINE
  5
419
100
AcDbEntity
  8
LAYER0
 62
         3
100
AcDbLine
 10
-25.5957466893
 20
2.2674522761
 30
0.0
 11
-25.9767289002
 21
2.6756161074
 31
0.0
  0
LINE
  5
41A
100
AcDbEntity
  8
LAYER0
 62
         3
100
AcDbLine
 10
-25.9767289002
 20
2.6756161074
 30
0.0
 11
-26.3804683339
 21
3.092071317
 31
0.0
  0
LINE
  5
41B
100
AcDbEntity
  8
LAYER0
 62
         3
100
AcDbLine
 10
-26.3804683339
 20
3.092071317
 30
0.0
 11
-26.7957466893
 21
3.505246283
 31
0.0
  0
LINE
  5
41C
100
AcDbEntity
  8
LAYER0
 62
         3
100
AcDbLine
 10
-26.7957466893
 20
3.505246283
 30
0.0
 11
-25.5957466893
 21
2.2674522761
 31
0.0
  0
ENDBLK
  5
41D
100
AcDbEntity
  8
0
100
AcDbBlockEnd
  0
BLOCK
  5
421
100
AcDbEntity
  8
0
100
AcDbBlockBegin
  2
CLUMP82
 70
         0
 10
0.0
 20
0.0
 30
0.0
  3

  1

  0
INSERT
  5
423
100
AcDbEntity
  8
0
100
AcDbBlockReference
  2
CLUMP83
 10
0.0
 20
0.0
 30
0.0
  0
ENDBLK
  5
42A
100
AcDbEntity
  8
0
100
AcDbBlockEnd
  0
BLOCK
  5
424
100
AcDbEntity
  8
0
100
AcDbBlockBegin
  2
CLUMP83
 70
         0
 10
0.0
 20
0.0
 30
0.0
  3

  1

  0
LINE
  5
425
100
AcDbEntity
  8
LAYER0
 62
         3
100
AcDbLine
 10
-26.7957466893
 20
3.505246283
 30
0.0
 11
-27.2110250447
 21
3.092071317
 31
0.0
  0
LINE
  5
426
100
AcDbEntity
  8
LAYER0
 62
         3
100
AcDbLine
 10
-27.2110250447
 20
3.092071317
 30
0.0
 11
-27.6147644784
 21
2.6756161074
 31
0.0
  0
LINE
  5
427
100
AcDbEntity
  8
LAYER0
 62
         3
100
AcDbLine
 10
-27.6147644784
 20
2.6756161074
 30
0.0
 11
-27.9957466893
 21
2.2674522761
 31
0.0
  0
LINE
  5
428
100
AcDbEntity
  8
LAYER0
 62
         3
100
AcDbLine
 10
-27.9957466893
 20
2.2674522761
 30
0.0
 11
-26.7957466893
 21
3.505246283
 31
0.0
  0
ENDBLK
  5
429
100
AcDbEntity
  8
0
100
AcDbBlockEnd
  0
BLOCK
  5
42D
100
AcDbEntity
  8
0
100
AcDbBlockBegin
  2
CLUMP84
 70
         0
 10
0.0
 20
0.0
 30
0.0
  3

  1

  0
INSERT
  5
42F
100
AcDbEntity
  8
0
100
AcDbBlockReference
  2
CLUMP85
 10
0.0
 20
0.0
 30
0.0
  0
ENDBLK
  5
43A
100
AcDbEntity
  8
0
100
AcDbBlockEnd
  0
BLOCK
  5
430
100
AcDbEntity
  8
0
100
AcDbBlockBegin
  2
CLUMP85
 70
         0
 10
0.0
 20
0.0
 30
0.0
  3

  1

  0
LINE
  5
431
100
AcDbEntity
  8
LAYER1
 62
         3
100
AcDbLine
 10
-16.8148772098
 20
23.9740187956
 30
0.0
 11
-16.8111454003
 21
23.7789253427
 31
0.0
  0
LINE
  5
432
100
AcDbEntity
  8
LAYER1
 62
         3
100
AcDbLine
 10
-16.8111454003
 20
23.7789253427
 30
0.0
 11
-16.8075560831
 21
23.5913346244
 31
0.0
  0
LINE
  5
433
100
AcDbEntity
  8
LAYER1
 62
         3
100
AcDbLine
 10
-16.8075560831
 20
23.5913346244
 30
0.0
 11
-16.8042489566
 21
23.418447627
 31
0.0
  0
LINE
  5
434
100
AcDbEntity
  8
LAYER1
 62
         3
100
AcDbLine
 10
-16.8042489566
 20
23.418447627
 30
0.0
 11
-16.8013497494
 21
23.2669102682
 31
0.0
  0
LINE
  5
435
100
AcDbEntity
  8
LAYER1
 62
         3
100
AcDbLine
 10
-16.8013497494
 20
23.2669102682
 30
0.0
 11
-16.7989711516
 21
23.1425489022
 31
0.0
  0
LINE
  5
436
100
AcDbEntity
  8
LAYER1
 62
         3
100
AcDbLine
 10
-16.7989711516
 20
23.1425489022
 30
0.0
 11
-16.79720257
 21
23.050139351
 31
0.0
  0
LINE
  5
437
100
AcDbEntity
  8
LAYER1
 62
         3
100
AcDbLine
 10
-16.79720257
 20
23.050139351
 30
0.0
 11
-16.7961138539
 21
22.9932318164
 31
0.0
  0
LINE
  5
438
100
AcDbEntity
  8
LAYER1
 62
         3
100
AcDbLine
 10
-16.7961138539
 20
22.9932318164
 30
0.0
 11
-16.7957469128
 21
22.9740167691
 31
0.0
  0
ENDBLK
  5
439
100
AcDbEntity
  8
0
100
AcDbBlockEnd
  0
BLOCK
  5
43D
100
AcDbEntity
  8
0
100
AcDbBlockBegin
  2
CLUMP86
 70
         0
 10
0.0
 20
0.0
 30
0.0
  3

  1

  0
INSERT
  5
43F
100
AcDbEntity
  8
0
100
AcDbBlockReference
  2
CLUMP87
 10
0.0
 20
0.0
 30
0.0
  0
ENDBLK
  5
44B
100
AcDbEntity
  8
0
100
AcDbBlockEnd
  0
BLOCK
  5
440
100
AcDbEntity
  8
0
100
AcDbBlockBegin
  2
CLUMP87
 70
         0
 10
0.0
 20
0.0
 30
0.0
  3

  1

  0
LINE
  5
441
100
AcDbEntity
  8
LAYER1
 62
         3
100
AcDbLine
 10
-17.2957469948
 20
49.1102139188
 30
0.0
 11
-17.295407062
 21
49.0924740864
 31
0.0
  0
LINE
  5
442
100
AcDbEntity
  8
LAYER1
 62
         3
100
AcDbLine
 10
-17.295407062
 20
49.0924740864
 30
0.0
 11
-17.294399371
 21
49.0397984816
 31
0.0
  0
LINE
  5
443
100
AcDbEntity
  8
LAYER1
 62
         3
100
AcDbLine
 10
-17.294399371
 20
49.0397984816
 30
0.0
 11
-17.292753724
 21
48.9537852539
 31
0.0
  0
LINE
  5
444
100
AcDbEntity
  8
LAYER1
 62
         3
100
AcDbLine
 10
-17.292753724
 20
48.9537852539
 30
0.0
 11
-17.2905204125
 21
48.8370495571
 31
0.0
  0
LINE
  5
445
100
AcDbEntity
  8
LAYER1
 62
         3
100
AcDbLine
 10
-17.2905204125
 20
48.8370495571
 30
0.0
 11
-17.287767423
 21
48.6931341423
 31
0.0
  0
LINE
  5
446
100
AcDbEntity
  8
LAYER1
 62
         3
100
AcDbLine
 10
-17.287767423
 20
48.6931341423
 30
0.0
 11
-17.2845785745
 21
48.5264162256
 31
0.0
  0
LINE
  5
447
100
AcDbEntity
  8
LAYER1
 62
         3
100
AcDbLine
 10
-17.2845785745
 20
48.5264162256
 30
0.0
 11
-17.2810497932
 21
48.3419584765
 31
0.0
  0
LINE
  5
448
100
AcDbEntity
  8
LAYER1
 62
         3
100
AcDbLine
 10
-17.2810497932
 20
48.3419584765
 30
0.0
 11
-17.2772891127
 21
48.1453674568
 31
0.0
  0
LINE
  5
449
100
AcDbEntity
  8
LAYER1
 62
         3
100
AcDbLine
 10
-17.2772891127
 20
48.1453674568
 30
0.0
 11
-17.2734101541
 21
47.9426185323
 31
0.0
  0
ENDBLK
  5
44A
100
AcDbEntity
  8
0
100
AcDbBlockEnd
  0
BLOCK
  5
44E
100
AcDbEntity
  8
0
100
AcDbBlockBegin
  2
CLUMP88
 70
         0
 10
0.0
 20
0.0
 30
0.0
  3

  1

  0
INSERT
  5
450
100
AcDbEntity
  8
0
100
AcDbBlockReference
  2
CLUMP89
 10
0.0
 20
0.0
 30
0.0
  0
ENDBLK
  5
45B
100
AcDbEntity
  8
0
100
AcDbBlockEnd
  0
BLOCK
  5
451
100
AcDbEntity
  8
0
100
AcDbBlockBegin
  2
CLUMP89
 70
         0
 10
0.0
 20
0.0
 30
0.0
  3

  1

  0
LINE
  5
452
100
AcDbEntity
  8
LAYER1
 62
         3
100
AcDbLine
 10
-18.8069724716
 20
49.9827216102
 30
0.0
 11
-18.6096922733
 21
49.8688208593
 31
0.0
  0
LINE
  5
453
100
AcDbEntity
  8
LAYER1
 62
         3
100
AcDbLine
 10
-18.6096922733
 20
49.8688208593
 30
0.0
 11
-18.4199930407
 21
49.7592973246
 31
0.0
  0
LINE
  5
454
100
AcDbEntity
  8
LAYER1
 62
         3
100
AcDbLine
 10
-18.4199930407
 20
49.7592973246
 30
0.0
 11
-18.245165167
 21
49.6583605839
 31
0.0
  0
LINE
  5
455
100
AcDbEntity
  8
LAYER1
 62
         3
100
AcDbLine
 10
-18.245165167
 20
49.6583605839
 30
0.0
 11
-18.0919281446
 21
49.5698886646
 31
0.0
  0
LINE
  5
456
100
AcDbEntity
  8
LAYER1
 62
         3
100
AcDbLine
 10
-18.0919281446
 20
49.5698886646
 30
0.0
 11
-17.9661688633
 21
49.4972827567
 31
0.0
  0
LINE
  5
457
100
AcDbEntity
  8
LAYER1
 62
         3
100
AcDbLine
 10
-17.9661688633
 20
49.4972827567
 30
0.0
 11
-17.8727218188
 21
49.4433293773
 31
0.0
  0
LINE
  5
458
100
AcDbEntity
  8
LAYER1
 62
         3
100
AcDbLine
 10
-17.8727218188
 20
49.4433293773
 30
0.0
 11
-17.8151772596
 21
49.4101072384
 31
0.0
  0
LINE
  5
459
100
AcDbEntity
  8
LAYER1
 62
         3
100
AcDbLine
 10
-17.8151772596
 20
49.4101072384
 30
0.0
 11
-17.7957470767
 21
49.3988903894
 31
0.0
  0
ENDBLK
  5
45A
100
AcDbEntity
  8
0
100
AcDbBlockEnd
  0
BLOCK
  5
45E
100
AcDbEntity
  8
0
100
AcDbBlockBegin
  2
CLUMP90
 70
         0
 10
0.0
 20
0.0
 30
0.0
  3

  1

  0
INSERT
  5
460
100
AcDbEntity
  8
0
100
AcDbBlockReference
  2
CLUMP91
 10
0.0
 20
0.0
 30
0.0
  0
ENDBLK
  5
46B
100
AcDbEntity
  8
0
100
AcDbBlockEnd
  0
BLOCK
  5
461
100
AcDbEntity
  8
0
100
AcDbBlockBegin
  2
CLUMP91
 70
         0
 10
0.0
 20
0.0
 30
0.0
  3

  1

  0
LINE
  5
462
100
AcDbEntity
  8
LAYER1
 62
         3
100
AcDbLine
 10
-36.2957463838
 20
49.1102139188
 30
0.0
 11
-36.276313407
 21
49.1214344932
 31
0.0
  0
LINE
  5
463
100
AcDbEntity
  8
LAYER1
 62
         3
100
AcDbLine
 10
-36.276313407
 20
49.1214344932
 30
0.0
 11
-36.2187623285
 21
49.1546603574
 31
0.0
  0
LINE
  5
464
100
AcDbEntity
  8
LAYER1
 62
         3
100
AcDbLine
 10
-36.2187623285
 20
49.1546603574
 30
0.0
 11
-36.1253031768
 21
49.2086174621
 31
0.0
  0
LINE
  5
465
100
AcDbEntity
  8
LAYER1
 62
         3
100
AcDbLine
 10
-36.1253031768
 20
49.2086174621
 30
0.0
 11
-35.9995280631
 21
49.2812345459
 31
0.0
  0
LINE
  5
466
100
AcDbEntity
  8
LAYER1
 62
         3
100
AcDbLine
 10
-35.9995280631
 20
49.2812345459
 30
0.0
 11
-35.8462714829
 21
49.369717641
 31
0.0
  0
LINE
  5
467
100
AcDbEntity
  8
LAYER1
 62
         3
100
AcDbLine
 10
-35.8462714829
 20
49.369717641
 30
0.0
 11
-35.6714212574
 21
49.4706692828
 31
0.0
  0
LINE
  5
468
100
AcDbEntity
  8
LAYER1
 62
         3
100
AcDbLine
 10
-35.6714212574
 20
49.4706692828
 30
0.0
 11
-35.4816987418
 21
49.5802039935
 31
0.0
  0
LINE
  5
469
100
AcDbEntity
  8
LAYER1
 62
         3
100
AcDbLine
 10
-35.4816987418
 20
49.5802039935
 30
0.0
 11
-35.2843933977
 21
49.6941196455
 31
0.0
  0
ENDBLK
  5
46A
100
AcDbEntity
  8
0
100
AcDbBlockEnd
  0
BLOCK
  5
46E
100
AcDbEntity
  8
0
100
AcDbBlockBegin
  2
CLUMP92
 70
         0
 10
0.0
 20
0.0
 30
0.0
  3

  1

  0
INSERT
  5
470
100
AcDbEntity
  8
0
100
AcDbBlockReference
  2
CLUMP93
 10
0.0
 20
0.0
 30
0.0
  0
ENDBLK
  5
480
100
AcDbEntity
  8
0
100
AcDbBlockEnd
  0
BLOCK
  5
471
100
AcDbEntity
  8
0
100
AcDbBlockBegin
  2
CLUMP93
 70
         0
 10
0.0
 20
0.0
 30
0.0
  3

  1

  0
LINE
  5
472
100
AcDbEntity
  8
LAYER0
 62
         3
100
AcDbLine
 10
-25.5457467172
 20
5.4671547098
 30
0.0
 11
-25.3789199234
 21
5.5475143357
 31
0.0
  0
LINE
  5
473
100
AcDbEntity
  8
LAYER0
 62
         3
100
AcDbLine
 10
-25.3789199234
 20
5.5475143357
 30
0.0
 11
-25.2180389833
 21
5.6259843244
 31
0.0
  0
LINE
  5
474
100
AcDbEntity
  8
LAYER0
 62
         3
100
AcDbLine
 10
-25.2180389833
 20
5.6259843244
 30
0.0
 11
-25.0544946354
 21
5.7074020994
 31
0.0
  0
LINE
  5
475
100
AcDbEntity
  8
LAYER0
 62
         3
100
AcDbLine
 10
-25.0544946354
 20
5.7074020994
 30
0.0
 11
-24.9039514927
 21
5.7820181085
 31
0.0
  0
LINE
  5
476
100
AcDbEntity
  8
LAYER0
 62
         3
100
AcDbLine
 10
-24.9039514927
 20
5.7820181085
 30
0.0
 11
-24.7620106341
 21
5.8492501526
 31
0.0
  0
LINE
  5
477
100
AcDbEntity
  8
LAYER0
 62
         3
100
AcDbLine
 10
-24.7620106341
 20
5.8492501526
 30
0.0
 11
-24.6351595741
 21
5.9041871412
 31
0.0
  0
LINE
  5
478
100
AcDbEntity
  8
LAYER0
 62
         3
100
AcDbLine
 10
-24.6351595741
 20
5.9041871412
 30
0.0
 11
-24.5544721636
 21
5.9347544473
 31
0.0
  0
LINE
  5
479
100
AcDbEntity
  8
LAYER0
 62
         3
100
AcDbLine
 10
-24.5544721636
 20
5.9347544473
 30
0.0
 11
-24.4829167385
 21
5.9573451711
 31
0.0
  0
LINE
  5
47A
100
AcDbEntity
  8
LAYER0
 62
         3
100
AcDbLine
 10
-24.4829167385
 20
5.9573451711
 30
0.0
 11
-24.419603832
 21
5.9714984278
 31
0.0
  0
LINE
  5
47B
100
AcDbEntity
  8
LAYER0
 62
         3
100
AcDbLine
 10
-24.419603832
 20
5.9714984278
 30
0.0
 11
-24.3698166922
 21
5.9737364484
 31
0.0
  0
LINE
  5
47C
100
AcDbEntity
  8
LAYER0
 62
         3
100
AcDbLine
 10
-24.3698166922
 20
5.9737364484
 30
0.0
 11
-24.3411157534
 21
5.9651675804
 31
0.0
  0
LINE
  5
47D
100
AcDbEntity
  8
LAYER0
 62
         3
100
AcDbLine
 10
-24.3411157534
 20
5.9651675804
 30
0.0
 11
-24.3211434878
 21
5.9490065058
 31
0.0
  0
LINE
  5
47E
100
AcDbEntity
  8
LAYER0
 62
         3
100
AcDbLine
 10
-24.3211434878
 20
5.9490065058
 30
0.0
 11
-24.2957467452
 21
5.904030679
 31
0.0
  0
ENDBLK
  5
47F
100
AcDbEntity
  8
0
100
AcDbBlockEnd
  0
BLOCK
  5
483
100
AcDbEntity
  8
0
100
AcDbBlockBegin
  2
CLUMP94
 70
         0
 10
0.0
 20
0.0
 30
0.0
  3

  1

  0
INSERT
  5
485
100
AcDbEntity
  8
0
100
AcDbBlockReference
  2
CLUMP95
 10
0.0
 20
0.0
 30
0.0
  0
ENDBLK
  5
49B
100
AcDbEntity
  8
0
100
AcDbBlockEnd
  0
BLOCK
  5
486
100
AcDbEntity
  8
0
100
AcDbBlockBegin
  2
CLUMP95
 70
         0
 10
0.0
 20
0.0
 30
0.0
  3

  1

  0
LINE
  5
487
100
AcDbEntity
  8
LAYER0
 62
         3
100
AcDbLine
 10
-36.937754532
 20
25.9025270774
 30
0.0
 11
-36.9377573259
 21
25.9041587545
 31
0.0
  0
LINE
  5
488
100
AcDbEntity
  8
LAYER0
 62
         3
100
AcDbLine
 10
-36.9377573259
 20
25.9041587545
 30
0.0
 11
-36.9377628037
 21
25.9072893486
 31
0.0
  0
LINE
  5
489
100
AcDbEntity
  8
LAYER0
 62
         3
100
AcDbLine
 10
-36.9377628037
 20
25.9072893486
 30
0.0
 11
-36.9377712958
 21
25.9121569528
 31
0.0
  0
LINE
  5
48A
100
AcDbEntity
  8
LAYER0
 62
         3
100
AcDbLine
 10
-36.9377712958
 20
25.9121569528
 30
0.0
 11
-36.9377822728
 21
25.9184873028
 31
0.0
  0
LINE
  5
48B
100
AcDbEntity
  8
LAYER0
 62
         3
100
AcDbLine
 10
-36.9377822728
 20
25.9184873028
 30
0.0
 11
-36.9377955102
 21
25.9260932638
 31
0.0
  0
LINE
  5
48C
100
AcDbEntity
  8
LAYER0
 62
         3
100
AcDbLine
 10
-36.9377955102
 20
25.9260932638
 30
0.0
 11
-36.9378110124
 21
25.9349242828
 31
0.0
  0
LINE
  5
48D
100
AcDbEntity
  8
LAYER0
 62
         3
100
AcDbLine
 10
-36.9378110124
 20
25.9349242828
 30
0.0
 11
-36.9378281064
 21
25.9446563853
 31
0.0
  0
LINE
  5
48E
100
AcDbEntity
  8
LAYER0
 62
         3
100
AcDbLine
 10
-36.9378281064
 20
25.9446563853
 30
0.0
 11
-36.9378653593
 21
25.9660171999
 31
0.0
  0
LINE
  5
48F
100
AcDbEntity
  8
LAYER0
 62
         3
100
AcDbLine
 10
-36.9378653593
 20
25.9660171999
 30
0.0
 11
-36.9379035436
 21
25.9878995551
 31
0.0
  0
LINE
  5
490
100
AcDbEntity
  8
LAYER0
 62
         3
100
AcDbLine
 10
-36.9379035436
 20
25.9878995551
 30
0.0
 11
-36.9379216072
 21
25.9982664696
 31
0.0
  0
LINE
  5
491
100
AcDbEntity
  8
LAYER0
 62
         3
100
AcDbLine
 10
-36.9379216072
 20
25.9982664696
 30
0.0
 11
-36.9379380025
 21
26.0077777042
 31
0.0
  0
LINE
  5
492
100
AcDbEntity
  8
LAYER0
 62
         3
100
AcDbLine
 10
-36.9379380025
 20
26.0077777042
 30
0.0
 11
-36.9379523269
 21
26.0162371435
 31
0.0
  0
LINE
  5
493
100
AcDbEntity
  8
LAYER0
 62
         3
100
AcDbLine
 10
-36.9379523269
 20
26.0162371435
 30
0.0
 11
-36.9379640795
 21
26.0231408013
 31
0.0
  0
LINE
  5
494
100
AcDbEntity
  8
LAYER0
 62
         3
100
AcDbLine
 10
-36.9379640795
 20
26.0231408013
 30
0.0
 11
-36.9379730531
 21
26.0282487804
 31
0.0
  0
LINE
  5
495
100
AcDbEntity
  8
LAYER0
 62
         3
100
AcDbLine
 10
-36.9379730531
 20
26.0282487804
 30
0.0
 11
-36.9379789807
 21
26.0319250359
 31
0.0
  0
LINE
  5
496
100
AcDbEntity
  8
LAYER0
 62
         3
100
AcDbLine
 10
-36.9379789807
 20
26.0319250359
 30
0.0
 11
-36.9379810562
 21
26.0335192818
 31
0.0
  0
LINE
  5
497
100
AcDbEntity
  8
LAYER0
 62
         3
100
AcDbLine
 10
-36.9379810562
 20
26.0335192818
 30
0.0
 11
-36.9379815907
 21
26.0337891305
 31
0.0
  0
LINE
  5
498
100
AcDbEntity
  8
LAYER0
 62
         3
100
AcDbLine
 10
-36.9379815907
 20
26.0337891305
 30
0.0
 11
-36.9379817747
 21
26.0334933831
 31
0.0
  0
LINE
  5
499
100
AcDbEntity
  8
LAYER0
 62
         3
100
AcDbLine
 10
-36.9379817747
 20
26.0334933831
 30
0.0
 11
-36.9379817747
 21
26.0334673061
 31
0.0
  0
ENDBLK
  5
49A
100
AcDbEntity
  8
0
100
AcDbBlockEnd
  0
BLOCK
  5
49E
100
AcDbEntity
  8
0
100
AcDbBlockBegin
  2
CLUMP96
 70
         0
 10
0.0
 20
0.0
 30
0.0
  3

  1

  0
INSERT
  5
4A0
100
AcDbEntity
  8
0
100
AcDbBlockReference
  2
CLUMP97
 10
0.0
 20
0.0
 30
0.0
  0
ENDBLK
  5
4B7
100
AcDbEntity
  8
0
100
AcDbBlockEnd
  0
BLOCK
  5
4A1
100
AcDbEntity
  8
0
100
AcDbBlockBegin
  2
CLUMP97
 70
         0
 10
0.0
 20
0.0
 30
0.0
  3

  1

  0
LINE
  5
4A2
100
AcDbEntity
  8
LAYER0
 62
         3
100
AcDbLine
 10
-36.5593227796
 20
45.9025340809
 30
0.0
 11
-36.5593227796
 21
45.9025266303
 31
0.0
  0
LINE
  5
4A3
100
AcDbEntity
  8
LAYER0
 62
         3
100
AcDbLine
 10
-36.5593227796
 20
45.9025266303
 30
0.0
 11
-36.5593230294
 21
45.9023581859
 31
0.0
  0
LINE
  5
4A4
100
AcDbEntity
  8
LAYER0
 62
         3
100
AcDbLine
 10
-36.5593230294
 20
45.9023581859
 30
0.0
 11
-36.5593237536
 21
45.9027275492
 31
0.0
  0
LINE
  5
4A5
100
AcDbEntity
  8
LAYER0
 62
         3
100
AcDbLine
 10
-36.5593237536
 20
45.9027275492
 30
0.0
 11
-36.5593265049
 21
45.9045718147
 31
0.0
  0
LINE
  5
4A6
100
AcDbEntity
  8
LAYER0
 62
         3
100
AcDbLine
 10
-36.5593265049
 20
45.9045718147
 30
0.0
 11
-36.5593325054
 21
45.908191338
 31
0.0
  0
LINE
  5
4A7
100
AcDbEntity
  8
LAYER0
 62
         3
100
AcDbLine
 10
-36.5593325054
 20
45.908191338
 30
0.0
 11
-36.5593414061
 21
45.9131697847
 31
0.0
  0
LINE
  5
4A8
100
AcDbEntity
  8
LAYER0
 62
         3
100
AcDbLine
 10
-36.5593414061
 20
45.9131697847
 30
0.0
 11
-36.5593533727
 21
45.9197576937
 31
0.0
  0
LINE
  5
4A9
100
AcDbEntity
  8
LAYER0
 62
         3
100
AcDbLine
 10
-36.5593533727
 20
45.9197576937
 30
0.0
 11
-36.5593674831
 21
45.9277095927
 31
0.0
  0
LINE
  5
4AA
100
AcDbEntity
  8
LAYER0
 62
         3
100
AcDbLine
 10
-36.5593674831
 20
45.9277095927
 30
0.0
 11
-36.5593830453
 21
45.9368173704
 31
0.0
  0
LINE
  5
4AB
100
AcDbEntity
  8
LAYER0
 62
         3
100
AcDbLine
 10
-36.5593830453
 20
45.9368173704
 30
0.0
 11
-36.5594000794
 21
45.9467607273
 31
0.0
  0
LINE
  5
4AC
100
AcDbEntity
  8
LAYER0
 62
         3
100
AcDbLine
 10
-36.5594000794
 20
45.9467607273
 30
0.0
 11
-36.5594382636
 21
45.9683301581
 31
0.0
  0
LINE
  5
4AD
100
AcDbEntity
  8
LAYER0
 62
         3
100
AcDbLine
 10
-36.5594382636
 20
45.9683301581
 30
0.0
 11
-36.5594755165
 21
45.9900597765
 31
0.0
  0
LINE
  5
4AE
100
AcDbEntity
  8
LAYER0
 62
         3
100
AcDbLine
 10
-36.5594755165
 20
45.9900597765
 30
0.0
 11
-36.5594930525
 21
46.0002326188
 31
0.0
  0
LINE
  5
4AF
100
AcDbEntity
  8
LAYER0
 62
         3
100
AcDbLine
 10
-36.5594930525
 20
46.0002326188
 30
0.0
 11
-36.5595090442
 21
46.0094648136
 31
0.0
  0
LINE
  5
4B0
100
AcDbEntity
  8
LAYER0
 62
         3
100
AcDbLine
 10
-36.5595090442
 20
46.0094648136
 30
0.0
 11
-36.5595229092
 21
46.0175429472
 31
0.0
  0
LINE
  5
4B1
100
AcDbEntity
  8
LAYER0
 62
         3
100
AcDbLine
 10
-36.5595229092
 20
46.0175429472
 30
0.0
 11
-36.5595341899
 21
46.0241908862
 31
0.0
  0
LINE
  5
4B2
100
AcDbEntity
  8
LAYER0
 62
         3
100
AcDbLine
 10
-36.5595341899
 20
46.0241908862
 30
0.0
 11
-36.5595427281
 21
46.0292447274
 31
0.0
  0
LINE
  5
4B3
100
AcDbEntity
  8
LAYER0
 62
         3
100
AcDbLine
 10
-36.5595427281
 20
46.0292447274
 30
0.0
 11
-36.5595458495
 21
46.0310485821
 31
0.0
  0
LINE
  5
4B4
100
AcDbEntity
  8
LAYER0
 62
         3
100
AcDbLine
 10
-36.5595458495
 20
46.0310485821
 30
0.0
 11
-36.5595481597
 21
46.0323082937
 31
0.0
  0
LINE
  5
4B5
100
AcDbEntity
  8
LAYER0
 62
         3
100
AcDbLine
 10
-36.5595481597
 20
46.0323082937
 30
0.0
 11
-36.5595509537
 21
46.033492936
 31
0.0
  0
ENDBLK
  5
4B6
100
AcDbEntity
  8
0
100
AcDbBlockEnd
  0
BLOCK
  5
4BA
100
AcDbEntity
  8
0
100
AcDbBlockBegin
  2
CLUMP98
 70
         0
 10
0.0
 20
0.0
 30
0.0
  3

  1

  0
INSERT
  5
4BC
100
AcDbEntity
  8
0
100
AcDbBlockReference
  2
CLUMP99
 10
0.0
 20
0.0
 30
0.0
  0
ENDBLK
  5
4C8
100
AcDbEntity
  8
0
100
AcDbBlockEnd
  0
BLOCK
  5
4BD
100
AcDbEntity
  8
0
100
AcDbBlockBegin
  2
CLUMP99
 70
         0
 10
0.0
 20
0.0
 30
0.0
  3

  1

  0
LINE
  5
4BE
100
AcDbEntity
  8
LAYER0
 62
         3
100
AcDbLine
 10
-21.1665815912
 20
29.1598054303
 30
0.0
 11
-21.1868708112
 21
29.3104412756
 31
0.0
  0
LINE
  5
4BF
100
AcDbEntity
  8
LAYER0
 62
         3
100
AcDbLine
 10
-21.1868708112
 20
29.3104412756
 30
0.0
 11
-21.202180982
 21
29.3842027212
 31
0.0
  0
LINE
  5
4C0
100
AcDbEntity
  8
LAYER0
 62
         3
100
AcDbLine
 10
-21.202180982
 20
29.3842027212
 30
0.0
 11
-21.2236898258
 21
29.4560963942
 31
0.0
  0
LINE
  5
4C1
100
AcDbEntity
  8
LAYER0
 62
         3
100
AcDbLine
 10
-21.2236898258
 20
29.4560963942
 30
0.0
 11
-21.2537578464
 21
29.5271524082
 31
0.0
  0
LINE
  5
4C2
100
AcDbEntity
  8
LAYER0
 62
         3
100
AcDbLine
 10
-21.2537578464
 20
29.5271524082
 30
0.0
 11
-21.2914339318
 21
29.5949692885
 31
0.0
  0
LINE
  5
4C3
100
AcDbEntity
  8
LAYER0
 62
         3
100
AcDbLine
 10
-21.2914339318
 20
29.5949692885
 30
0.0
 11
-21.3356558506
 21
29.6589204188
 31
0.0
  0
LINE
  5
4C4
100
AcDbEntity
  8
LAYER0
 62
         3
100
AcDbLine
 10
-21.3356558506
 20
29.6589204188
 30
0.0
 11
-21.3853613712
 21
29.718379183
 31
0.0
  0
LINE
  5
4C5
100
AcDbEntity
  8
LAYER0
 62
         3
100
AcDbLine
 10
-21.3853613712
 20
29.718379183
 30
0.0
 11
-21.4632927646
 21
29.7952406967
 31
0.0
  0
LINE
  5
4C6
100
AcDbEntity
  8
LAYER0
 62
         3
100
AcDbLine
 10
-21.4632927646
 20
29.7952406967
 30
0.0
 11
-21.5457085759
 21
29.8669102325
 31
0.0
  0
ENDBLK
  5
4C7
100
AcDbEntity
  8
0
100
AcDbBlockEnd
  0
BLOCK
  5
4CB
100
AcDbEntity
  8
0
100
AcDbBlockBegin
  2
CLUMP100
 70
         0
 10
0.0
 20
0.0
 30
0.0
  3

  1

  0
INSERT
  5
4CD
100
AcDbEntity
  8
0
100
AcDbBlockReference
  2
CLUMP101
 10
0.0
 20
0.0
 30
0.0
  0
ENDBLK
  5
4D9
100
AcDbEntity
  8
0
100
AcDbBlockEnd
  0
BLOCK
  5
4CE
100
AcDbEntity
  8
0
100
AcDbBlockBegin
  2
CLUMP101
 70
         0
 10
0.0
 20
0.0
 30
0.0
  3

  1

  0
LINE
  5
4CF
100
AcDbEntity
  8
LAYER0
 62
         3
100
AcDbLine
 10
-32.0457848027
 20
29.8669102325
 30
0.0
 11
-32.1709839868
 21
29.7497063187
 31
0.0
  0
LINE
  5
4D0
100
AcDbEntity
  8
LAYER0
 62
         3
100
AcDbLine
 10
-32.1709839868
 20
29.7497063187
 30
0.0
 11
-32.2290517631
 21
29.6871524948
 31
0.0
  0
LINE
  5
4D1
100
AcDbEntity
  8
LAYER0
 62
         3
100
AcDbLine
 10
-32.2290517631
 20
29.6871524948
 30
0.0
 11
-32.2816813603
 21
29.6198564304
 31
0.0
  0
LINE
  5
4D2
100
AcDbEntity
  8
LAYER0
 62
         3
100
AcDbLine
 10
-32.2816813603
 20
29.6198564304
 30
0.0
 11
-32.3257539757
 21
29.5493752812
 31
0.0
  0
LINE
  5
4D3
100
AcDbEntity
  8
LAYER0
 62
         3
100
AcDbLine
 10
-32.3257539757
 20
29.5493752812
 30
0.0
 11
-32.3622931366
 21
29.4741912162
 31
0.0
  0
LINE
  5
4D4
100
AcDbEntity
  8
LAYER0
 62
         3
100
AcDbLine
 10
-32.3622931366
 20
29.4741912162
 30
0.0
 11
-32.3905171069
 21
29.3954890023
 31
0.0
  0
LINE
  5
4D5
100
AcDbEntity
  8
LAYER0
 62
         3
100
AcDbLine
 10
-32.3905171069
 20
29.3954890023
 30
0.0
 11
-32.4096441507
 21
29.3144534065
 31
0.0
  0
LINE
  5
4D6
100
AcDbEntity
  8
LAYER0
 62
         3
100
AcDbLine
 10
-32.4096441507
 20
29.3144534065
 30
0.0
 11
-32.4194461582
 21
29.2373815188
 31
0.0
  0
LINE
  5
4D7
100
AcDbEntity
  8
LAYER0
 62
         3
100
AcDbLine
 10
-32.4194461582
 20
29.2373815188
 30
0.0
 11
-32.4249117874
 21
29.1598054303
 31
0.0
  0
ENDBLK
  5
4D8
100
AcDbEntity
  8
0
100
AcDbBlockEnd
  0
BLOCK
  5
4DC
100
AcDbEntity
  8
0
100
AcDbBlockBegin
  2
CLUMP102
 70
         0
 10
0.0
 20
0.0
 30
0.0
  3

  1

  0
INSERT
  5
4DE
100
AcDbEntity
  8
0
100
AcDbBlockReference
  2
CLUMP103
 10
0.0
 20
0.0
 30
0.0
  0
ENDBLK
  5
4E5
100
AcDbEntity
  8
0
100
AcDbBlockEnd
  0
BLOCK
  5
4DF
100
AcDbEntity
  8
0
100
AcDbBlockBegin
  2
CLUMP103
 70
         0
 10
0.0
 20
0.0
 30
0.0
  3

  1

  0
LINE
  5
4E0
100
AcDbEntity
  8
LAYER0
 62
         3
100
AcDbLine
 10
-21.5457085759
 20
29.8669102325
 30
0.0
 11
-22.5710178964
 21
30.7236152424
 31
0.0
  0
LINE
  5
4E1
100
AcDbEntity
  8
LAYER0
 62
         3
100
AcDbLine
 10
-22.5710178964
 20
30.7236152424
 30
0.0
 11
-23.0943539526
 21
31.1406061503
 31
0.0
  0
LINE
  5
4E2
100
AcDbEntity
  8
LAYER0
 62
         3
100
AcDbLine
 10
-23.0943539526
 20
31.1406061503
 30
0.0
 11
-23.6308657803
 21
31.5398859514
 31
0.0
  0
LINE
  5
4E3
100
AcDbEntity
  8
LAYER0
 62
         3
100
AcDbLine
 10
-23.6308657803
 20
31.5398859514
 30
0.0
 11
-24.5031373814
 21
32.1275691225
 31
0.0
  0
ENDBLK
  5
4E4
100
AcDbEntity
  8
0
100
AcDbBlockEnd
  0
BLOCK
  5
4E8
100
AcDbEntity
  8
0
100
AcDbBlockBegin
  2
CLUMP104
 70
         0
 10
0.0
 20
0.0
 30
0.0
  3

  1

  0
INSERT
  5
4EA
100
AcDbEntity
  8
0
100
AcDbBlockReference
  2
CLUMP105
 10
0.0
 20
0.0
 30
0.0
  0
ENDBLK
  5
4F1
100
AcDbEntity
  8
0
100
AcDbBlockEnd
  0
BLOCK
  5
4EB
100
AcDbEntity
  8
0
100
AcDbBlockBegin
  2
CLUMP105
 70
         0
 10
0.0
 20
0.0
 30
0.0
  3

  1

  0
LINE
  5
4EC
100
AcDbEntity
  8
LAYER0
 62
         3
100
AcDbLine
 10
-29.0883559972
 20
32.1275691225
 30
0.0
 11
-29.9606275983
 21
31.5398859514
 31
0.0
  0
LINE
  5
4ED
100
AcDbEntity
  8
LAYER0
 62
         3
100
AcDbLine
 10
-29.9606275983
 20
31.5398859514
 30
0.0
 11
-30.4962512719
 21
31.1412861264
 31
0.0
  0
LINE
  5
4EE
100
AcDbEntity
  8
LAYER0
 62
         3
100
AcDbLine
 10
-30.4962512719
 20
31.1412861264
 30
0.0
 11
-31.0187357716
 21
30.7250234021
 31
0.0
  0
LINE
  5
4EF
100
AcDbEntity
  8
LAYER0
 62
         3
100
AcDbLine
 10
-31.0187357716
 20
30.7250234021
 30
0.0
 11
-32.0457848027
 21
29.8669102325
 31
0.0
  0
ENDBLK
  5
4F0
100
AcDbEntity
  8
0
100
AcDbBlockEnd
  0
BLOCK
  5
4F4
100
AcDbEntity
  8
0
100
AcDbBlockBegin
  2
CLUMP106
 70
         0
 10
0.0
 20
0.0
 30
0.0
  3

  1

  0
INSERT
  5
4F6
100
AcDbEntity
  8
0
100
AcDbBlockReference
  2
CLUMP107
 10
0.0
 20
0.0
 30
0.0
  0
ENDBLK
  5
501
100
AcDbEntity
  8
0
100
AcDbBlockEnd
  0
BLOCK
  5
4F7
100
AcDbEntity
  8
0
100
AcDbBlockBegin
  2
CLUMP107
 70
         0
 10
0.0
 20
0.0
 30
0.0
  3

  1

  0
LINE
  5
4F8
100
AcDbEntity
  8
LAYER1
 62
         3
100
AcDbLine
 10
-29.2937459197
 20
32.4811252488
 30
0.0
 11
-29.2637564015
 21
32.4295001759
 31
0.0
  0
LINE
  5
4F9
100
AcDbEntity
  8
LAYER1
 62
         3
100
AcDbLine
 10
-29.2637564015
 20
32.4295001759
 30
0.0
 11
-29.2341959901
 21
32.3786164357
 31
0.0
  0
LINE
  5
4FA
100
AcDbEntity
  8
LAYER1
 62
         3
100
AcDbLine
 10
-29.2341959901
 20
32.3786164357
 30
0.0
 11
-29.2054875061
 21
32.3291967346
 31
0.0
  0
LINE
  5
4FB
100
AcDbEntity
  8
LAYER1
 62
         3
100
AcDbLine
 10
-29.2054875061
 20
32.3291967346
 30
0.0
 11
-29.1780421283
 21
32.281952603
 31
0.0
  0
LINE
  5
4FC
100
AcDbEntity
  8
LAYER1
 62
         3
100
AcDbLine
 10
-29.1780421283
 20
32.281952603
 30
0.0
 11
-29.1522521764
 21
32.2375583185
 31
0.0
  0
LINE
  5
4FD
100
AcDbEntity
  8
LAYER1
 62
         3
100
AcDbLine
 10
-29.1522521764
 20
32.2375583185
 30
0.0
 11
-29.1284869198
 21
32.1966509058
 31
0.0
  0
LINE
  5
4FE
100
AcDbEntity
  8
LAYER1
 62
         3
100
AcDbLine
 10
-29.1284869198
 20
32.1966509058
 30
0.0
 11
-29.1070860583
 21
32.15981151
 31
0.0
  0
LINE
  5
4FF
100
AcDbEntity
  8
LAYER1
 62
         3
100
AcDbLine
 10
-29.1070860583
 20
32.15981151
 30
0.0
 11
-29.0883559972
 21
32.1275691225
 31
0.0
  0
ENDBLK
  5
500
100
AcDbEntity
  8
0
100
AcDbBlockEnd
  0
BLOCK
  5
55B
100
AcDbEntity
  8
0
100
AcDbBlockBegin
  2
CLUMP108
 70
         0
 10
0.0
 20
0.0
 30
0.0
  3

  1

  0
INSERT
  5
55D
100
AcDbEntity
  8
0
100
AcDbBlockReference
  2
CLUMP109
 10
0.0
 20
0.0
 30
0.0
  0
ENDBLK
  5
574
100
AcDbEntity
  8
0
100
AcDbBlockEnd
  0
BLOCK
  5
55E
100
AcDbEntity
  8
0
100
AcDbBlockBegin
  2
CLUMP109
 70
         0
 10
0.0
 20
0.0
 30
0.0
  3

  1

  0
LINE
  5
55F
100
AcDbEntity
  8
LAYER1
 62
         3
100
AcDbLine
 10
-24.2957467452
 20
-11.9690513981
 30
0.0
 11
-24.3153967202
 21
-11.9018735874
 31
0.0
  0
LINE
  5
560
100
AcDbEntity
  8
LAYER1
 62
         3
100
AcDbLine
 10
-24.3153967202
 20
-11.9018735874
 30
0.0
 11
-24.3973351788
 21
-11.8175684053
 31
0.0
  0
LINE
  5
561
100
AcDbEntity
  8
LAYER1
 62
         3
100
AcDbLine
 10
-24.3973351788
 20
-11.8175684053
 30
0.0
 11
-24.5409961097
 21
-11.7371617395
 31
0.0
  0
LINE
  5
562
100
AcDbEntity
  8
LAYER1
 62
         3
100
AcDbLine
 10
-24.5409961097
 20
-11.7371617395
 30
0.0
 11
-24.7426819295
 21
-11.6627225231
 31
0.0
  0
LINE
  5
563
100
AcDbEntity
  8
LAYER1
 62
         3
100
AcDbLine
 10
-24.7426819295
 20
-11.6627225231
 30
0.0
 11
-24.9972026102
 21
-11.5961667195
 31
0.0
  0
LINE
  5
564
100
AcDbEntity
  8
LAYER1
 62
         3
100
AcDbLine
 10
-24.9972026102
 20
-11.5961667195
 30
0.0
 11
-25.2980082767
 21
-11.539206798
 31
0.0
  0
LINE
  5
565
100
AcDbEntity
  8
LAYER1
 62
         3
100
AcDbLine
 10
-25.2980082767
 20
-11.539206798
 30
0.0
 11
-25.6373576593
 21
-11.4933088932
 31
0.0
  0
LINE
  5
566
100
AcDbEntity
  8
LAYER1
 62
         3
100
AcDbLine
 10
-25.6373576593
 20
-11.4933088932
 30
0.0
 11
-26.0065178043
 21
-11.4596540385
 31
0.0
  0
LINE
  5
567
100
AcDbEntity
  8
LAYER1
 62
         3
100
AcDbLine
 10
-26.0065178043
 20
-11.4596540385
 30
0.0
 11
-26.3959884358
 21
-11.4391082476
 31
0.0
  0
LINE
  5
568
100
AcDbEntity
  8
LAYER1
 62
         3
100
AcDbLine
 10
-26.3959884358
 20
-11.4391082476
 30
0.0
 11
-26.7957466893
 21
-11.4322005117
 31
0.0
  0
LINE
  5
569
100
AcDbEntity
  8
LAYER1
 62
         3
100
AcDbLine
 10
-26.7957466893
 20
-11.4322005117
 30
0.0
 11
-27.1955049428
 21
-11.4391082476
 31
0.0
  0
LINE
  5
56A
100
AcDbEntity
  8
LAYER1
 62
         3
100
AcDbLine
 10
-27.1955049428
 20
-11.4391082476
 30
0.0
 11
-27.5849755743
 21
-11.4596540385
 31
0.0
  0
LINE
  5
56B
100
AcDbEntity
  8
LAYER1
 62
         3
100
AcDbLine
 10
-27.5849755743
 20
-11.4596540385
 30
0.0
 11
-27.9541357193
 21
-11.4933088932
 31
0.0
  0
LINE
  5
56C
100
AcDbEntity
  8
LAYER1
 62
         3
100
AcDbLine
 10
-27.9541357193
 20
-11.4933088932
 30
0.0
 11
-28.2934851019
 21
-11.539206798
 31
0.0
  0
LINE
  5
56D
100
AcDbEntity
  8
LAYER1
 62
         3
100
AcDbLine
 10
-28.2934851019
 20
-11.539206798
 30
0.0
 11
-28.5942907684
 21
-11.5961667195
 31
0.0
  0
LINE
  5
56E
100
AcDbEntity
  8
LAYER1
 62
         3
100
AcDbLine
 10
-28.5942907684
 20
-11.5961667195
 30
0.0
 11
-28.8488114491
 21
-11.6627225231
 31
0.0
  0
LINE
  5
56F
100
AcDbEntity
  8
LAYER1
 62
         3
100
AcDbLine
 10
-28.8488114491
 20
-11.6627225231
 30
0.0
 11
-29.0504972689
 21
-11.7371617395
 31
0.0
  0
LINE
  5
570
100
AcDbEntity
  8
LAYER1
 62
         3
100
AcDbLine
 10
-29.0504972689
 20
-11.7371617395
 30
0.0
 11
-29.1941581998
 21
-11.8175684053
 31
0.0
  0
LINE
  5
571
100
AcDbEntity
  8
LAYER1
 62
         3
100
AcDbLine
 10
-29.1941581998
 20
-11.8175684053
 30
0.0
 11
-29.2760966584
 21
-11.9018735874
 31
0.0
  0
LINE
  5
572
100
AcDbEntity
  8
LAYER1
 62
         3
100
AcDbLine
 10
-29.2760966584
 20
-11.9018735874
 30
0.0
 11
-29.2957466334
 21
-11.9690513981
 31
0.0
  0
ENDBLK
  5
573
100
AcDbEntity
  8
0
100
AcDbBlockEnd
  0
BLOCK
  5
577
100
AcDbEntity
  8
0
100
AcDbBlockBegin
  2
CLUMP110
 70
         0
 10
0.0
 20
0.0
 30
0.0
  3

  1

  0
INSERT
  5
579
100
AcDbEntity
  8
0
100
AcDbBlockReference
  2
CLUMP111
 10
0.0
 20
0.0
 30
0.0
  0
ENDBLK
  5
590
100
AcDbEntity
  8
0
100
AcDbBlockEnd
  0
BLOCK
  5
57A
100
AcDbEntity
  8
0
100
AcDbBlockBegin
  2
CLUMP111
 70
         0
 10
0.0
 20
0.0
 30
0.0
  3

  1

  0
LINE
  5
57B
100
AcDbEntity
  8
LAYER1
 62
         3
100
AcDbLine
 10
-29.2957466334
 20
-11.9695785267
 30
0.0
 11
-29.2722977936
 21
-11.8969900811
 31
0.0
  0
LINE
  5
57C
100
AcDbEntity
  8
LAYER1
 62
         3
100
AcDbLine
 10
-29.2722977936
 20
-11.8969900811
 30
0.0
 11
-29.1867511585
 21
-11.814430896
 31
0.0
  0
LINE
  5
57D
100
AcDbEntity
  8
LAYER1
 62
         3
100
AcDbLine
 10
-29.1867511585
 20
-11.814430896
 30
0.0
 11
-29.0406550519
 21
-11.7358006116
 31
0.0
  0
LINE
  5
57E
100
AcDbEntity
  8
LAYER1
 62
         3
100
AcDbLine
 10
-29.0406550519
 20
-11.7358006116
 30
0.0
 11
-28.8377096184
 21
-11.6630903955
 31
0.0
  0
LINE
  5
57F
100
AcDbEntity
  8
LAYER1
 62
         3
100
AcDbLine
 10
-28.8377096184
 20
-11.6630903955
 30
0.0
 11
-28.5830541287
 21
-11.598141589
 31
0.0
  0
LINE
  5
580
100
AcDbEntity
  8
LAYER1
 62
         3
100
AcDbLine
 10
-28.5830541287
 20
-11.598141589
 30
0.0
 11
-28.2831371768
 21
-11.542599024
 31
0.0
  0
LINE
  5
581
100
AcDbEntity
  8
LAYER1
 62
         3
100
AcDbLine
 10
-28.2831371768
 20
-11.542599024
 30
0.0
 11
-27.945553931
 21
-11.4978692306
 31
0.0
  0
LINE
  5
582
100
AcDbEntity
  8
LAYER1
 62
         3
100
AcDbLine
 10
-27.945553931
 20
-11.4978692306
 30
0.0
 11
-27.5788532343
 21
-11.4650848133
 31
0.0
  0
LINE
  5
583
100
AcDbEntity
  8
LAYER1
 62
         3
100
AcDbLine
 10
-27.5788532343
 20
-11.4650848133
 30
0.0
 11
-27.192321333
 21
-11.4450760463
 31
0.0
  0
LINE
  5
584
100
AcDbEntity
  8
LAYER1
 62
         3
100
AcDbLine
 10
-27.192321333
 20
-11.4450760463
 30
0.0
 11
-26.7957466893
 21
-11.4383496854
 31
0.0
  0
LINE
  5
585
100
AcDbEntity
  8
LAYER1
 62
         3
100
AcDbLine
 10
-26.7957466893
 20
-11.4383496854
 30
0.0
 11
-26.3991720456
 21
-11.4450760463
 31
0.0
  0
LINE
  5
586
100
AcDbEntity
  8
LAYER1
 62
         3
100
AcDbLine
 10
-26.3991720456
 20
-11.4450760463
 30
0.0
 11
-26.0126401443
 21
-11.4650848133
 31
0.0
  0
LINE
  5
587
100
AcDbEntity
  8
LAYER1
 62
         3
100
AcDbLine
 10
-26.0126401443
 20
-11.4650848133
 30
0.0
 11
-25.6459394476
 21
-11.4978692306
 31
0.0
  0
LINE
  5
588
100
AcDbEntity
  8
LAYER1
 62
         3
100
AcDbLine
 10
-25.6459394476
 20
-11.4978692306
 30
0.0
 11
-25.3083562018
 21
-11.542599024
 31
0.0
  0
LINE
  5
589
100
AcDbEntity
  8
LAYER1
 62
         3
100
AcDbLine
 10
-25.3083562018
 20
-11.542599024
 30
0.0
 11
-25.0084392499
 21
-11.598141589
 31
0.0
  0
LINE
  5
58A
100
AcDbEntity
  8
LAYER1
 62
         3
100
AcDbLine
 10
-25.0084392499
 20
-11.598141589
 30
0.0
 11
-24.7537837602
 21
-11.6630903955
 31
0.0
  0
LINE
  5
58B
100
AcDbEntity
  8
LAYER1
 62
         3
100
AcDbLine
 10
-24.7537837602
 20
-11.6630903955
 30
0.0
 11
-24.5508383267
 21
-11.7358006116
 31
0.0
  0
LINE
  5
58C
100
AcDbEntity
  8
LAYER1
 62
         3
100
AcDbLine
 10
-24.5508383267
 20
-11.7358006116
 30
0.0
 11
-24.4047422201
 21
-11.814430896
 31
0.0
  0
LINE
  5
58D
100
AcDbEntity
  8
LAYER1
 62
         3
100
AcDbLine
 10
-24.4047422201
 20
-11.814430896
 30
0.0
 11
-24.319195585
 21
-11.8969900811
 31
0.0
  0
LINE
  5
58E
100
AcDbEntity
  8
LAYER1
 62
         3
100
AcDbLine
 10
-24.319195585
 20
-11.8969900811
 30
0.0
 11
-24.2957467452
 21
-11.9695785267
 31
0.0
  0
ENDBLK
  5
58F
100
AcDbEntity
  8
0
100
AcDbBlockEnd
  0
BLOCK
  5
5B1
100
AcDbEntity
  8
0
100
AcDbBlockBegin
  2
CLUMP112
 70
         0
 10
0.0
 20
0.0
 30
0.0
  3

  1

  0
INSERT
  5
5B3
100
AcDbEntity
  8
0
100
AcDbBlockReference
  2
CLUMP113
 10
0.0
 20
0.0
 30
0.0
  0
ENDBLK
  5
5BA
100
AcDbEntity
  8
0
100
AcDbBlockEnd
  0
BLOCK
  5
5B4
100
AcDbEntity
  8
0
100
AcDbBlockBegin
  2
CLUMP113
 70
         0
 10
0.0
 20
0.0
 30
0.0
  3

  1

  0
LINE
  5
5B5
100
AcDbEntity
  8
LAYER1
 62
         3
100
AcDbLine
 10
17.8895999699
 20
-0.4209227206
 30
0.0
 11
18.0308611154
 21
-0.4519813971
 31
0.0
  0
LINE
  5
5B6
100
AcDbEntity
  8
LAYER1
 62
         3
100
AcDbLine
 10
18.0308611154
 20
-0.4519813971
 30
0.0
 11
18.1335245281
 21
-0.4745538624
 31
0.0
  0
LINE
  5
5B7
100
AcDbEntity
  8
LAYER1
 62
         3
100
AcDbLine
 10
18.1335245281
 20
-0.4745538624
 30
0.0
 11
18.1958337336
 21
-0.4882545488
 31
0.0
  0
LINE
  5
5B8
100
AcDbEntity
  8
LAYER1
 62
         3
100
AcDbLine
 10
18.1958337336
 20
-0.4882545488
 30
0.0
 11
18.2167214363
 21
-0.4928469004
 31
0.0
  0
ENDBLK
  5
5B9
100
AcDbEntity
  8
0
100
AcDbBlockEnd
  0
BLOCK
  5
5BD
100
AcDbEntity
  8
0
100
AcDbBlockBegin
  2
CLUMP114
 70
         0
 10
0.0
 20
0.0
 30
0.0
  3

  1

  0
INSERT
  5
5BF
100
AcDbEntity
  8
0
100
AcDbBlockReference
  2
CLUMP115
 10
0.0
 20
0.0
 30
0.0
  0
ENDBLK
  5
5C6
100
AcDbEntity
  8
0
100
AcDbBlockEnd
  0
BLOCK
  5
5C0
100
AcDbEntity
  8
0
100
AcDbBlockBegin
  2
CLUMP115
 70
         0
 10
0.0
 20
0.0
 30
0.0
  3

  1

  0
LINE
  5
5C1
100
AcDbEntity
  8
LAYER1
 62
         3
100
AcDbLine
 10
13.3333669066
 20
0.5808553381
 30
0.0
 11
13.3542546093
 21
0.5762620552
 31
0.0
  0
LINE
  5
5C2
100
AcDbEntity
  8
LAYER1
 62
         3
100
AcDbLine
 10
13.3542546093
 20
0.5762620552
 30
0.0
 11
13.4165638148
 21
0.5625623001
 31
0.0
  0
LINE
  5
5C3
100
AcDbEntity
  8
LAYER1
 62
         3
100
AcDbLine
 10
13.4165638148
 20
0.5625623001
 30
0.0
 11
13.5192272275
 21
0.5399898349
 31
0.0
  0
LINE
  5
5C4
100
AcDbEntity
  8
LAYER1
 62
         3
100
AcDbLine
 10
13.5192272275
 20
0.5399898349
 30
0.0
 11
13.660488373
 21
0.508930227
 31
0.0
  0
ENDBLK
  5
5C5
100
AcDbEntity
  8
0
100
AcDbBlockEnd
  0
ENDSEC
  0
SECTION
  2
ENTITIES
  0
MTEXT
  5
2F
100
AcDbEntity
  8
LAYER3
100
AcDbMText
 10
59.2952168258
 20
7.9240178035
 30
0.0
 40
2.1473683357
 41
5.1292919922
 71
         1
 72
         1
  1
\W0.8;84.5
 11
-0.0000000268
 21
1.0
 31
0.0
  0
LINE
  5
30
100
AcDbEntity
  8
LAYER3
 62
         4
100
AcDbLine
 10
63.0828755172
 20
54.974018289
 30
0.0
 11
63.7066105897
 21
52.0395754868
 31
0.0
  0
LINE
  5
31
100
AcDbEntity
  8
LAYER3
 62
         4
100
AcDbLine
 10
63.0828755172
 20
54.974018289
 30
0.0
 11
62.4591404448
 21
52.0395754868
 31
0.0
  0
LINE
  5
32
100
AcDbEntity
  8
LAYER3
 62
         4
100
AcDbLine
 10
32.9038207664
 20
54.974018289
 30
0.0
 11
64.0828755172
 21
54.974018289
 31
0.0
  0
MTEXT
  5
33
100
AcDbEntity
  8
LAYER3
100
AcDbMText
 10
50.8326622407
 20
2.4240164922
 30
0.0
 40
2.1473683357
 41
5.1292919922
 71
         1
 72
         1
  1
\W0.8;63.5
 11
-0.0000000268
 21
1.0
 31
0.0
  0
LINE
  5
34
100
AcDbEntity
  8
LAYER3
 62
         4
100
AcDbLine
 10
54.6203209321
 20
38.9740156664
 30
0.0
 11
55.2440560045
 21
36.0395728642
 31
0.0
  0
LINE
  5
35
100
AcDbEntity
  8
LAYER3
 62
         4
100
AcDbLine
 10
54.6203209321
 20
38.9740156664
 30
0.0
 11
53.9965858596
 21
36.0395728642
 31
0.0
  0
LINE
  5
36
100
AcDbEntity
  8
LAYER3
 62
         4
100
AcDbLine
 10
32.9038207664
 20
38.9740156664
 30
0.0
 11
55.6203209321
 21
38.9740156664
 31
0.0
  0
MTEXT
  5
37
100
AcDbEntity
  8
LAYER3
100
AcDbMText
 10
17.5038207761
 20
70.5982397744
 30
0.0
 40
2.1473683357
 41
5.1292919922
 71
         1
 72
         1
  1
\W0.8;19.2
  0
LINE
  5
38
100
AcDbEntity
  8
LAYER3
 62
         4
100
AcDbLine
 10
31.9038207664
 20
66.810581083
 30
0.0
 11
28.9693779642
 21
66.1868460105
 31
0.0
  0
LINE
  5
39
100
AcDbEntity
  8
LAYER3
 62
         4
100
AcDbLine
 10
31.9038207664
 20
66.810581083
 30
0.0
 11
28.9693779642
 21
67.4343161555
 31
0.0
  0
INSERT
  5
3B
100
AcDbEntity
  8
0
100
AcDbBlockReference
  2
CLUMP0
 10
0.0
 20
0.0
 30
0.0
  0
INSERT
  5
6B
100
AcDbEntity
  8
0
100
AcDbBlockReference
  2
CLUMP2
 10
0.0
 20
0.0
 30
0.0
  0
INSERT
  5
7B
100
AcDbEntity
  8
0
100
AcDbBlockReference
  2
CLUMP4
 10
0.0
 20
0.0
 30
0.0
  0
INSERT
  5
87
100
AcDbEntity
  8
0
100
AcDbBlockReference
  2
CLUMP6
 10
0.0
 20
0.0
 30
0.0
  0
INSERT
  5
A1
100
AcDbEntity
  8
0
100
AcDbBlockReference
  2
CLUMP8
 10
0.0
 20
0.0
 30
0.0
  0
INSERT
  5
D0
100
AcDbEntity
  8
0
100
AcDbBlockReference
  2
CLUMP10
 10
0.0
 20
0.0
 30
0.0
  0
INSERT
  5
E6
100
AcDbEntity
  8
0
100
AcDbBlockReference
  2
CLUMP12
 10
0.0
 20
0.0
 30
0.0
  0
INSERT
  5
FC
100
AcDbEntity
  8
0
100
AcDbBlockReference
  2
CLUMP14
 10
0.0
 20
0.0
 30
0.0
  0
INSERT
  5
10D
100
AcDbEntity
  8
0
100
AcDbBlockReference
  2
CLUMP16
 10
0.0
 20
0.0
 30
0.0
  0
INSERT
  5
11E
100
AcDbEntity
  8
0
100
AcDbBlockReference
  2
CLUMP18
 10
0.0
 20
0.0
 30
0.0
  0
INSERT
  5
12F
100
AcDbEntity
  8
0
100
AcDbBlockReference
  2
CLUMP20
 10
0.0
 20
0.0
 30
0.0
  0
INSERT
  5
140
100
AcDbEntity
  8
0
100
AcDbBlockReference
  2
CLUMP22
 10
0.0
 20
0.0
 30
0.0
  0
INSERT
  5
14D
100
AcDbEntity
  8
0
100
AcDbBlockReference
  2
CLUMP24
 10
0.0
 20
0.0
 30
0.0
  0
INSERT
  5
15E
100
AcDbEntity
  8
0
100
AcDbBlockReference
  2
CLUMP26
 10
0.0
 20
0.0
 30
0.0
  0
INSERT
  5
16A
100
AcDbEntity
  8
0
100
AcDbBlockReference
  2
CLUMP28
 10
0.0
 20
0.0
 30
0.0
  0
INSERT
  5
176
100
AcDbEntity
  8
0
100
AcDbBlockReference
  2
CLUMP30
 10
0.0
 20
0.0
 30
0.0
  0
INSERT
  5
185
100
AcDbEntity
  8
0
100
AcDbBlockReference
  2
CLUMP32
 10
0.0
 20
0.0
 30
0.0
  0
INSERT
  5
191
100
AcDbEntity
  8
0
100
AcDbBlockReference
  2
CLUMP34
 10
0.0
 20
0.0
 30
0.0
  0
INSERT
  5
1A9
100
AcDbEntity
  8
0
100
AcDbBlockReference
  2
CLUMP36
 10
0.0
 20
0.0
 30
0.0
  0
INSERT
  5
1BA
100
AcDbEntity
  8
0
100
AcDbBlockReference
  2
CLUMP38
 10
0.0
 20
0.0
 30
0.0
  0
LINE
  5
1E7
100
AcDbEntity
  8
LAYER3
 62
         4
100
AcDbLine
 10
12.7038207858
 20
66.810581083
 30
0.0
 11
15.638263588
 21
67.4343161555
 31
0.0
  0
LINE
  5
1E8
100
AcDbEntity
  8
LAYER3
 62
         4
100
AcDbLine
 10
12.7038207858
 20
66.810581083
 30
0.0
 11
15.638263588
 21
66.1868460105
 31
0.0
  0
LINE
  5
1E9
100
AcDbEntity
  8
LAYER3
 62
         4
100
AcDbLine
 10
12.7038207858
 20
66.810581083
 30
0.0
 11
31.9038207664
 21
66.810581083
 31
0.0
  0
LINE
  5
1EA
100
AcDbEntity
  8
LAYER3
 62
         4
100
AcDbLine
 10
31.9038207664
 20
55.974018289
 30
0.0
 11
31.9038207664
 21
67.810581083
 31
0.0
  0
LINE
  5
1EB
100
AcDbEntity
  8
LAYER3
 62
         4
100
AcDbLine
 10
12.7038207858
 20
55.974018289
 30
0.0
 11
12.7038207858
 21
67.810581083
 31
0.0
  0
LINE
  5
1EC
100
AcDbEntity
  8
LAYER1
 62
         3
100
AcDbLine
 10
31.9038207664
 20
44.4740156366
 30
0.0
 11
32.2038211881
 21
44.4740156366
 31
0.0
  0
LINE
  5
1ED
100
AcDbEntity
  8
LAYER1
 62
         3
100
AcDbLine
 10
12.7038207858
 20
49.4740183188
 30
0.0
 11
12.4038212954
 21
49.4740183188
 31
0.0
  0
LINE
  5
1EE
100
AcDbEntity
  8
LAYER1
 62
         3
100
AcDbLine
 10
12.4038212954
 20
44.4740156366
 30
0.0
 11
12.7038207858
 21
44.4740156366
 31
0.0
  0
LINE
  5
1EF
100
AcDbEntity
  8
LAYER1
 62
         3
100
AcDbLine
 10
28.8038213759
 20
22.9740167691
 30
0.0
 11
28.8038213759
 21
29.1598054303
 31
0.0
  0
LINE
  5
1F0
100
AcDbEntity
  8
LAYER1
 62
         3
100
AcDbLine
 10
28.5109278768
 20
29.8669102325
 30
0.0
 11
26.2502671241
 21
32.1275691225
 31
0.0
  0
LINE
  5
1F1
100
AcDbEntity
  8
LAYER1
 62
         3
100
AcDbLine
 10
26.9038208782
 20
50.4740166201
 30
0.0
 11
25.3038208022
 21
50.4740166201
 31
0.0
  0
LINE
  5
1F2
100
AcDbEntity
  8
LAYER1
 62
         3
100
AcDbLine
 10
25.3038208022
 20
43.4740173353
 30
0.0
 11
26.9038208782
 21
43.4740173353
 31
0.0
  0
LINE
  5
1F3
100
AcDbEntity
  8
LAYER1
 62
         3
100
AcDbLine
 10
25.3038208022
 20
53.5740169419
 30
0.0
 11
24.8038207202
 21
53.5740169419
 31
0.0
  0
ARC
  5
1F4
100
AcDbEntity
  8
LAYER1
 62
         3
100
AcDbCircle
 10
25.803833615
 20
41.5070513517
 30
0.0
 40
0.5000128128
210
0.0
220
0.0
230
1.0
100
AcDbArc
 50
180.0006753437
 51
227.5697785682
  0
ARC
  5
1F5
100
AcDbEntity
  8
LAYER1
 62
         3
100
AcDbCircle
 10
24.1038209607
 20
39.6740174672
 30
0.0
 40
2.0
210
0.0
220
0.0
230
1.0
100
AcDbArc
 50
0.0
 51
47.00925622
  0
ARC
  5
1F6
100
AcDbEntity
  8
LAYER1
 62
         3
100
AcDbCircle
 10
26.6038209607
 20
32.4811242484
 30
0.0
 40
0.5
210
0.0
220
0.0
230
1.0
100
AcDbArc
 50
179.9999969295
 51
224.9999976971
  0
LINE
  5
1F7
100
AcDbEntity
  8
LAYER1
 62
         3
100
AcDbLine
 10
26.1038213059
 20
32.4811252488
 30
0.0
 11
26.1038213059
 21
39.6740163399
 31
0.0
  0
ARC
  5
1F8
100
AcDbEntity
  8
LAYER1
 62
         3
100
AcDbCircle
 10
16.8038209607
 20
29.1598039048
 30
0.0
 40
1.0
210
0.0
220
0.0
230
1.0
100
AcDbArc
 50
135.0000023029
 51
179.9999969295
  0
LINE
  5
1F9
100
AcDbEntity
  8
LAYER1
 62
         3
100
AcDbLine
 10
15.8038211077
 20
29.1598054303
 30
0.0
 11
15.8038211077
 21
22.9740167691
 31
0.0
  0
LINE
  5
1FA
100
AcDbEntity
  8
LAYER1
 62
         3
100
AcDbLine
 10
18.3573734968
 20
32.1275691225
 30
0.0
 11
16.0967146068
 21
29.8669102325
 31
0.0
  0
LINE
  5
1FB
100
AcDbEntity
  8
LAYER1
 62
         3
100
AcDbLine
 10
17.7038216054
 20
43.4740173353
 30
0.0
 11
19.30382075
 21
43.4740173353
 31
0.0
  0
ARC
  5
1FC
100
AcDbEntity
  8
LAYER1
 62
         3
100
AcDbCircle
 10
22.3038209607
 20
11.4740174672
 30
0.0
 40
4.0
210
0.0
220
0.0
230
1.0
100
AcDbArc
 50
138.5903802548
 51
200.0499729957
  0
ARC
  5
1FD
100
AcDbEntity
  8
LAYER1
 62
         3
100
AcDbCircle
 10
22.3038209607
 20
11.4740174672
 30
0.0
 40
4.0
210
-0.0
220
0.0
230
1.0
100
AcDbArc
 50
339.9500239338
 51
41.4096228157
  0
ARC
  5
1FE
100
AcDbEntity
  8
LAYER1
 62
         3
100
AcDbCircle
 10
22.3038209607
 20
11.4740174672
 30
0.0
 40
9.0
210
-0.0
220
0.0
230
1.0
100
AcDbArc
 50
339.9500239338
 51
70.5287805686
  0
ARC
  5
1FF
100
AcDbEntity
  8
LAYER1
 62
         3
100
AcDbCircle
 10
22.3038209607
 20
11.4740174672
 30
0.0
 40
9.0
210
0.0
220
0.0
230
1.0
100
AcDbArc
 50
109.4712225019
 51
200.0499729957
  0
ARC
  5
200
100
AcDbEntity
  8
LAYER1
 62
         3
100
AcDbCircle
 10
37.8038209607
 20
5.8171632177
 30
0.0
 40
7.5
210
0.0
220
0.0
230
1.0
100
AcDbArc
 50
179.9999969295
 51
192.2683992813
  0
ARC
  5
201
100
AcDbEntity
  8
LAYER1
 62
         3
100
AcDbCircle
 10
37.8038209607
 20
5.8171632177
 30
0.0
 40
7.5
210
0.0
220
0.0
230
1.0
100
AcDbArc
 50
159.9500270043
 51
179.9999969295
  0
ARC
  5
202
100
AcDbEntity
  8
LAYER1
 62
         3
100
AcDbCircle
 10
37.8038209607
 20
5.8171632177
 30
0.0
 40
12.5
210
0.0
220
0.0
230
1.0
100
AcDbArc
 50
159.9500270043
 51
192.2683992813
  0
ARC
  5
203
100
AcDbEntity
  8
LAYER1
 62
         3
100
AcDbCircle
 10
6.8038209607
 20
5.8171632177
 30
0.0
 40
7.5
210
-0.0
220
0.0
230
1.0
100
AcDbArc
 50
347.7315976482
 51
20.0499760662
  0
ARC
  5
204
100
AcDbEntity
  8
LAYER1
 62
         3
100
AcDbCircle
 10
6.8038209607
 20
5.8171632177
 30
0.0
 40
12.5
210
-0.0
220
0.0
230
1.0
100
AcDbArc
 50
347.7315976482
 51
0.0
  0
LINE
  5
205
100
AcDbEntity
  8
LAYER1
 62
         3
100
AcDbLine
 10
24.3038206383
 20
22.9740167691
 30
0.0
 11
21.3038210779
 21
22.9740167691
 31
0.0
  0
LINE
  5
206
100
AcDbEntity
  8
LAYER1
 62
         3
100
AcDbLine
 10
25.3038208022
 20
52.6897820367
 30
0.0
 11
25.3038208022
 21
49.6941196455
 31
0.0
  0
LINE
  5
207
100
AcDbEntity
  8
LAYER1
 62
         3
100
AcDbLine
 10
19.30382075
 20
50.4740166201
 30
0.0
 11
17.7038216054
 21
50.4740166201
 31
0.0
  0
LINE
  5
208
100
AcDbEntity
  8
LAYER1
 62
         3
100
AcDbLine
 10
19.8038217633
 20
53.5740169419
 30
0.0
 11
19.30382075
 21
53.5740169419
 31
0.0
  0
ARC
  5
209
100
AcDbEntity
  8
LAYER1
 62
         3
100
AcDbCircle
 10
18.8038298808
 20
41.5070433518
 30
0.0
 40
0.4999908693
210
-0.0
220
0.0
230
1.0
100
AcDbArc
 50
312.3870485419
 51
0.0002383007
  0
ARC
  5
20A
100
AcDbEntity
  8
LAYER1
 62
         3
100
AcDbCircle
 10
20.5038209607
 20
39.6740174672
 30
0.0
 40
2.0
210
0.0
220
0.0
230
1.0
100
AcDbArc
 50
132.9983353407
 51
179.9999969295
  0
ARC
  5
20B
100
AcDbEntity
  8
LAYER1
 62
         3
100
AcDbCircle
 10
18.0038209607
 20
32.4811242484
 30
0.0
 40
0.5
210
-0.0
220
0.0
230
1.0
100
AcDbArc
 50
314.9999992324
 51
0.0
  0
LINE
  5
20C
100
AcDbEntity
  8
LAYER1
 62
         3
100
AcDbLine
 10
18.5038202464
 20
39.6740163399
 30
0.0
 11
18.5038202464
 21
32.4811252488
 31
0.0
  0
LINE
  5
20D
100
AcDbEntity
  8
LAYER1
 62
         3
100
AcDbLine
 10
16.634005776
 20
3.9506886809
 30
0.0
 11
16.5734902977
 21
3.9620536102
 31
0.0
  0
ARC
  5
20E
100
AcDbEntity
  8
LAYER1
 62
         3
100
AcDbCircle
 10
16.4192653568
 20
2.9740174672
 30
0.0
 40
1.0
210
0.0
220
0.0
230
1.0
100
AcDbArc
 50
243.5115346136
 51
280.8718421018
  0
LINE
  5
20F
100
AcDbEntity
  8
LAYER1
 62
         3
100
AcDbLine
 10
16.7433691233
 20
3.9200388549
 30
0.0
 11
16.634005776
 21
3.9506886809
 31
0.0
  0
ARC
  5
210
100
AcDbEntity
  8
LAYER1
 62
         3
100
AcDbCircle
 10
6.8038209607
 20
5.8171632177
 30
0.0
 40
12.1931712199
210
0.0
220
0.0
230
1.0
100
AcDbArc
 50
347.7315976482
 51
351.3737453865
  0
ARC
  5
211
100
AcDbEntity
  8
LAYER1
 62
         3
100
AcDbCircle
 10
6.8038209607
 20
5.8171632177
 30
0.0
 40
12.1931712199
210
-0.0
220
0.0
230
1.0
100
AcDbArc
 50
354.380622587
 51
1.5368016567
  0
ARC
  5
212
100
AcDbEntity
  8
LAYER1
 62
         3
100
AcDbCircle
 10
6.8038209607
 20
5.8171632177
 30
0.0
 40
7.8068287801
210
-0.0
220
0.0
230
1.0
100
AcDbArc
 50
347.7315976482
 51
1.5368016567
  0
LINE
  5
213
100
AcDbEntity
  8
LAYER1
 62
         3
100
AcDbLine
 10
14.0211896061
 20
2.2674525811
 30
0.0
 11
14.0362844824
 21
2.2181055231
 31
0.0
  0
LINE
  5
214
100
AcDbEntity
  8
LAYER1
 62
         3
100
AcDbLine
 10
14.4323647975
 20
4.1582786201
 30
0.0
 11
14.0211896061
 21
2.2674525811
 31
0.0
  0
ARC
  5
215
100
AcDbEntity
  8
LAYER1
 62
         3
100
AcDbCircle
 10
16.4192653568
 20
2.9740174672
 30
0.0
 40
2.5
210
0.0
220
0.0
230
1.0
100
AcDbArc
 50
167.7316007187
 51
196.4169970812
  0
ARC
  5
216
100
AcDbEntity
  8
LAYER1
 62
         3
100
AcDbCircle
 10
6.8038209607
 20
5.8171632177
 30
0.0
 40
12.5
210
0.0
220
0.0
230
1.0
100
AcDbArc
 50
0.0
 51
20.0499760662
  0
LINE
  5
217
100
AcDbEntity
  8
LAYER1
 62
         3
100
AcDbLine
 10
18.862172684
 20
2.4427889569
 30
0.0
 11
19.0183573424
 21
3.1610193385
 31
0.0
  0
LINE
  5
218
100
AcDbEntity
  8
LAYER1
 62
         3
100
AcDbLine
 10
14.1325422584
 20
4.2234767883
 30
0.0
 11
13.9763576
 21
3.5052464066
 31
0.0
  0
LINE
  5
219
100
AcDbEntity
  8
LAYER1
 62
         3
100
AcDbLine
 10
17.7038216054
 20
54.974018289
 30
0.0
 11
12.7038207858
 21
54.974018289
 31
0.0
  0
LINE
  5
21A
100
AcDbEntity
  8
LAYER1
 62
         3
100
AcDbLine
 10
12.7038207858
 20
38.9740156664
 30
0.0
 11
17.7038216054
 21
38.9740156664
 31
0.0
  0
LINE
  5
21B
100
AcDbEntity
  8
LAYER1
 62
         3
100
AcDbLine
 10
31.9038207664
 20
54.974018289
 30
0.0
 11
26.9038208782
 21
54.974018289
 31
0.0
  0
LINE
  5
21C
100
AcDbEntity
  8
LAYER1
 62
         3
100
AcDbLine
 10
26.9038208782
 20
38.9740156664
 30
0.0
 11
31.9038207664
 21
38.9740156664
 31
0.0
  0
LINE
  5
21D
100
AcDbEntity
  8
LAYER1
 62
         3
100
AcDbLine
 10
32.2038211881
 20
49.4740183188
 30
0.0
 11
31.9038207664
 21
49.4740183188
 31
0.0
  0
LINE
  5
21E
100
AcDbEntity
  8
LAYER1
 62
         3
100
AcDbLine
 10
19.2107983886
 20
32.4811252488
 30
0.0
 11
19.2107983886
 21
39.6740163399
 31
0.0
  0
LINE
  5
21F
100
AcDbEntity
  8
LAYER1
 62
         3
100
AcDbLine
 10
22.3038212418
 20
50.1369821562
 30
0.0
 11
24.8038207202
 21
50.1369821562
 31
0.0
  0
LINE
  5
220
100
AcDbEntity
  8
LAYER1
 62
         3
100
AcDbLine
 10
24.8038207202
 20
52.6031839384
 30
0.0
 11
22.3038212418
 21
52.6031839384
 31
0.0
  0
LINE
  5
221
100
AcDbEntity
  8
LAYER1
 62
         3
100
AcDbLine
 10
19.30382075
 20
12.474017842
 30
0.0
 11
25.3038208022
 21
12.474017842
 31
0.0
  0
LINE
  5
222
100
AcDbEntity
  8
LAYER1
 62
         3
100
AcDbLine
 10
24.8038207202
 20
53.4740152492
 30
0.0
 11
22.3038212418
 21
53.4740152492
 31
0.0
  0
LINE
  5
223
100
AcDbEntity
  8
LAYER1
 62
         3
100
AcDbLine
 10
22.3038212418
 20
53.4740152492
 30
0.0
 11
19.8038217633
 21
53.4740152492
 31
0.0
  0
ARC
  5
224
100
AcDbEntity
  8
LAYER1
 62
         3
100
AcDbCircle
 10
27.8038209607
 20
29.1598039048
 30
0.0
 40
1.0
210
0.0
220
0.0
230
1.0
100
AcDbArc
 50
0.0
 51
45.0000007676
  0
LINE
  5
225
100
AcDbEntity
  8
LAYER1
 62
         3
100
AcDbLine
 10
31.9038207664
 20
54.974018289
 30
0.0
 11
31.9038207664
 21
38.9740156664
 31
0.0
  0
LINE
  5
226
100
AcDbEntity
  8
LAYER1
 62
         3
100
AcDbLine
 10
32.2038211881
 20
49.4740183188
 30
0.0
 11
32.2038211881
 21
44.4740156366
 31
0.0
  0
LINE
  5
227
100
AcDbEntity
  8
LAYER1
 62
         3
100
AcDbLine
 10
12.4038212954
 20
49.4740183188
 30
0.0
 11
12.4038212954
 21
44.4740156366
 31
0.0
  0
LINE
  5
228
100
AcDbEntity
  8
LAYER1
 62
         3
100
AcDbLine
 10
19.30382075
 20
12.474017842
 30
0.0
 11
19.30382075
 21
22.211103393
 31
0.0
  0
LINE
  5
229
100
AcDbEntity
  8
LAYER1
 62
         3
100
AcDbLine
 10
19.30382075
 20
22.211103393
 30
0.0
 11
25.3038208022
 21
22.211103393
 31
0.0
  0
LINE
  5
22A
100
AcDbEntity
  8
LAYER1
 62
         3
100
AcDbLine
 10
25.3038208022
 20
12.474017842
 30
0.0
 11
25.3038208022
 21
22.211103393
 31
0.0
  0
LINE
  5
22B
100
AcDbEntity
  8
LAYER1
 62
         3
100
AcDbLine
 10
19.30382075
 20
22.211103393
 30
0.0
 11
19.30382075
 21
22.9740167691
 31
0.0
  0
LINE
  5
22C
100
AcDbEntity
  8
LAYER1
 62
         3
100
AcDbLine
 10
25.3038208022
 20
22.211103393
 30
0.0
 11
25.3038208022
 21
22.9740167691
 31
0.0
  0
LINE
  5
22D
100
AcDbEntity
  8
LAYER1
 62
         3
100
AcDbLine
 10
22.3038212418
 20
49.6908041371
 30
0.0
 11
22.3038212418
 21
50.1369821562
 31
0.0
  0
LINE
  5
22E
100
AcDbEntity
  8
LAYER1
 62
         3
100
AcDbLine
 10
22.3038212418
 20
52.6031839384
 30
0.0
 11
22.3038212418
 21
50.1369821562
 31
0.0
  0
LINE
  5
22F
100
AcDbEntity
  8
LAYER1
 62
         3
100
AcDbLine
 10
22.3038212418
 20
53.4740152492
 30
0.0
 11
22.3038212418
 21
52.6031839384
 31
0.0
  0
LINE
  5
230
100
AcDbEntity
  8
LAYER1
 62
         3
100
AcDbLine
 10
25.3038208022
 20
49.6941196455
 30
0.0
 11
25.3038208022
 21
22.9740167691
 31
0.0
  0
LINE
  5
231
100
AcDbEntity
  8
LAYER1
 62
         3
100
AcDbLine
 10
25.3038208022
 20
22.9740167691
 30
0.0
 11
24.3038206383
 21
22.9740167691
 31
0.0
  0
CIRCLE
  5
232
100
AcDbEntity
  8
LAYER1
 62
         3
100
AcDbCircle
 10
22.3038209607
 20
45.9740174672
 30
0.0
 40
1.05
210
0.0
220
0.0
230
1.0
  0
LINE
  5
233
100
AcDbEntity
  8
LAYER1
 62
         3
100
AcDbLine
 10
24.3038206383
 20
49.1102139188
 30
0.0
 11
21.3038210779
 21
49.1102139188
 31
0.0
  0
ARC
  5
234
100
AcDbEntity
  8
LAYER1
 62
         3
100
AcDbCircle
 10
21.3038209607
 20
23.9740174672
 30
0.0
 40
1.0
210
0.0
220
0.0
230
1.0
100
AcDbArc
 50
179.9999969295
 51
269.9999984648
  0
LINE
  5
235
100
AcDbEntity
  8
LAYER1
 62
         3
100
AcDbLine
 10
20.303820914
 20
47.9426185323
 30
0.0
 11
20.303820914
 21
23.9740187956
 31
0.0
  0
CIRCLE
  5
236
100
AcDbEntity
  8
LAYER1
 62
         3
100
AcDbCircle
 10
22.3038209607
 20
25.9740174672
 30
0.0
 40
1.05
210
0.0
220
0.0
230
1.0
  0
LINE
  5
237
100
AcDbEntity
  8
LAYER1
 62
         3
100
AcDbLine
 10
20.303820914
 20
23.9740187956
 30
0.0
 11
20.303820914
 21
22.9740167691
 31
0.0
  0
LINE
  5
238
100
AcDbEntity
  8
LAYER1
 62
         3
100
AcDbLine
 10
23.3038214057
 20
49.3988903894
 30
0.0
 11
23.3038214057
 21
49.6908041371
 31
0.0
  0
LINE
  5
239
100
AcDbEntity
  8
LAYER1
 62
         3
100
AcDbLine
 10
19.30382075
 20
52.6897820367
 30
0.0
 11
19.8038217633
 21
52.6897820367
 31
0.0
  0
LINE
  5
23A
100
AcDbEntity
  8
LAYER1
 62
         3
100
AcDbLine
 10
21.3038210779
 20
49.4021649195
 30
0.0
 11
24.3038206383
 21
49.4021649195
 31
0.0
  0
LINE
  5
23B
100
AcDbEntity
  8
LAYER1
 62
         3
100
AcDbLine
 10
25.5538213088
 20
22.9740167691
 30
0.0
 11
25.3038208022
 21
22.9740167691
 31
0.0
  0
LINE
  5
23C
100
AcDbEntity
  8
LAYER1
 62
         3
100
AcDbLine
 10
28.8038213759
 20
22.9740167691
 30
0.0
 11
25.5538213088
 21
22.9740167691
 31
0.0
  0
LINE
  5
23D
100
AcDbEntity
  8
LAYER1
 62
         3
100
AcDbLine
 10
24.8038207202
 20
53.5740169419
 30
0.0
 11
24.8038207202
 21
52.6897820367
 31
0.0
  0
LINE
  5
23E
100
AcDbEntity
  8
LAYER1
 62
         3
100
AcDbLine
 10
25.3038208022
 20
53.5740169419
 30
0.0
 11
25.3038208022
 21
52.6897820367
 31
0.0
  0
CIRCLE
  5
23F
100
AcDbEntity
  8
LAYER1
 62
         3
100
AcDbCircle
 10
22.3038209607
 20
25.9740174672
 30
0.0
 40
1.0
210
0.0
220
0.0
230
1.0
  0
CIRCLE
  5
240
100
AcDbEntity
  8
LAYER1
 62
         3
100
AcDbCircle
 10
22.3038209607
 20
45.9740174672
 30
0.0
 40
1.0
210
0.0
220
0.0
230
1.0
  0
LINE
  5
241
100
AcDbEntity
  8
LAYER1
 62
         3
100
AcDbLine
 10
20.303820914
 20
49.3988903894
 30
0.0
 11
23.3038214057
 21
49.3988903894
 31
0.0
  0
LINE
  5
242
100
AcDbEntity
  8
LAYER1
 62
         3
100
AcDbLine
 10
20.303820914
 20
22.9740167691
 30
0.0
 11
21.3038210779
 21
22.9740167691
 31
0.0
  0
LINE
  5
243
100
AcDbEntity
  8
LAYER1
 62
         3
100
AcDbLine
 10
19.30382075
 20
22.9740167691
 30
0.0
 11
19.30382075
 21
49.9827216102
 31
0.0
  0
LINE
  5
244
100
AcDbEntity
  8
LAYER1
 62
         3
100
AcDbLine
 10
20.303820914
 20
22.9740167691
 30
0.0
 11
19.30382075
 21
22.9740167691
 31
0.0
  0
LINE
  5
245
100
AcDbEntity
  8
LAYER1
 62
         3
100
AcDbLine
 10
19.30382075
 20
49.9827216102
 30
0.0
 11
19.30382075
 21
52.6897820367
 31
0.0
  0
LINE
  5
246
100
AcDbEntity
  8
LAYER1
 62
         3
100
AcDbLine
 10
19.8038217633
 20
49.9827216102
 30
0.0
 11
19.8038217633
 21
52.6897820367
 31
0.0
  0
LINE
  5
247
100
AcDbEntity
  8
LAYER1
 62
         3
100
AcDbLine
 10
23.3038214057
 20
49.6908041371
 30
0.0
 11
20.303820914
 21
49.6908041371
 31
0.0
  0
LINE
  5
248
100
AcDbEntity
  8
LAYER1
 62
         3
100
AcDbLine
 10
19.30382075
 20
22.9740167691
 30
0.0
 11
19.0538202434
 21
22.9740167691
 31
0.0
  0
LINE
  5
249
100
AcDbEntity
  8
LAYER1
 62
         3
100
AcDbLine
 10
19.0538202434
 20
22.9740167691
 30
0.0
 11
15.8038211077
 21
22.9740167691
 31
0.0
  0
LINE
  5
24A
100
AcDbEntity
  8
LAYER1
 62
         3
100
AcDbLine
 10
19.30382075
 20
52.6897820367
 30
0.0
 11
19.30382075
 21
53.5740169419
 31
0.0
  0
LINE
  5
24B
100
AcDbEntity
  8
LAYER1
 62
         3
100
AcDbLine
 10
19.8038217633
 20
52.6897820367
 30
0.0
 11
19.8038217633
 21
53.5740169419
 31
0.0
  0
LINE
  5
24C
100
AcDbEntity
  8
LAYER1
 62
         3
100
AcDbLine
 10
12.7038207858
 20
54.974018289
 30
0.0
 11
12.7038207858
 21
38.9740156664
 31
0.0
  0
LINE
  5
24D
100
AcDbEntity
  8
LAYER1
 62
         3
100
AcDbLine
 10
17.7038216054
 20
54.974018289
 30
0.0
 11
17.7038216054
 21
38.9740156664
 31
0.0
  0
LINE
  5
24E
100
AcDbEntity
  8
LAYER1
 62
         3
100
AcDbLine
 10
26.9038208782
 20
54.974018289
 30
0.0
 11
26.9038208782
 21
38.9740156664
 31
0.0
  0
ARC
  5
24F
100
AcDbEntity
  8
LAYER1
 62
         3
100
AcDbCircle
 10
18.6484882013
 20
32.4738361712
 30
0.0
 40
0.5623574286
210
-0.0
220
0.0
230
1.0
100
AcDbArc
 50
321.9941492653
 51
0.7426683888
  0
LINE
  5
250
100
AcDbEntity
  8
LAYER1
 62
         3
100
AcDbLine
 10
19.30382075
 20
39.6740163399
 30
0.0
 11
19.2107983886
 21
39.6740163399
 31
0.0
  0
LINE
  5
251
100
AcDbEntity
  8
LAYER1
 62
         3
100
AcDbLine
 10
19.2107983886
 20
32.4811252488
 30
0.0
 11
19.30382075
 21
32.4811252488
 31
0.0
  0
LINE
  5
252
100
AcDbEntity
  8
LAYER1
 62
         3
100
AcDbLine
 10
19.2107983886
 20
39.6740163399
 30
0.0
 11
18.5038202464
 21
39.6740163399
 31
0.0
  0
LINE
  5
253
100
AcDbEntity
  8
LAYER1
 62
         3
100
AcDbLine
 10
19.8038217633
 20
50.1369821562
 30
0.0
 11
22.3038212418
 21
50.1369821562
 31
0.0
  0
LINE
  5
254
100
AcDbEntity
  8
LAYER1
 62
         3
100
AcDbLine
 10
19.8038217633
 20
52.6031839384
 30
0.0
 11
22.3038212418
 21
52.6031839384
 31
0.0
  0
LINE
  5
255
100
AcDbEntity
  8
LAYER1
 62
         3
100
AcDbLine
 10
24.3038206383
 20
22.9740167691
 30
0.0
 11
24.3038206383
 21
49.1102139188
 31
0.0
  0
LINE
  5
256
100
AcDbEntity
  8
LAYER1
 62
         3
100
AcDbLine
 10
21.3038210779
 20
49.4021649195
 30
0.0
 11
21.3038210779
 21
49.1102139188
 31
0.0
  0
LINE
  5
257
100
AcDbEntity
  8
LAYER1
 62
         3
100
AcDbLine
 10
25.3038208022
 20
52.6897820367
 30
0.0
 11
24.8038207202
 21
52.6897820367
 31
0.0
  0
ARC
  5
258
100
AcDbEntity
  8
LAYER1
 62
         3
100
AcDbCircle
 10
25.7003369956
 20
30.2557878275
 30
0.0
 40
0.3980866249
210
0.0
220
0.0
230
1.0
100
AcDbArc
 50
185.0909749797
 51
257.6519996479
  0
LINE
  5
259
100
AcDbEntity
  8
LAYER1
 62
         3
100
AcDbLine
 10
25.3038208022
 20
29.1598054303
 30
0.0
 11
25.5538213088
 21
29.1598054303
 31
0.0
  0
LINE
  5
25A
100
AcDbEntity
  8
LAYER1
 62
         3
100
AcDbLine
 10
25.5538213088
 20
29.1598054303
 30
0.0
 11
25.5538213088
 21
22.9740167691
 31
0.0
  0
LINE
  5
25B
100
AcDbEntity
  8
LAYER1
 62
         3
100
AcDbLine
 10
28.8038213759
 20
29.1598054303
 30
0.0
 11
25.5538213088
 21
29.1598054303
 31
0.0
  0
LINE
  5
25C
100
AcDbEntity
  8
LAYER1
 62
         3
100
AcDbLine
 10
25.6152066424
 20
29.8669102325
 30
0.0
 11
28.5109278768
 21
29.8669102325
 31
0.0
  0
ARC
  5
25D
100
AcDbEntity
  8
LAYER1
 62
         3
100
AcDbCircle
 10
25.7225207746
 20
32.491979944
 30
0.0
 40
0.4188406515
210
0.0
220
0.0
230
1.0
100
AcDbArc
 50
181.4850435027
 51
240.4640355969
  0
LINE
  5
25E
100
AcDbEntity
  8
LAYER1
 62
         3
100
AcDbLine
 10
26.2502671241
 20
32.1275691225
 30
0.0
 11
25.5160450026
 21
32.1275691225
 31
0.0
  0
LINE
  5
25F
100
AcDbEntity
  8
LAYER1
 62
         3
100
AcDbLine
 10
25.3038208022
 20
39.6740163399
 30
0.0
 11
25.3968440949
 21
39.6740163399
 31
0.0
  0
LINE
  5
260
100
AcDbEntity
  8
LAYER1
 62
         3
100
AcDbLine
 10
20.303820914
 20
47.9426185323
 30
0.0
 11
20.303820914
 21
48.2314328386
 31
0.0
  0
LINE
  5
261
100
AcDbEntity
  8
LAYER1
 62
         3
100
AcDbLine
 10
24.8038207202
 20
52.6897820367
 30
0.0
 11
24.8038207202
 21
49.6941196455
 31
0.0
  0
LINE
  5
262
100
AcDbEntity
  8
LAYER1
 62
         3
100
AcDbLine
 10
18.5038202464
 20
32.4811252488
 30
0.0
 11
19.2107983886
 21
32.4811252488
 31
0.0
  0
ARC
  5
263
100
AcDbEntity
  8
LAYER1
 62
         3
100
AcDbCircle
 10
25.9591552178
 20
32.4738353194
 30
0.0
 40
0.5623583751
210
0.0
220
0.0
230
1.0
100
AcDbArc
 50
179.2572491385
 51
218.0056621646
  0
LINE
  5
264
100
AcDbEntity
  8
LAYER1
 62
         3
100
AcDbLine
 10
25.3038208022
 20
32.4811252488
 30
0.0
 11
25.3968440949
 21
32.4811252488
 31
0.0
  0
LINE
  5
265
100
AcDbEntity
  8
LAYER1
 62
         3
100
AcDbLine
 10
25.3968440949
 20
39.6740163399
 30
0.0
 11
25.3968440949
 21
32.4811252488
 31
0.0
  0
LINE
  5
266
100
AcDbEntity
  8
LAYER1
 62
         3
100
AcDbLine
 10
26.1038213059
 20
39.6740163399
 30
0.0
 11
25.3968440949
 21
39.6740163399
 31
0.0
  0
LINE
  5
267
100
AcDbEntity
  8
LAYER1
 62
         3
100
AcDbLine
 10
25.3968440949
 20
32.4811252488
 30
0.0
 11
26.1038213059
 21
32.4811252488
 31
0.0
  0
LINE
  5
268
100
AcDbEntity
  8
LAYER1
 62
         3
100
AcDbLine
 10
20.303820914
 20
49.3988903894
 30
0.0
 11
20.303820914
 21
48.2314328386
 31
0.0
  0
LINE
  5
269
100
AcDbEntity
  8
LAYER0
 62
         3
100
AcDbLine
 10
95.0
 20
-138.5
 30
0.0
 11
95.0
 21
-125.5
 31
0.0
  0
LINE
  5
26A
100
AcDbEntity
  8
LAYER1
 62
         3
100
AcDbLine
 10
14.8991436719
 20
-14.6097599806
 30
0.0
 11
14.944752401
 21
-14.4023260379
 31
0.0
  0
ARC
  5
26B
100
AcDbEntity
  8
LAYER1
 62
         3
100
AcDbCircle
 10
22.3038209607
 20
-17.0259825328
 30
0.0
 40
12.5
210
0.0
220
-0.0
230
1.0
100
AcDbArc
 50
167.7316007187
 51
0.0
  0
ARC
  5
26C
100
AcDbEntity
  8
LAYER1
 62
         3
100
AcDbCircle
 10
22.3038209607
 20
-17.0259825328
 30
0.0
 40
12.5
210
0.0
220
0.0
230
1.0
100
AcDbArc
 50
0.0
 51
12.2684023518
  0
LINE
  5
26D
100
AcDbEntity
  8
LAYER1
 62
         3
100
AcDbLine
 10
14.9616801202
 20
-14.4060070904
 30
0.0
 11
15.3866631001
 21
-12.4516813827
 31
0.0
  0
LINE
  5
26E
100
AcDbEntity
  8
LAYER1
 62
         3
100
AcDbLine
 10
10.7264515965
 20
-11.4397622689
 30
0.0
 11
10.0892853945
 21
-14.3698382468
 31
0.0
  0
ARC
  5
26F
100
AcDbEntity
  8
LAYER1
 62
         3
100
AcDbCircle
 10
22.3038209607
 20
-17.0259825328
 30
0.0
 40
7.5
210
0.0
220
-0.0
230
1.0
100
AcDbArc
 50
180.7832909695
 51
12.2684023518
  0
INSERT
  5
271
100
AcDbEntity
  8
0
100
AcDbBlockReference
  2
CLUMP40
 10
0.0
 20
0.0
 30
0.0
  0
INSERT
  5
281
100
AcDbEntity
  8
0
100
AcDbBlockReference
  2
CLUMP42
 10
0.0
 20
0.0
 30
0.0
  0
INSERT
  5
295
100
AcDbEntity
  8
0
100
AcDbBlockReference
  2
CLUMP44
 10
0.0
 20
0.0
 30
0.0
  0
INSERT
  5
2AE
100
AcDbEntity
  8
0
100
AcDbBlockReference
  2
CLUMP46
 10
0.0
 20
0.0
 30
0.0
  0
INSERT
  5
2BE
100
AcDbEntity
  8
0
100
AcDbBlockReference
  2
CLUMP48
 10
0.0
 20
0.0
 30
0.0
  0
LINE
  5
2C8
100
AcDbEntity
  8
LAYER3
 62
         4
100
AcDbLine
 10
63.0828755172
 20
-29.5259825328
 30
0.0
 11
62.4591404448
 21
-26.5915397305
 31
0.0
  0
LINE
  5
2C9
100
AcDbEntity
  8
LAYER3
 62
         4
100
AcDbLine
 10
63.0828755172
 20
-29.5259825328
 30
0.0
 11
63.7066105897
 21
-26.5915397305
 31
0.0
  0
LINE
  5
2CA
100
AcDbEntity
  8
LAYER3
 62
         4
100
AcDbLine
 10
23.3038209607
 20
-29.5259825328
 30
0.0
 11
64.0828755172
 21
-29.5259825328
 31
0.0
  0
LINE
  5
2CB
100
AcDbEntity
  8
LAYER3
 62
         4
100
AcDbLine
 10
54.6203209321
 20
-24.5259825328
 30
0.0
 11
53.9965858596
 21
-21.5915397305
 31
0.0
  0
LINE
  5
2CC
100
AcDbEntity
  8
LAYER3
 62
         4
100
AcDbLine
 10
54.6203209321
 20
-24.5259825328
 30
0.0
 11
55.2440560045
 21
-21.5915397305
 31
0.0
  0
LINE
  5
2CD
100
AcDbEntity
  8
LAYER3
 62
         4
100
AcDbLine
 10
23.3038209607
 20
-24.5259825328
 30
0.0
 11
55.6203209321
 21
-24.5259825328
 31
0.0
  0
ARC
  5
2CE
100
AcDbEntity
  8
LAYER1
 62
         3
100
AcDbCircle
 10
18.9073054967
 20
30.2557869995
 30
0.0
 40
0.3980856151
210
0.0
220
0.0
230
1.0
100
AcDbArc
 50
282.347890596
 51
354.9091286356
  0
LINE
  5
2CF
100
AcDbEntity
  8
LAYER1
 62
         3
100
AcDbLine
 10
19.0538202434
 20
29.1598054303
 30
0.0
 11
19.30382075
 21
29.1598054303
 31
0.0
  0
LINE
  5
2D0
100
AcDbEntity
  8
LAYER1
 62
         3
100
AcDbLine
 10
19.0538202434
 20
22.9740167691
 30
0.0
 11
19.0538202434
 21
29.1598054303
 31
0.0
  0
LINE
  5
2D1
100
AcDbEntity
  8
LAYER1
 62
         3
100
AcDbLine
 10
19.0538202434
 20
29.1598054303
 30
0.0
 11
15.8038211077
 21
29.1598054303
 31
0.0
  0
LINE
  5
2D2
100
AcDbEntity
  8
LAYER1
 62
         3
100
AcDbLine
 10
16.0967146068
 20
29.8669102325
 30
0.0
 11
18.9924349099
 21
29.8669102325
 31
0.0
  0
ARC
  5
2D3
100
AcDbEntity
  8
LAYER1
 62
         3
100
AcDbCircle
 10
18.8851233642
 20
32.4919783914
 30
0.0
 40
0.4188380255
210
0.0
220
0.0
230
1.0
100
AcDbArc
 50
299.5357581808
 51
358.5151565787
  0
LINE
  5
2D4
100
AcDbEntity
  8
LAYER1
 62
         3
100
AcDbLine
 10
19.0915965497
 20
32.1275691225
 30
0.0
 11
18.3573734968
 21
32.1275691225
 31
0.0
  0
INSERT
  5
2D6
100
AcDbEntity
  8
0
100
AcDbBlockReference
  2
CLUMP50
 10
0.0
 20
0.0
 30
0.0
  0
INSERT
  5
2E6
100
AcDbEntity
  8
0
100
AcDbBlockReference
  2
CLUMP52
 10
0.0
 20
0.0
 30
0.0
  0
INSERT
  5
2F7
100
AcDbEntity
  8
0
100
AcDbBlockReference
  2
CLUMP54
 10
0.0
 20
0.0
 30
0.0
  0
INSERT
  5
308
100
AcDbEntity
  8
0
100
AcDbBlockReference
  2
CLUMP56
 10
0.0
 20
0.0
 30
0.0
  0
INSERT
  5
322
100
AcDbEntity
  8
0
100
AcDbBlockReference
  2
CLUMP58
 10
0.0
 20
0.0
 30
0.0
  0
INSERT
  5
33D
100
AcDbEntity
  8
0
100
AcDbBlockReference
  2
CLUMP60
 10
0.0
 20
0.0
 30
0.0
  0
INSERT
  5
34D
100
AcDbEntity
  8
0
100
AcDbBlockReference
  2
CLUMP62
 10
0.0
 20
0.0
 30
0.0
  0
INSERT
  5
359
100
AcDbEntity
  8
0
100
AcDbBlockReference
  2
CLUMP64
 10
0.0
 20
0.0
 30
0.0
  0
INSERT
  5
373
100
AcDbEntity
  8
0
100
AcDbBlockReference
  2
CLUMP66
 10
0.0
 20
0.0
 30
0.0
  0
INSERT
  5
386
100
AcDbEntity
  8
0
100
AcDbBlockReference
  2
CLUMP68
 10
0.0
 20
0.0
 30
0.0
  0
INSERT
  5
39B
100
AcDbEntity
  8
0
100
AcDbBlockReference
  2
CLUMP70
 10
0.0
 20
0.0
 30
0.0
  0
MTEXT
  5
3AF
100
AcDbEntity
  8
LAYER3
100
AcDbMText
 10
-29.1957466893
 20
70.5849235857
 30
0.0
 40
2.1473683357
 41
2.5646459961
 71
         1
 72
         1
  1
\W0.8;20
  0
LINE
  5
3B0
100
AcDbEntity
  8
LAYER3
 62
         4
100
AcDbLine
 10
-36.7957464658
 20
66.7972648942
 30
0.0
 11
-33.8613036636
 21
67.4209999667
 31
0.0
  0
LINE
  5
3B1
100
AcDbEntity
  8
LAYER3
 62
         4
100
AcDbLine
 10
-36.7957464658
 20
66.7972648942
 30
0.0
 11
-33.8613036636
 21
66.1735298218
 31
0.0
  0
LINE
  5
3B2
100
AcDbEntity
  8
LAYER3
 62
         4
100
AcDbLine
 10
-16.7957469128
 20
66.7972648942
 30
0.0
 11
-19.730189715
 21
66.1735298218
 31
0.0
  0
LINE
  5
3B3
100
AcDbEntity
  8
LAYER3
 62
         4
100
AcDbLine
 10
-16.7957469128
 20
66.7972648942
 30
0.0
 11
-19.730189715
 21
67.4209999667
 31
0.0
  0
LINE
  5
3B4
100
AcDbEntity
  8
LAYER3
 62
         4
100
AcDbLine
 10
-16.7957469128
 20
66.7972648942
 30
0.0
 11
-36.7957464658
 21
66.7972648942
 31
0.0
  0
LINE
  5
3B5
100
AcDbEntity
  8
LAYER3
 62
         4
100
AcDbLine
 10
-36.7957464658
 20
23.9740167691
 30
0.0
 11
-36.7957464658
 21
67.7972648942
 31
0.0
  0
LINE
  5
3B6
100
AcDbEntity
  8
LAYER3
 62
         4
100
AcDbLine
 10
-16.7957469128
 20
23.9740167691
 30
0.0
 11
-16.7957469128
 21
67.7972648942
 31
0.0
  0
MTEXT
  5
3B7
100
AcDbEntity
  8
LAYER0
100
AcDbMText
 10
13.5568602544
 20
-133.1832799089
 30
0.0
 40
1.9790146708
 41
44.907977537
 71
         1
 72
         1
  1
\W0.8;40用オールステンレスＢスナップランナー
  0
MTEXT
  5
3B8
100
AcDbEntity
  8
LAYER0
100
AcDbMText
 10
69.2920019132
 20
-133.1354167344
 30
0.0
 40
2.4737683892
 41
8.8634168007
 71
         1
 72
         1
  1
\W0.8;D56136
  0
LINE
  5
3B9
100
AcDbEntity
  8
LAYER0
 62
         3
100
AcDbLine
 10
60.0
 20
-125.5
 30
0.0
 11
60.0
 21
-138.5
 31
0.0
  0
MTEXT
  5
3BA
100
AcDbEntity
  8
LAYER0
100
AcDbMText
 10
72.5158633528
 20
-126.7970201517
 30
0.0
 40
2.1473683357
 41
10.2585839844
 71
         1
 72
         1
  1
\W0.8;管理図番
  0
MTEXT
  5
3BB
100
AcDbEntity
  8
LAYER0
100
AcDbMText
 10
32.0542682872
 20
-126.7970201517
 30
0.0
 40
2.1473683357
 41
7.6538653946
 71
         1
 72
         1
  1
\W0.8;品　名
  0
LINE
  5
3BC
100
AcDbEntity
  8
LAYER0
 62
         3
100
AcDbLine
 10
10.0
 20
-138.5
 30
0.0
 11
10.0
 21
-125.5
 31
0.0
  0
LINE
  5
3BD
100
AcDbEntity
  8
LAYER1
 62
         3
100
AcDbLine
 10
-29.2957466334
 20
3.6922475977
 30
0.0
 11
-29.2957466334
 21
2.0089332669
 31
0.0
  0
LINE
  5
3BE
100
AcDbEntity
  8
LAYER1
 62
         3
100
AcDbLine
 10
-24.2957467452
 20
1.9973466827
 30
0.0
 11
-24.2957467452
 21
3.6922475977
 31
0.0
  0
ARC
  5
3BF
100
AcDbEntity
  8
LAYER1
 62
         3
100
AcDbCircle
 10
-24.0957466893
 20
31.6740174672
 30
0.0
 40
0.3
210
0.0
220
-0.0
230
1.0
100
AcDbArc
 50
0.0
 51
90.0000015352
  0
ARC
  5
3C0
100
AcDbEntity
  8
LAYER1
 62
         3
100
AcDbCircle
 10
-35.9381609014
 20
26.0145735328
 30
0.0
 40
1.0
210
0.0
220
0.0
230
1.0
100
AcDbArc
 50
141.9646765124
 51
180.1507295747
  0
ARC
  5
3C1
100
AcDbEntity
  8
LAYER1
 62
         3
100
AcDbCircle
 10
-18.0319912068
 20
45.9214451359
 30
0.0
 40
1.0
210
0.0
220
0.0
230
1.0
100
AcDbArc
 50
323.9501746773
 51
359.8684443892
  0
ARC
  5
3C2
100
AcDbEntity
  8
LAYER1
 62
         3
100
AcDbCircle
 10
-18.0317638402
 20
46.0145735327
 30
0.0
 40
1.0
210
-0.0
220
0.0
230
1.0
100
AcDbArc
 50
359.8495254201
 51
38.4319276452
  0
ARC
  5
3C3
100
AcDbEntity
  8
LAYER1
 62
         3
100
AcDbCircle
 10
-17.6533324772
 20
26.0145735328
 30
0.0
 40
1.0
210
-0.0
220
0.0
230
1.0
100
AcDbArc
 50
359.8496054949
 51
38.0353265581
  0
INSERT
  5
3C5
100
AcDbEntity
  8
0
100
AcDbBlockReference
  2
CLUMP72
 10
0.0
 20
0.0
 30
0.0
  0
INSERT
  5
3D5
100
AcDbEntity
  8
0
100
AcDbBlockReference
  2
CLUMP74
 10
0.0
 20
0.0
 30
0.0
  0
INSERT
  5
3E1
100
AcDbEntity
  8
0
100
AcDbBlockReference
  2
CLUMP76
 10
0.0
 20
0.0
 30
0.0
  0
INSERT
  5
3FD
100
AcDbEntity
  8
0
100
AcDbBlockReference
  2
CLUMP78
 10
0.0
 20
0.0
 30
0.0
  0
INSERT
  5
414
100
AcDbEntity
  8
0
100
AcDbBlockReference
  2
CLUMP80
 10
0.0
 20
0.0
 30
0.0
  0
INSERT
  5
420
100
AcDbEntity
  8
0
100
AcDbBlockReference
  2
CLUMP82
 10
0.0
 20
0.0
 30
0.0
  0
INSERT
  5
42C
100
AcDbEntity
  8
0
100
AcDbBlockReference
  2
CLUMP84
 10
0.0
 20
0.0
 30
0.0
  0
INSERT
  5
43C
100
AcDbEntity
  8
0
100
AcDbBlockReference
  2
CLUMP86
 10
0.0
 20
0.0
 30
0.0
  0
INSERT
  5
44D
100
AcDbEntity
  8
0
100
AcDbBlockReference
  2
CLUMP88
 10
0.0
 20
0.0
 30
0.0
  0
INSERT
  5
45D
100
AcDbEntity
  8
0
100
AcDbBlockReference
  2
CLUMP90
 10
0.0
 20
0.0
 30
0.0
  0
INSERT
  5
46D
100
AcDbEntity
  8
0
100
AcDbBlockReference
  2
CLUMP92
 10
0.0
 20
0.0
 30
0.0
  0
INSERT
  5
482
100
AcDbEntity
  8
0
100
AcDbBlockReference
  2
CLUMP94
 10
0.0
 20
0.0
 30
0.0
  0
INSERT
  5
49D
100
AcDbEntity
  8
0
100
AcDbBlockReference
  2
CLUMP96
 10
0.0
 20
0.0
 30
0.0
  0
INSERT
  5
4B9
100
AcDbEntity
  8
0
100
AcDbBlockReference
  2
CLUMP98
 10
0.0
 20
0.0
 30
0.0
  0
INSERT
  5
4CA
100
AcDbEntity
  8
0
100
AcDbBlockReference
  2
CLUMP100
 10
0.0
 20
0.0
 30
0.0
  0
INSERT
  5
4DB
100
AcDbEntity
  8
0
100
AcDbBlockReference
  2
CLUMP102
 10
0.0
 20
0.0
 30
0.0
  0
INSERT
  5
4E7
100
AcDbEntity
  8
0
100
AcDbBlockReference
  2
CLUMP104
 10
0.0
 20
0.0
 30
0.0
  0
INSERT
  5
4F3
100
AcDbEntity
  8
0
100
AcDbBlockReference
  2
CLUMP106
 10
0.0
 20
0.0
 30
0.0
  0
ARC
  5
502
100
AcDbEntity
  8
LAYER1
 62
         3
100
AcDbCircle
 10
-17.6535072849
 20
25.9214280019
 30
0.0
 40
0.9999470545
210
0.0
220
0.0
230
1.0
100
AcDbArc
 50
324.3476078491
 51
359.8694342714
  0
LINE
  5
503
100
AcDbEntity
  8
LAYER1
 62
         3
100
AcDbLine
 10
-17.0322451048
 20
45.8985815479
 30
0.0
 11
-17.0308173873
 21
45.9740186764
 31
0.0
  0
LINE
  5
504
100
AcDbEntity
  8
LAYER1
 62
         3
100
AcDbLine
 10
-17.0308173873
 20
45.9740186764
 30
0.0
 11
-17.0320178621
 21
46.0374380185
 31
0.0
  0
LINE
  5
505
100
AcDbEntity
  8
LAYER1
 62
         3
100
AcDbLine
 10
-16.6538142838
 20
25.8985410167
 30
0.0
 11
-16.6523856349
 21
25.9740191235
 31
0.0
  0
LINE
  5
506
100
AcDbEntity
  8
LAYER1
 62
         3
100
AcDbLine
 10
-16.6523856349
 20
25.9740191235
 30
0.0
 11
-16.6535870411
 21
26.0374757184
 31
0.0
  0
LINE
  5
507
100
AcDbEntity
  8
LAYER1
 62
         3
100
AcDbLine
 10
-29.2957466334
 20
5.904030679
 30
0.0
 11
-29.2957466334
 21
3.9408790602
 31
0.0
  0
LINE
  5
508
100
AcDbEntity
  8
LAYER1
 62
         3
100
AcDbLine
 10
-24.2957467452
 20
3.9376948683
 30
0.0
 11
-24.2957467452
 21
5.904030679
 31
0.0
  0
LINE
  5
509
100
AcDbEntity
  8
LAYER1
 62
         3
100
AcDbLine
 10
-24.3828023557
 20
5.9740177079
 30
0.0
 11
-25.5457467172
 21
5.9740177079
 31
0.0
  0
LINE
  5
50A
100
AcDbEntity
  8
LAYER1
 62
         3
100
AcDbLine
 10
-28.0457466614
 20
5.9740177079
 30
0.0
 11
-29.1996883933
 21
5.9740177079
 31
0.0
  0
LINE
  5
50B
100
AcDbEntity
  8
LAYER1
 62
         3
100
AcDbLine
 10
-25.5957466323
 20
6.0265349878
 30
0.0
 11
-25.5957466323
 21
4.1582786201
 31
0.0
  0
LINE
  5
50C
100
AcDbEntity
  8
LAYER1
 62
         3
100
AcDbLine
 10
-27.9957467463
 20
4.1582786201
 30
0.0
 11
-27.9957467463
 21
6.0265349878
 31
0.0
  0
ARC
  5
50D
100
AcDbEntity
  8
LAYER1
 62
         3
100
AcDbCircle
 10
-28.3255459889
 20
13.1329711987
 30
0.0
 40
7.1140848434
210
0.0
220
0.0
230
1.0
100
AcDbArc
 50
262.161720499
 51
272.6571047997
  0
LINE
  5
50E
100
AcDbEntity
  8
LAYER1
 62
         3
100
AcDbLine
 10
-25.5957466323
 20
4.1582786201
 30
0.0
 11
-25.5957466323
 21
2.2674525811
 31
0.0
  0
LINE
  5
50F
100
AcDbEntity
  8
LAYER1
 62
         3
100
AcDbLine
 10
-27.9957467463
 20
2.2674525811
 30
0.0
 11
-27.9957467463
 21
4.1582786201
 31
0.0
  0
CIRCLE
  5
510
100
AcDbEntity
  8
LAYER1
 62
         3
100
AcDbCircle
 10
-26.7957466893
 20
46.9740174672
 30
0.0
 40
6.6
210
0.0
220
0.0
230
1.0
  0
CIRCLE
  5
511
100
AcDbEntity
  8
LAYER1
 62
         3
100
AcDbCircle
 10
-26.7957466893
 20
46.9740174672
 30
0.0
 40
8.0
210
0.0
220
0.0
230
1.0
  0
CIRCLE
  5
512
100
AcDbEntity
  8
LAYER1
 62
         3
100
AcDbCircle
 10
-26.7957466893
 20
46.9740174672
 30
0.0
 40
3.75
210
0.0
220
0.0
230
1.0
  0
ARC
  5
513
100
AcDbEntity
  8
LAYER1
 62
         3
100
AcDbCircle
 10
-26.7957466893
 20
17.9740174672
 30
0.0
 40
2.5
210
0.0
220
-0.0
230
1.0
100
AcDbArc
 50
0.0
 51
179.9999969295
  0
LINE
  5
514
100
AcDbEntity
  8
LAYER1
 62
         3
100
AcDbLine
 10
-29.2957466334
 20
17.9740178122
 30
0.0
 11
-29.2957466334
 21
9.2455601974
 31
0.0
  0
LINE
  5
515
100
AcDbEntity
  8
LAYER1
 62
         3
100
AcDbLine
 10
-24.2957467452
 20
9.2455601974
 30
0.0
 11
-24.2957467452
 21
17.9740178122
 31
0.0
  0
LINE
  5
516
100
AcDbEntity
  8
LAYER1
 62
         3
100
AcDbLine
 10
-24.2957467452
 20
6.0853535964
 30
0.0
 11
-24.2957467452
 21
9.2455601974
 31
0.0
  0
LINE
  5
517
100
AcDbEntity
  8
LAYER1
 62
         3
100
AcDbLine
 10
-29.2957466334
 20
9.2455601974
 30
0.0
 11
-29.2957466334
 21
6.0853535964
 31
0.0
  0
LINE
  5
518
100
AcDbEntity
  8
LAYER1
 62
         3
100
AcDbLine
 10
-24.2957467452
 20
3.6922475977
 30
0.0
 11
-24.2957467452
 21
3.9376948683
 31
0.0
  0
LINE
  5
519
100
AcDbEntity
  8
LAYER1
 62
         3
100
AcDbLine
 10
-24.2957467452
 20
5.904030679
 30
0.0
 11
-24.2957467452
 21
6.0853535964
 31
0.0
  0
LINE
  5
51A
100
AcDbEntity
  8
LAYER1
 62
         3
100
AcDbLine
 10
-29.2957466334
 20
6.0853535964
 30
0.0
 11
-29.2957466334
 21
5.904030679
 31
0.0
  0
CIRCLE
  5
51B
100
AcDbEntity
  8
LAYER1
 62
         3
100
AcDbCircle
 10
-26.7957466893
 20
46.9740174672
 30
0.0
 40
6.0
210
0.0
220
0.0
230
1.0
  0
CIRCLE
  5
51C
100
AcDbEntity
  8
LAYER1
 62
         3
100
AcDbCircle
 10
-26.7957466893
 20
46.9740174672
 30
0.0
 40
2.5
210
0.0
220
0.0
230
1.0
  0
ARC
  5
51D
100
AcDbEntity
  8
LAYER1
 62
         3
100
AcDbCircle
 10
-26.7957466893
 20
17.4740174672
 30
0.0
 40
5.0
210
0.0
220
0.0
230
1.0
100
AcDbArc
 50
108.6629267385
 51
239.999997953
  0
ARC
  5
51E
100
AcDbEntity
  8
LAYER1
 62
         3
100
AcDbCircle
 10
-26.7957466893
 20
17.4740174672
 30
0.0
 40
5.0
210
-0.0
220
0.0
230
1.0
100
AcDbArc
 50
299.9999989765
 51
71.337076332
  0
LINE
  5
51F
100
AcDbEntity
  8
LAYER1
 62
         3
100
AcDbLine
 10
-28.3957466489
 20
22.9740167691
 30
0.0
 11
-28.3957466489
 21
22.211103393
 31
0.0
  0
ARC
  5
520
100
AcDbEntity
  8
LAYER1
 62
         3
100
AcDbCircle
 10
-28.8957466893
 20
22.557323478
 30
0.0
 40
2.0
210
-0.0
220
0.0
230
1.0
100
AcDbArc
 50
292.4463494292
 51
0.0
  0
ARC
  5
521
100
AcDbEntity
  8
LAYER1
 62
         3
100
AcDbCircle
 10
-35.9395695017
 20
25.9209168351
 30
0.0
 40
0.9983626148
210
0.0
220
0.0
230
1.0
100
AcDbArc
 50
180.1014340766
 51
215.681517662
  0
ARC
  5
522
100
AcDbEntity
  8
LAYER1
 62
         3
100
AcDbCircle
 10
-35.5595021718
 20
45.9214451359
 30
0.0
 40
1.0
210
0.0
220
0.0
230
1.0
100
AcDbArc
 50
180.1316373396
 51
216.0498222523
  0
ARC
  5
523
100
AcDbEntity
  8
LAYER1
 62
         3
100
AcDbCircle
 10
-35.5597295384
 20
46.0145735327
 30
0.0
 40
1.0
210
0.0
220
0.0
230
1.0
100
AcDbArc
 50
141.5680754253
 51
180.1504229236
  0
LINE
  5
524
100
AcDbEntity
  8
LAYER1
 62
         3
100
AcDbLine
 10
-36.9379063375
 20
26.0374757184
 30
0.0
 11
-36.9391077437
 21
25.9740191235
 31
0.0
  0
LINE
  5
525
100
AcDbEntity
  8
LAYER1
 62
         3
100
AcDbLine
 10
-36.9391077437
 20
25.9740191235
 30
0.0
 11
-36.9376790948
 21
25.8985410167
 31
0.0
  0
LINE
  5
526
100
AcDbEntity
  8
LAYER1
 62
         3
100
AcDbLine
 10
-36.5594755165
 20
46.0374380185
 30
0.0
 11
-36.5606759913
 21
45.9740186764
 31
0.0
  0
LINE
  5
527
100
AcDbEntity
  8
LAYER1
 62
         3
100
AcDbLine
 10
-36.5606759913
 20
45.9740186764
 30
0.0
 11
-36.5592482738
 21
45.8985815479
 31
0.0
  0
LINE
  5
528
100
AcDbEntity
  8
LAYER1
 62
         3
100
AcDbLine
 10
-17.7957470767
 20
49.3988903894
 30
0.0
 11
-17.2957469948
 21
49.1102139188
 31
0.0
  0
LINE
  5
529
100
AcDbEntity
  8
LAYER1
 62
         3
100
AcDbLine
 10
-17.2734101541
 20
47.9426185323
 30
0.0
 11
-16.8148772098
 21
23.9740187956
 31
0.0
  0
LINE
  5
52A
100
AcDbEntity
  8
LAYER1
 62
         3
100
AcDbLine
 10
-21.1665815912
 20
22.9740167691
 30
0.0
 11
-32.4249117874
 21
22.9740167691
 31
0.0
  0
LINE
  5
52B
100
AcDbEntity
  8
LAYER1
 62
         3
100
AcDbLine
 10
-20.7335687481
 20
22.9740167691
 30
0.0
 11
-21.1665815912
 21
22.9740167691
 31
0.0
  0
LINE
  5
52C
100
AcDbEntity
  8
LAYER1
 62
         3
100
AcDbLine
 10
-32.4249117874
 20
22.9740167691
 30
0.0
 11
-32.8579246305
 21
22.9740167691
 31
0.0
  0
LINE
  5
52D
100
AcDbEntity
  8
LAYER1
 62
         3
100
AcDbLine
 10
-18.8069724716
 20
49.9827216102
 30
0.0
 11
-19.5803920977
 21
50.4292535318
 31
0.0
  0
LINE
  5
52E
100
AcDbEntity
  8
LAYER1
 62
         3
100
AcDbLine
 10
-34.0111012809
 20
50.4292535318
 30
0.0
 11
-35.2843933977
 21
49.6941196455
 31
0.0
  0
LINE
  5
52F
100
AcDbEntity
  8
LAYER1
 62
         3
100
AcDbLine
 10
-35.7955637626
 20
22.9740167691
 30
0.0
 11
-32.8579246305
 21
22.9740167691
 31
0.0
  0
LINE
  5
530
100
AcDbEntity
  8
LAYER1
 62
         3
100
AcDbLine
 10
-20.7335687481
 20
22.9740167691
 30
0.0
 11
-18.2959259726
 21
22.9740167691
 31
0.0
  0
LINE
  5
531
100
AcDbEntity
  8
LAYER1
 62
         3
100
AcDbLine
 10
-17.7957470767
 20
49.3988903894
 30
0.0
 11
-17.2957469948
 21
22.9740167691
 31
0.0
  0
LINE
  5
532
100
AcDbEntity
  8
LAYER1
 62
         3
100
AcDbLine
 10
-17.2957469948
 20
22.9740167691
 30
0.0
 11
-18.2959259726
 21
22.9740167691
 31
0.0
  0
LINE
  5
533
100
AcDbEntity
  8
LAYER1
 62
         3
100
AcDbLine
 10
-36.7957464658
 20
22.9740167691
 30
0.0
 11
-36.2957463838
 21
49.1102139188
 31
0.0
  0
LINE
  5
534
100
AcDbEntity
  8
LAYER1
 62
         3
100
AcDbLine
 10
-27.9957467463
 20
3.2262175067
 30
0.0
 11
-28.0457466614
 21
3.2321900784
 31
0.0
  0
ARC
  5
535
100
AcDbEntity
  8
LAYER1
 62
         3
100
AcDbCircle
 10
-29.1245595901
 20
3.7072871169
 30
0.0
 40
0.1718464167
210
0.0
220
0.0
230
1.0
100
AcDbArc
 50
185.020787072
 51
230.8776002892
  0
LINE
  5
536
100
AcDbEntity
  8
LAYER1
 62
         3
100
AcDbLine
 10
-35.7955637626
 20
22.9740167691
 30
0.0
 11
-36.7957464658
 21
22.9740167691
 31
0.0
  0
LINE
  5
537
100
AcDbEntity
  8
LAYER1
 62
         3
100
AcDbLine
 10
-25.5457467172
 20
5.9740177079
 30
0.0
 11
-25.5457467172
 21
5.4671547098
 31
0.0
  0
LINE
  5
538
100
AcDbEntity
  8
LAYER1
 62
         3
100
AcDbLine
 10
-28.0457466614
 20
5.4671547098
 30
0.0
 11
-28.0457466614
 21
5.9740177079
 31
0.0
  0
ARC
  5
539
100
AcDbEntity
  8
LAYER1
 62
         3
100
AcDbCircle
 10
-25.2659473897
 20
13.1329711987
 30
0.0
 40
7.1140848434
210
0.0
220
0.0
230
1.0
100
AcDbArc
 50
267.3428921298
 51
277.8382764306
  0
LINE
  5
53A
100
AcDbEntity
  8
LAYER1
 62
         3
100
AcDbLine
 10
-17.3146686755
 20
23.9740187956
 30
0.0
 11
-16.8148772098
 21
23.9740187956
 31
0.0
  0
LINE
  5
53B
100
AcDbEntity
  8
LAYER1
 62
         3
100
AcDbLine
 10
-17.2734101541
 20
47.9426185323
 30
0.0
 11
-17.7736570366
 21
48.2314328386
 31
0.0
  0
LINE
  5
53C
100
AcDbEntity
  8
LAYER1
 62
         3
100
AcDbLine
 10
-21.1665815912
 20
29.1598054303
 30
0.0
 11
-32.4249117874
 21
29.1598054303
 31
0.0
  0
LINE
  5
53D
100
AcDbEntity
  8
LAYER1
 62
         3
100
AcDbLine
 10
-32.0457848027
 20
29.8669102325
 30
0.0
 11
-21.5457085759
 21
29.8669102325
 31
0.0
  0
LINE
  5
53E
100
AcDbEntity
  8
LAYER1
 62
         3
100
AcDbLine
 10
-32.4249117874
 20
29.1598054303
 30
0.0
 11
-32.4249117874
 21
22.9740167691
 31
0.0
  0
LINE
  5
53F
100
AcDbEntity
  8
LAYER1
 62
         3
100
AcDbLine
 10
-21.1665815912
 20
22.9740167691
 30
0.0
 11
-21.1665815912
 21
29.1598054303
 31
0.0
  0
LINE
  5
540
100
AcDbEntity
  8
LAYER1
 62
         3
100
AcDbLine
 10
-24.5031373814
 20
32.1275691225
 30
0.0
 11
-29.0883559972
 21
32.1275691225
 31
0.0
  0
LINE
  5
541
100
AcDbEntity
  8
LAYER1
 62
         3
100
AcDbLine
 10
-29.0032808442
 20
32.4811252488
 30
0.0
 11
-24.5882125344
 21
32.4811252488
 31
0.0
  0
ARC
  5
542
100
AcDbEntity
  8
LAYER1
 62
         3
100
AcDbCircle
 10
-23.8705057203
 20
32.4668111395
 30
0.0
 40
0.7178495418
210
0.0
220
0.0
230
1.0
100
AcDbArc
 50
178.8574343638
 51
208.2019597174
  0
ARC
  5
543
100
AcDbEntity
  8
LAYER1
 62
         3
100
AcDbCircle
 10
-29.7209876583
 20
32.4668111395
 30
0.0
 40
0.7178495418
210
-0.0
220
0.0
230
1.0
100
AcDbArc
 50
331.7980372121
 51
1.1425687067
  0
LINE
  5
544
100
AcDbEntity
  8
LAYER1
 62
         3
100
AcDbLine
 10
-29.0032808442
 20
39.2846229209
 30
0.0
 11
-29.0032808442
 21
32.4811252488
 31
0.0
  0
LINE
  5
545
100
AcDbEntity
  8
LAYER1
 62
         3
100
AcDbLine
 10
-24.5882125344
 20
32.4811252488
 30
0.0
 11
-24.5882125344
 21
39.2846229209
 31
0.0
  0
LINE
  5
546
100
AcDbEntity
  8
LAYER1
 62
         3
100
AcDbLine
 10
-26.6957466918
 20
22.9740167691
 30
0.0
 11
-26.6957466918
 21
22.5573244227
 31
0.0
  0
ARC
  5
547
100
AcDbEntity
  8
LAYER1
 62
         3
100
AcDbCircle
 10
-26.7957466893
 20
17.4740174672
 30
0.0
 40
3.5
210
-0.0
220
0.0
230
1.0
100
AcDbArc
 50
315.5846906452
 51
67.5536505709
  0
ARC
  5
548
100
AcDbEntity
  8
LAYER1
 62
         3
100
AcDbCircle
 10
-26.7957466893
 20
17.4740174672
 30
0.0
 40
3.5
210
0.0
220
0.0
230
1.0
100
AcDbArc
 50
112.4463524995
 51
224.4153062844
  0
LINE
  5
549
100
AcDbEntity
  8
LAYER1
 62
         3
100
AcDbLine
 10
-25.1957467297
 20
22.211103393
 30
0.0
 11
-25.1957467297
 21
22.9740167691
 31
0.0
  0
ARC
  5
54A
100
AcDbEntity
  8
LAYER1
 62
         3
100
AcDbCircle
 10
-24.6957466893
 20
22.557323478
 30
0.0
 40
2.0
210
0.0
220
0.0
230
1.0
100
AcDbArc
 50
179.9999969295
 51
247.5536475005
  0
LINE
  5
54B
100
AcDbEntity
  8
LAYER1
 62
         3
100
AcDbLine
 10
-26.8957466868
 20
22.5573244227
 30
0.0
 11
-26.8957466868
 21
22.9740167691
 31
0.0
  0
LINE
  5
54C
100
AcDbEntity
  8
LAYER1
 62
         3
100
AcDbLine
 10
-16.7957469128
 20
22.9740167691
 30
0.0
 11
-17.2957469948
 21
22.9740167691
 31
0.0
  0
LINE
  5
54D
100
AcDbEntity
  8
LAYER0
 62
         3
100
AcDbLine
 10
-25.0
 20
-125.5
 30
0.0
 11
-25.0
 21
-138.5
 31
0.0
  0
MTEXT
  5
54E
100
AcDbEntity
  8
LAYER0
100
AcDbMText
 10
-10.6564309049
 20
-126.7970201517
 30
0.0
 40
2.1473683357
 41
7.6538653946
 71
         1
 72
         1
  1
\W0.8;品　番
  0
LINE
  5
54F
100
AcDbEntity
  8
LAYER0
 62
         3
100
AcDbLine
 10
-40.0
 20
-138.5
 30
0.0
 11
-40.0
 21
-125.5
 31
0.0
  0
LINE
  5
550
100
AcDbEntity
  8
LAYER1
 62
         3
100
AcDbLine
 10
-29.2954220675
 20
-14.1177278289
 30
0.0
 11
-29.2957466334
 21
-14.1177278289
 31
0.0
  0
LINE
  5
551
100
AcDbEntity
  8
LAYER1
 62
         3
100
AcDbLine
 10
-24.2957467452
 20
-14.1177278289
 30
0.0
 11
-24.2960713111
 21
-14.1177278289
 31
0.0
  0
ARC
  5
552
100
AcDbEntity
  8
LAYER1
 62
         3
100
AcDbCircle
 10
-26.7957466893
 20
-27.0259825328
 30
0.0
 40
2.5
210
0.0
220
-0.0
230
1.0
100
AcDbArc
 50
179.9999969295
 51
0.0
  0
LINE
  5
553
100
AcDbEntity
  8
LAYER1
 62
         3
100
AcDbLine
 10
-24.2957467452
 20
-27.0259821133
 30
0.0
 11
-24.2957467452
 21
-14.9010674374
 31
0.0
  0
LINE
  5
554
100
AcDbEntity
  8
LAYER1
 62
         3
100
AcDbLine
 10
-29.2957466334
 20
-14.9010674374
 30
0.0
 11
-29.2957466334
 21
-27.0259821133
 31
0.0
  0
LINE
  5
555
100
AcDbEntity
  8
LAYER1
 62
         3
100
AcDbLine
 10
-24.2957467452
 20
-13.9239044671
 30
0.0
 11
-24.2957467452
 21
-11.9695785267
 31
0.0
  0
LINE
  5
556
100
AcDbEntity
  8
LAYER1
 62
         3
100
AcDbLine
 10
-24.2957467452
 20
-14.9010674374
 30
0.0
 11
-24.2957467452
 21
-13.9239044671
 31
0.0
  0
LINE
  5
557
100
AcDbEntity
  8
LAYER1
 62
         3
100
AcDbLine
 10
-29.2957466334
 20
-13.9239044671
 30
0.0
 11
-29.2957466334
 21
-14.9010674374
 31
0.0
  0
LINE
  5
558
100
AcDbEntity
  8
LAYER1
 62
         3
100
AcDbLine
 10
-29.2957466334
 20
-11.9695785267
 30
0.0
 11
-29.2957466334
 21
-13.9239044671
 31
0.0
  0
INSERT
  5
55A
100
AcDbEntity
  8
0
100
AcDbBlockReference
  2
CLUMP108
 10
0.0
 20
0.0
 30
0.0
  0
INSERT
  5
576
100
AcDbEntity
  8
0
100
AcDbBlockReference
  2
CLUMP110
 10
0.0
 20
0.0
 30
0.0
  0
LINE
  5
591
100
AcDbEntity
  8
LAYER1
 62
         3
100
AcDbLine
 10
-32.8579246305
 20
29.1598054303
 30
0.0
 11
-32.4249117874
 21
29.1598054303
 31
0.0
  0
LINE
  5
592
100
AcDbEntity
  8
LAYER1
 62
         3
100
AcDbLine
 10
-21.1665815912
 20
29.1598054303
 30
0.0
 11
-20.7335687481
 21
29.1598054303
 31
0.0
  0
LINE
  5
593
100
AcDbEntity
  8
LAYER1
 62
         3
100
AcDbLine
 10
-20.7335687481
 20
29.1598054303
 30
0.0
 11
-20.7335687481
 21
22.9740167691
 31
0.0
  0
LINE
  5
594
100
AcDbEntity
  8
LAYER1
 62
         3
100
AcDbLine
 10
-32.8579246305
 20
22.9740167691
 30
0.0
 11
-32.8579246305
 21
29.1598054303
 31
0.0
  0
LINE
  5
595
100
AcDbEntity
  8
LAYER1
 62
         3
100
AcDbLine
 10
-24.5882125344
 20
32.4811252488
 30
0.0
 11
-24.2977474589
 21
32.4811252488
 31
0.0
  0
LINE
  5
596
100
AcDbEntity
  8
LAYER1
 62
         3
100
AcDbLine
 10
-29.2937459197
 20
32.4811252488
 30
0.0
 11
-29.0032808442
 21
32.4811252488
 31
0.0
  0
LINE
  5
597
100
AcDbEntity
  8
LAYER1
 62
         3
100
AcDbLine
 10
-29.2937459197
 20
32.4811252488
 30
0.0
 11
-29.2937459197
 21
39.3740187122
 31
0.0
  0
LINE
  5
598
100
AcDbEntity
  8
LAYER1
 62
         3
100
AcDbLine
 10
-24.2977474589
 20
39.3740187122
 30
0.0
 11
-24.2977474589
 21
32.4811252488
 31
0.0
  0
ARC
  5
599
100
AcDbEntity
  8
LAYER1
 62
         3
100
AcDbCircle
 10
-26.7957466893
 20
-6.7357227863
 30
0.0
 40
10.9598935569
210
0.0
220
-0.0
230
1.0
100
AcDbArc
 50
83.7140773822
 51
96.2859256883
  0
ARC
  5
59A
100
AcDbEntity
  8
LAYER1
 62
         3
100
AcDbCircle
 10
-24.4638111564
 20
3.706315836
 30
0.0
 40
0.1686521914
210
0.0
220
0.0
230
1.0
100
AcDbArc
 50
310.9328611719
 51
355.2150731207
  0
LINE
  5
59B
100
AcDbEntity
  8
LAYER1
 62
         3
100
AcDbLine
 10
-25.5457467172
 20
3.2321900784
 30
0.0
 11
-25.5957466323
 21
3.2262175067
 31
0.0
  0
LINE
  5
59C
100
AcDbEntity
  8
LAYER0
 62
         3
100
AcDbLine
 10
95.0
 20
-125.5
 30
0.0
 11
-40.0
 21
-125.5
 31
0.0
  0
LINE
  5
59D
100
AcDbEntity
  8
LAYER0
 62
         3
100
AcDbLine
 10
95.0
 20
-130.5
 30
0.0
 11
-40.0
 21
-130.5
 31
0.0
  0
LINE
  5
59E
100
AcDbEntity
  8
LAYER0
 62
         3
100
AcDbLine
 10
95.0
 20
-138.5
 30
0.0
 11
-40.0
 21
-138.5
 31
0.0
  0
LINE
  5
59F
100
AcDbEntity
  8
LAYER1
 62
         3
100
AcDbLine
 10
-28.0457466614
 20
5.4671547098
 30
0.0
 11
-28.0457466614
 21
0.508930227
 31
0.0
  0
ARC
  5
5A0
100
AcDbEntity
  8
LAYER1
 62
         3
100
AcDbCircle
 10
-26.7957466893
 20
-10.1909814379
 30
0.0
 40
10.7726788482
210
0.0
220
-0.0
230
1.0
100
AcDbArc
 50
83.3367174322
 51
96.6632856383
  0
LINE
  5
5A1
100
AcDbEntity
  8
LAYER1
 62
         3
100
AcDbLine
 10
-25.5457467172
 20
0.508930227
 30
0.0
 11
-25.5457467172
 21
5.4671547098
 31
0.0
  0
LINE
  5
5A2
100
AcDbEntity
  8
LAYER1
 62
         3
100
AcDbLine
 10
-29.2957466334
 20
2.0089332669
 30
0.0
 11
-29.2957466334
 21
-11.9690513981
 31
0.0
  0
LINE
  5
5A3
100
AcDbEntity
  8
LAYER1
 62
         3
100
AcDbLine
 10
-24.2957467452
 20
-11.9690513981
 30
0.0
 11
-24.2957467452
 21
1.9973466827
 31
0.0
  0
LINE
  5
5A4
100
AcDbEntity
  8
LAYER1
 62
         3
100
AcDbLine
 10
-25.5957466323
 20
2.2674525811
 30
0.0
 11
-25.5957466323
 21
0.5149661286
 31
0.0
  0
LINE
  5
5A5
100
AcDbEntity
  8
LAYER1
 62
         3
100
AcDbLine
 10
-27.9957467463
 20
0.5149661286
 30
0.0
 11
-27.9957467463
 21
2.2674525811
 31
0.0
  0
LINE
  5
5A6
100
AcDbEntity
  8
LAYER1
 62
         3
100
AcDbLine
 10
25.5892842098
 20
3.1610193385
 30
0.0
 11
29.6325429364
 21
-15.4322961622
 31
0.0
  0
LINE
  5
5A7
100
AcDbEntity
  8
LAYER1
 62
         3
100
AcDbLine
 10
34.5183573219
 20
-14.3698382468
 30
0.0
 11
30.4750992938
 21
4.2234767883
 31
0.0
  0
LINE
  5
5A8
100
AcDbEntity
  8
LAYER1
 62
         3
100
AcDbLine
 10
13.660488373
 20
0.508930227
 30
0.0
 11
14.750651738
 21
5.4671547098
 31
0.0
  0
LINE
  5
5A9
100
AcDbEntity
  8
LAYER1
 62
         3
100
AcDbLine
 10
18.9797614723
 20
4.5373008309
 30
0.0
 11
17.8895999699
 21
-0.4209227206
 31
0.0
  0
LINE
  5
5AA
100
AcDbEntity
  8
LAYER1
 62
         3
100
AcDbLine
 10
18.2653942167
 20
1.2882516442
 30
0.0
 11
18.3073614746
 21
1.3353914677
 31
0.0
  0
LINE
  5
5AB
100
AcDbEntity
  8
LAYER1
 62
         3
100
AcDbLine
 10
18.3073614746
 20
1.3353914677
 30
0.0
 11
18.7185348033
 21
3.2262175067
 31
0.0
  0
ARC
  5
5AC
100
AcDbEntity
  8
LAYER1
 62
         3
100
AcDbCircle
 10
16.4192653568
 20
2.9740174672
 30
0.0
 40
2.5
210
0.0
220
0.0
230
1.0
100
AcDbArc
 50
319.0461951448
 51
347.7315976482
  0
LINE
  5
5AD
100
AcDbEntity
  8
LAYER1
 62
         3
100
AcDbLine
 10
13.3333669066
 20
0.5808553381
 30
0.0
 11
10.6920597165
 21
-11.4322005117
 31
0.0
  0
LINE
  5
5AE
100
AcDbEntity
  8
LAYER1
 62
         3
100
AcDbLine
 10
14.6216058194
 20
-16.8439688438
 30
0.0
 11
18.2167214363
 21
-0.4928469004
 31
0.0
  0
INSERT
  5
5B0
100
AcDbEntity
  8
0
100
AcDbBlockReference
  2
CLUMP112
 10
0.0
 20
0.0
 30
0.0
  0
INSERT
  5
5BC
100
AcDbEntity
  8
0
100
AcDbBlockReference
  2
CLUMP114
 10
0.0
 20
0.0
 30
0.0
  0
LINE
  5
5C7
100
AcDbEntity
  8
LAYER3
 62
         4
100
AcDbLine
 10
63.0828755172
 20
54.974018289
 30
0.0
 11
63.0828755172
 21
-29.5259825328
 31
0.0
  0
LINE
  5
5C8
100
AcDbEntity
  8
LAYER3
 62
         4
100
AcDbLine
 10
54.6203209321
 20
38.9740156664
 30
0.0
 11
54.6203209321
 21
-24.5259825328
 31
0.0
  0
MTEXT
  5
5C9
100
AcDbEntity
  8
LAYER0
100
AcDbMText
 10
-17.3781737419
 20
-132.5157576176
 30
0.0
 40
3.0922104359
 41
11.0792708193
 71
         1
 72
         1
  1
\W0.8;S-501C
  0
MTEXT
  5
5CA
100
AcDbEntity
  8
LAYER0
100
AcDbMText
 10
-35.7051459079
 20
-126.6461242782
 30
0.0
 40
2.1473683357
 41
6.4116149902
 71
         1
 72
         1
  1
\W0.8;Ｎｏ.
  0
ENDSEC
  0
SECTION
  2
OBJECTS
  0
DICTIONARY
  5
19
100
AcDbDictionary
280
         0
281
         1
  3
ACAD_GROUP
350
1A
  3
ACAD_MLINESTYLE
350
1B
  3
ACAD_LAYOUT
350
1E
  3
ACAD_PLOTSETTINGS
350
22
  3
ACAD_PLOTSTYLENAME
350
1F
  3
ACAD_WIPEOUT_VARS
350
23
  0
DICTIONARY
  5
1A
102
{ACAD_REACTORS
330
19
102
}
100
AcDbDictionary
280
         0
281
         1
  0
DICTIONARY
  5
1B
102
{ACAD_REACTORS
330
19
102
}
100
AcDbDictionary
280
         0
281
         1
  3
Standard
350
1C
  0
MLINESTYLE
  5
1C
102
{ACAD_REACTORS
330
1B
102
}
100
AcDbMlineStyle
  2
Standard
 70
         0
  3

 62
         0
 51
90.0
 52
90.0
 71
         2
 49
0.5
 62
       256
  6
BYLAYER
 49
-0.5
 62
       256
  6
BYLAYER
  0
ACDBDICTIONARYWDFLT
  5
1F
102
{ACAD_REACTORS
330
19
102
}
100
AcDbDictionary
281
         1
  3
Normal
350
1D
100
AcDbDictionaryWithDefault
340
1D
  0
ACDBPLACEHOLDER
  5
1D
102
{ACAD_REACTORS
330
1F
102
}
  0
LAYOUT
  5
20
102
{ACAD_REACTORS
330
1E
102
}
100
AcDbPlotSettings
  1

  2

  4

  6

 40
0.0
 41
0.0
 42
0.0
 43
0.0
 44
0.0
 45
0.0
 46
0.0
 47
0.0
 48
0.0
 49
0.0
140
0.0
141
0.0
142
1.0
143
1.0
 70
         0
 72
         0
 73
         0
 74
         0
  7

 75
         0
147
1.0
148
0.0
149
0.0
100
AcDbLayout
  1
Model
 70
         0
 71
         0
 10
0.0
 20
0.0
 11
0.0
 21
0.0
 12
0.0
 22
0.0
 32
0.0
 14
0.0
 24
0.0
 34
0.0
 15
0.0
 25
0.0
 35
0.0
146
0.0
 13
0.0
 23
0.0
 33
0.0
 16
0.0
 26
0.0
 36
0.0
 17
0.0
 27
0.0
 37
0.0
 76
         0
330
A
331
0
345
0
346
0
  0
LAYOUT
  5
21
102
{ACAD_REACTORS
330
1E
102
}
100
AcDbPlotSettings
  1

  2

  4

  6

 40
0.0
 41
0.0
 42
0.0
 43
0.0
 44
0.0
 45
0.0
 46
0.0
 47
0.0
 48
0.0
 49
0.0
140
0.0
141
0.0
142
1.0
143
1.0
 70
         0
 72
         0
 73
         0
 74
         0
  7

 75
         0
147
1.0
148
0.0
149
0.0
100
AcDbLayout
  1
Layout1
 70
         0
 71
         0
 10
0.0
 20
0.0
 11
0.0
 21
0.0
 12
0.0
 22
0.0
 32
0.0
 14
0.0
 24
0.0
 34
0.0
 15
0.0
 25
0.0
 35
0.0
146
0.0
 13
0.0
 23
0.0
 33
0.0
 16
0.0
 26
0.0
 36
0.0
 17
0.0
 27
0.0
 37
0.0
 76
         0
330
B
331
0
345
0
346
0
  0
DICTIONARY
  5
1E
102
{ACAD_REACTORS
330
19
102
}
100
AcDbDictionary
280
         0
281
         1
  3
Layout1
350
21
  3
Model
350
20
  0
DICTIONARY
  5
22
102
{ACAD_REACTORS
330
19
102
}
100
AcDbDictionary
280
         0
281
         1
  0
WIPEOUTVARIABLES
  5
23
100
AcDbWipeoutVariables
 70
         1
  0
ENDSEC
  0
EOF
