  0
SECTION
  2
HEADER
  9
$ACADVER
  1
AC1015
  9
$ACADMAINTVER
 70
         6
  9
$DWGCODEPAGE
  3
ANSI_932
  9
$INSBASE
 10
0.0
 20
0.0
 30
0.0
  9
$EXTMIN
 10
1.0000000000E+20
 20
1.0000000000E+20
 30
1.0000000000E+20
  9
$EXTMAX
 10
-1.0000000000E+20
 20
-1.0000000000E+20
 30
-1.0000000000E+20
  9
$LIMMIN
 10
0.0
 20
0.0
  9
$LIMMAX
 10
0.0
 20
0.0
  9
$ORTHOMODE
 70
         0
  9
$REGENMODE
 70
         1
  9
$FILLMODE
 70
         1
  9
$QTEXTMODE
 70
         0
  9
$MIRRTEXT
 70
         1
  9
$LTSCALE
 40
1.0
  9
$ATTMODE
 70
         1
  9
$TEXTSIZE
 40
0.2
  9
$TRACEWID
 40
0.05
  9
$TEXTSTYLE
  7
Standard
  9
$CLAYER
  8
0
  9
$CELTYPE
  6
Continuous
  9
$CECOLOR
 62
       256
  9
$CELTSCALE
 40
1.0
  9
$DISPSILH
 70
         0
  9
$DIMSCALE
 40
1.0
  9
$DIMASZ
 40
0.18
  9
$DIMEXO
 40
0.0625
  9
$DIMDLI
 40
0.38
  9
$DIMRND
 40
0.0
  9
$DIMDLE
 40
0.0
  9
$DIMEXE
 40
0.18
  9
$DIMTP
 40
0.0
  9
$DIMTM
 40
0.0
  9
$DIMTXT
 40
0.18
  9
$DIMCEN
 40
0.09
  9
$DIMTSZ
 40
0.0
  9
$DIMTOL
 70
         0
  9
$DIMLIM
 70
         0
  9
$DIMTIH
 70
         1
  9
$DIMTOH
 70
         1
  9
$DIMSE1
 70
         0
  9
$DIMSE2
 70
         0
  9
$DIMTAD
 70
         0
  9
$DIMZIN
 70
         0
  9
$DIMBLK
  1

  9
$DIMASO
 70
         1
  9
$DIMSHO
 70
         1
  9
$DIMPOST
  1

  9
$DIMAPOST
  1

  9
$DIMALT
 70
         0
  9
$DIMALTD
 70
         2
  9
$DIMALTF
 40
25.4
  9
$DIMLFAC
 40
1.0
  9
$DIMTOFL
 70
         0
  9
$DIMTVP
 40
0.0
  9
$DIMTIX
 70
         0
  9
$DIMSOXD
 70
         0
  9
$DIMSAH
 70
         0
  9
$DIMBLK1
  1

  9
$DIMBLK2
  1

  9
$DIMSTYLE
  2
Standard
  9
$DIMCLRD
 70
         0
  9
$DIMCLRE
 70
         0
  9
$DIMCLRT
 70
         0
  9
$DIMTFAC
 40
1.0
  9
$DIMGAP
 40
0.09
  9
$DIMJUST
 70
         0
  9
$DIMSD1
 70
         0
  9
$DIMSD2
 70
         0
  9
$DIMTOLJ
 70
         1
  9
$DIMTZIN
 70
         0
  9
$DIMALTZ
 70
         0
  9
$DIMALTTZ
 70
         0
  9
$DIMUPT
 70
         0
  9
$DIMDEC
 70
         4
  9
$DIMTDEC
 70
         4
  9
$DIMALTU
 70
         2
  9
$DIMALTTD
 70
         2
  9
$DIMTXSTY
  7
Standard
  9
$DIMAUNIT
 70
         0
  9
$DIMADEC
 70
         0
  9
$DIMALTRND
 40
0.0
  9
$DIMAZIN
 70
         0
  9
$DIMDSEP
 70
         0
  9
$DIMATFIT
 70
         3
  9
$DIMFRAC
 70
         0
  9
$DIMLDRBLK
  1

  9
$DIMLUNIT
 70
         2
  9
$DIMLWD
 70
         0
  9
$DIMLWE
 70
         0
  9
$DIMTMOVE
 70
         0
  9
$LUNITS
 70
         2
  9
$LUPREC
 70
         4
  9
$SKETCHINC
 40
0.1
  9
$FILLETRAD
 40
0.0
  9
$AUNITS
 70
         0
  9
$AUPREC
 70
         0
  9
$MENU
  1
acad
  9
$ELEVATION
 40
0.0
  9
$PELEVATION
 40
0.0
  9
$THICKNESS
 40
0.0
  9
$LIMCHECK
 70
         0
  9
$CHAMFERA
 40
0.0
  9
$CHAMFERB
 40
0.0
  9
$CHAMFERC
 40
0.0
  9
$CHAMFERD
 40
0.0
  9
$SKPOLY
 70
         0
  9
$TDCREATE
 40
0.000000000
  9
$TDUCREATE
 40
0.000000000
  9
$TDUPDATE
 40
0.000000000
  9
$TDUUPDATE
 40
0.000000000
  9
$TDINDWG
 40
0.0000000000
  9
$TDUSRTIMER
 40
0.0000000000
  9
$USRTIMER
 70
         1
  9
$ANGBASE
 50
0.0
  9
$ANGDIR
 70
         0
  9
$PDMODE
 70
         3
  9
$PDSIZE
 40
-1.0
  9
$PLINEWID
 40
0.0
  9
$SPLFRAME
 70
         0
  9
$SPLINETYPE
 70
         6
  9
$SPLINESEGS
 70
         8
  9
$HANDSEED
  5
3B6
  9
$SURFTAB1
 70
         6
  9
$SURFTAB2
 70
         6
  9
$SURFTYPE
 70
         6
  9
$SURFU
 70
         6
  9
$SURFV
 70
         6
  9
$UCSBASE
  2

  9
$UCSNAME
  2

  9
$UCSORG
 10
0.0
 20
0.0
 30
0.0
  9
$UCSXDIR
 10
1.0
 20
0.0
 30
0.0
  9
$UCSYDIR
 10
0.0
 20
1.0
 30
0.0
  9
$UCSORTHOREF
  2

  9
$UCSORTHOVIEW
 70
         0
  9
$UCSORGTOP
 10
0.0
 20
0.0
 30
0.0
  9
$UCSORGBOTTOM
 10
0.0
 20
0.0
 30
0.0
  9
$UCSORGLEFT
 10
0.0
 20
0.0
 30
0.0
  9
$UCSORGRIGHT
 10
0.0
 20
0.0
 30
0.0
  9
$UCSORGFRONT
 10
0.0
 20
0.0
 30
0.0
  9
$UCSORGBACK
 10
0.0
 20
0.0
 30
0.0
  9
$PUCSBASE
  2

  9
$PUCSNAME
  2

  9
$PUCSORG
 10
0.0
 20
0.0
 30
0.0
  9
$PUCSXDIR
 10
1.0
 20
0.0
 30
0.0
  9
$PUCSYDIR
 10
0.0
 20
1.0
 30
0.0
  9
$PUCSORTHOREF
  2

  9
$PUCSORTHOVIEW
 70
         0
  9
$PUCSORGTOP
 10
0.0
 20
0.0
 30
0.0
  9
$PUCSORGBOTTOM
 10
0.0
 20
0.0
 30
0.0
  9
$PUCSORGLEFT
 10
0.0
 20
0.0
 30
0.0
  9
$PUCSORGRIGHT
 10
0.0
 20
0.0
 30
0.0
  9
$PUCSORGFRONT
 10
0.0
 20
0.0
 30
0.0
  9
$PUCSORGBACK
 10
0.0
 20
0.0
 30
0.0
  9
$USERI1
 70
         0
  9
$USERI2
 70
         0
  9
$USERI3
 70
         0
  9
$USERI4
 70
         0
  9
$USERI5
 70
         0
  9
$USERR1
 40
0.0
  9
$USERR2
 40
0.0
  9
$USERR3
 40
0.0
  9
$USERR4
 40
0.0
  9
$USERR5
 40
0.0
  9
$WORLDVIEW
 70
         1
  9
$SHADEDGE
 70
         3
  9
$SHADEDIF
 70
        70
  9
$TILEMODE
 70
         1
  9
$MAXACTVP
 70
        16
  9
$PINSBASE
 10
0.0
 20
0.0
 30
0.0
  9
$PLIMCHECK
 70
         0
  9
$PEXTMIN
 10
1.0000000000E+20
 20
1.0000000000E+20
 30
1.0000000000E+20
  9
$PEXTMAX
 10
-1.0000000000E+20
 20
-1.0000000000E+20
 30
-1.0000000000E+20
  9
$PLIMMIN
 10
0.0
 20
0.0
  9
$PLIMMAX
 10
12.0
 20
9.0
  9
$UNITMODE
 70
         0
  9
$VISRETAIN
 70
         0
  9
$PLINEGEN
 70
         1
  9
$PSLTSCALE
 70
         0
  9
$TREEDEPTH
 70
      3020
  9
$CMLSTYLE
  2
Standard
  9
$CMLJUST
 70
         0
  9
$CMLSCALE
 40
1.0
  9
$PROXYGRAPHICS
 70
         0
  9
$MEASUREMENT
 70
         0
  9
$CELWEIGHT
370
         0
  9
$ENDCAPS
280
         0
  9
$JOINSTYLE
280
         0
  9
$LWDISPLAY
290
         0
  9
$INSUNITS
 70
         0
  9
$HYPERLINKBASE
  1

  9
$XEDIT
290
         1
  9
$CEPSNTYPE
380
         0
  9
$PSTYLEMODE
290
         0
  9
$FINGERPRINTGUID
  2

  9
$VERSIONGUID
  2

  9
$EXTNAMES
290
         1
  9
$PSVPSCALE
 40
0.0
  0
ENDSEC
  0
SECTION
  2
CLASSES
  0
CLASS
  1
LWPOLYLINE
  2
AcDbPolyline
  3
"AutoCAD"
 90
        0
280
         0
281
         1
  0
CLASS
  1
IMAGE
  2
AcDbRasterImage
  3
ISM
 90
      127
280
         0
281
         1
  0
CLASS
  1
OLE2FRAME
  2
AcDbOle2Frame
  3
""
 90
        0
280
         0
281
         1
  0
CLASS
  1
HATCH
  2
AcDbHatch
  3
"ACAD_SEDONA"
 90
        0
280
         0
281
         1
  0
CLASS
  1
DICTIONARYVAR
  2
AcDbDictionaryVar
  3
"AutoCAD"
 90
        0
280
         0
281
         0
  0
CLASS
  1
RASTERVARIABLES
  2
AcDbRasterVariables
  3
ISM
 90
        0
280
         0
281
         0
  0
CLASS
  1
IMAGEDEF
  2
AcDbRasterImageDef
  3
ISM
 90
        0
280
         0
281
         0
  0
CLASS
  1
IMAGEDEF_REACTOR
  2
AcDbRasterImageDefReactor
  3
ISM
 90
        1
280
         0
281
         0
  0
CLASS
  1
IDBUFFER
  2
AcDbIdBuffer
  3
"Acad"
 90
        0
280
         0
281
         0
  0
CLASS
  1
SPATIAL_FILTER
  2
AcDbSpatialFilter
  3
"Acad"
 90
        0
280
         0
281
         0
  0
CLASS
  1
XRECORD
  2
AcDbXrecord
  3
"<Built In>"
 90
        0
280
         0
281
         0
  0
CLASS
  1
SORTENTSTABLE
  2
AcDbSortentsTable
  3
"AutoCAD"
 90
        0
280
         0
281
         0
  0
CLASS
  1
LAYER_INDEX
  2
AcDbLayerIndex
  3
"Acad"
 90
        0
280
         0
281
         0
  0
CLASS
  1
SPATIAL_INDEX
  2
AcDbSpatialIndex
  3
"Acad"
 90
        0
280
         0
281
         0
  0
CLASS
  1
OBJECT_PTR
  2
CAseDLPNTableRecord
  3
"ASE-LPNTableRecord"
 90
        1
280
         0
281
         0
  0
CLASS
  1
LAYOUT
  2
AcDbLayout
  3
"AutoCAD 2000"
 90
        1
280
         0
281
         0
  0
CLASS
  1
PLOTSETTINGS
  2
AcDbPlotSettings
  3
"AutoCAD 2000"
 90
        1
280
         0
281
         0
  0
CLASS
  1
ACDBDICTIONARYWDFLT
  2
AcDbDictionaryWithDefault
  3
"AutoCAD 2000"
 90
        1
280
         0
281
         0
  0
CLASS
  1
ACDBPLACEHOLDER
  2
AcDbPlaceHolder
  3
"AutoCAD 2000"
 90
        1
280
         0
281
         0
  0
CLASS
  1
VBA_PROJECT
  2
AcDbVbaProject
  3
"acadvba"
 90
        1
280
         0
281
         0
  0
CLASS
  1
WIPEOUT
  2
AcDbWipeout
  3
WipeOut|AutoCAD Express Tool|expresstools@autodesk.com
 90
      127
280
         0
281
         1
  0
CLASS
  1
WIPEOUTVARIABLES
  2
AcDbWipeoutVariables
  3
WipeOut|AutoCAD Express Tool|expresstools@autodesk.com
 90
        0
280
         0
281
         0
  0
CLASS
  1
RTEXT
  2
RText
  3
RText|AutoCAD Express Tool|expresstools@autodesk.com
 90
        0
280
         0
281
         1
  0
CLASS
  1
ARCALIGNEDTEXT
  2
AcDbArcAlignedText
  3
ATEXT|AutoCAD Express Tool|expresstools@autodesk.com
 90
        0
280
         0
281
         1
  0
ENDSEC
  0
SECTION
  2
TABLES
  0
TABLE
  2
VPORT
  5
7
100
AcDbSymbolTable
 70
         1
  0
VPORT
  5
15
100
AcDbSymbolTableRecord
100
AcDbViewportTableRecord
  2
*ACTIVE
 70
         0
 10
0.0
 20
0.0
 11
1.0
 21
1.0
 12
6.591288
 22
4.579184
 13
0.0
 23
0.0
 14
1.0
 24
1.0
 15
0.0
 25
0.0
 16
0.0
 26
0.0
 36
1.0
 17
0.0
 27
0.0
 37
0.0
 40
9.158369
 41
0.688564
 42
50.0
 43
0.0
 44
0.0
 50
0.0
 51
0.0
 71
         0
 72
       100
 73
         1
 74
         1
 75
         0
 76
         0
 77
         0
 78
         0
281
         0
 65
         0
110
0.0
120
0.0
130
0.0
111
1.0
121
0.0
131
0.0
112
0.0
122
1.0
132
0.0
345
0
346
0
 79
         0
146
0.0
  0
ENDTAB
  0
TABLE
  2
LTYPE
  5
4
100
AcDbSymbolTable
 70
        13
  0
LTYPE
  5
11
100
AcDbSymbolTableRecord
100
AcDbLinetypeTableRecord
  2
ByBlock
 70
        64
  3

 72
        65
 73
         0
 40
0.0
  0
LTYPE
  5
12
100
AcDbSymbolTableRecord
100
AcDbLinetypeTableRecord
  2
ByLayer
 70
        64
  3

 72
        65
 73
         0
 40
0.0
  0
LTYPE
  5
13
100
AcDbSymbolTableRecord
100
AcDbLinetypeTableRecord
  2
Continuous
 70
        64
  3
Solid line
 72
        65
 73
         0
 40
0.0
  0
LTYPE
  5
24
100
AcDbSymbolTableRecord
100
AcDbLinetypeTableRecord
  2
DOT
 70
        64
  3
. . . . . . . . 
 72
        65
 73
         2
 40
1.0
 49
0.0
 74
         0
 49
-1.0
 74
         0
  0
LTYPE
  5
25
100
AcDbSymbolTableRecord
100
AcDbLinetypeTableRecord
  2
DASHED
 70
        64
  3
___  ___  ___  ___  
 72
        65
 73
         2
 40
4.0
 49
3.0
 74
         0
 49
-1.0
 74
         0
  0
LTYPE
  5
26
100
AcDbSymbolTableRecord
100
AcDbLinetypeTableRecord
  2
HIDDEN
 70
        64
  3
__ __ __ __ 
 72
        65
 73
         2
 40
3.0
 49
2.0
 74
         0
 49
-1.0
 74
         0
  0
LTYPE
  5
27
100
AcDbSymbolTableRecord
100
AcDbLinetypeTableRecord
  2
STITCH
 70
        64
  3
_ _ _ _ 
 72
        65
 73
         2
 40
2.0
 49
1.0
 74
         0
 49
-1.0
 74
         0
  0
LTYPE
  5
28
100
AcDbSymbolTableRecord
100
AcDbLinetypeTableRecord
  2
CENTER
 70
        64
  3
______  __  ______  __  
 72
        65
 73
         4
 40
43.0
 49
40.0
 74
         0
 49
-1.0
 74
         0
 49
1.0
 74
         0
 49
-1.0
 74
         0
  0
LTYPE
  5
29
100
AcDbSymbolTableRecord
100
AcDbLinetypeTableRecord
  2
DASHDOT
 70
        64
  3
____ . ____ . 
 72
        65
 73
         4
 40
32.0
 49
30.0
 74
         0
 49
-1.0
 74
         0
 49
0.0
 74
         0
 49
-1.0
 74
         0
  0
LTYPE
  5
2A
100
AcDbSymbolTableRecord
100
AcDbLinetypeTableRecord
  2
BORDER
 70
        64
  3
__ . __ . 
 72
        65
 73
         4
 40
22.0
 49
20.0
 74
         0
 49
-1.0
 74
         0
 49
0.0
 74
         0
 49
-1.0
 74
         0
  0
LTYPE
  5
2B
100
AcDbSymbolTableRecord
100
AcDbLinetypeTableRecord
  2
CUTTING
 70
        64
  3
________   ___   ___   
 72
        65
 73
         6
 40
45.0
 49
40.0
 74
         0
 49
-1.0
 74
         0
 49
1.0
 74
         0
 49
-1.0
 74
         0
 49
1.0
 74
         0
 49
-1.0
 74
         0
  0
LTYPE
  5
2C
100
AcDbSymbolTableRecord
100
AcDbLinetypeTableRecord
  2
PHANTOM
 70
        64
  3
______  __  __  
 72
        65
 73
         6
 40
35.0
 49
30.0
 74
         0
 49
-1.0
 74
         0
 49
1.0
 74
         0
 49
-1.0
 74
         0
 49
1.0
 74
         0
 49
-1.0
 74
         0
  0
LTYPE
  5
2D
100
AcDbSymbolTableRecord
100
AcDbLinetypeTableRecord
  2
DIVIDE
 70
        64
  3
____ . . ____ . . 
 72
        65
 73
         6
 40
23.0
 49
20.0
 74
         0
 49
-1.0
 74
         0
 49
0.0
 74
         0
 49
-1.0
 74
         0
 49
0.0
 74
         0
 49
-1.0
 74
         0
  0
ENDTAB
  0
TABLE
  2
LAYER
  5
2
100
AcDbSymbolTable
 70
         4
  0
LAYER
  5
14
100
AcDbSymbolTableRecord
100
AcDbLayerTableRecord
  2
0
 70
         0
 62
         7
  6
Continuous
290
         1
370
        -3
390
1D
  0
LAYER
  5
34
100
AcDbSymbolTableRecord
100
AcDbLayerTableRecord
  2
LAYER0
 70
         0
 62
         7
  6
Continuous
290
         1
370
        -3
390
1F
  0
LAYER
  5
D4
100
AcDbSymbolTableRecord
100
AcDbLayerTableRecord
  2
LAYER3
 70
         0
 62
         7
  6
Continuous
290
         1
370
        -3
390
1F
  0
LAYER
  5
E1
100
AcDbSymbolTableRecord
100
AcDbLayerTableRecord
  2
LAYER1
 70
         0
 62
         7
  6
Continuous
290
         1
370
        -3
390
1F
  0
ENDTAB
  0
TABLE
  2
STYLE
  5
3
100
AcDbSymbolTable
 70
         1
  0
STYLE
  5
17
100
AcDbSymbolTableRecord
100
AcDbTextStyleTableRecord
  2
Standard
 70
         0
 40
0.0
 41
1.0
 50
0.0
 71
         0
 42
0.0
  3
txt
  4
extfont
  0
ENDTAB
  0
TABLE
  2
VIEW
  5
5
100
AcDbSymbolTable
 70
         0
  0
ENDTAB
  0
TABLE
  2
UCS
  5
6
100
AcDbSymbolTable
 70
         0
  0
ENDTAB
  0
TABLE
  2
APPID
  5
8
100
AcDbSymbolTable
 70
         1
  0
APPID
  5
16
100
AcDbSymbolTableRecord
100
AcDbRegAppTableRecord
  2
ACAD
 70
         0
  0
ENDTAB
  0
TABLE
  2
DIMSTYLE
  5
9
100
AcDbSymbolTable
 70
         1
100
AcDbDimStyleTable
 71
         0
  0
DIMSTYLE
105
18
100
AcDbSymbolTableRecord
100
AcDbDimStyleTableRecord
  2
Standard
 70
         0
  3

  4

 40
1.0
 41
0.18
 42
0.0625
 43
0.38
 44
0.18
 45
0.0
 46
0.0
 47
0.0
 48
0.0
 71
         0
 72
         0
 73
         1
 74
         1
 75
         0
 76
         0
 77
         0
 78
         0
 79
         0
140
0.18
141
0.09
142
0.0
143
25.4
144
1.0
145
0.0
146
1.0
147
0.09
148
0.0
170
         0
171
         2
172
         0
173
         0
174
         0
175
         0
176
         0
177
         0
178
         0
179
         0
271
         4
272
         4
273
         2
274
         2
275
         0
276
         0
277
         2
278
        46
279
         0
280
         0
281
         0
282
         0
283
         1
284
         0
285
         0
286
         0
288
         0
340
17
341
0
342
0
343
0
344
0
371
        -2
372
        -2
  0
ENDTAB
  0
TABLE
  2
BLOCK_RECORD
  5
1
100
AcDbSymbolTable
 70
        70
  0
BLOCK_RECORD
  5
A
100
AcDbSymbolTableRecord
100
AcDbBlockTableRecord
  2
*MODEL_SPACE
340
20
  0
BLOCK_RECORD
  5
B
100
AcDbSymbolTableRecord
100
AcDbBlockTableRecord
  2
*PAPER_SPACE
340
21
  0
BLOCK_RECORD
  5
2E
100
AcDbSymbolTableRecord
100
AcDbBlockTableRecord
  2
CLUMP0
340
0
  0
BLOCK_RECORD
  5
31
100
AcDbSymbolTableRecord
100
AcDbBlockTableRecord
  2
CLUMP1
340
0
  0
BLOCK_RECORD
  5
5D
100
AcDbSymbolTableRecord
100
AcDbBlockTableRecord
  2
CLUMP2
340
0
  0
BLOCK_RECORD
  5
60
100
AcDbSymbolTableRecord
100
AcDbBlockTableRecord
  2
CLUMP3
340
0
  0
BLOCK_RECORD
  5
8C
100
AcDbSymbolTableRecord
100
AcDbBlockTableRecord
  2
CLUMP4
340
0
  0
BLOCK_RECORD
  5
8F
100
AcDbSymbolTableRecord
100
AcDbBlockTableRecord
  2
CLUMP5
340
0
  0
BLOCK_RECORD
  5
9C
100
AcDbSymbolTableRecord
100
AcDbBlockTableRecord
  2
CLUMP6
340
0
  0
BLOCK_RECORD
  5
9F
100
AcDbSymbolTableRecord
100
AcDbBlockTableRecord
  2
CLUMP7
340
0
  0
BLOCK_RECORD
  5
A8
100
AcDbSymbolTableRecord
100
AcDbBlockTableRecord
  2
CLUMP8
340
0
  0
BLOCK_RECORD
  5
AB
100
AcDbSymbolTableRecord
100
AcDbBlockTableRecord
  2
CLUMP9
340
0
  0
BLOCK_RECORD
  5
C3
100
AcDbSymbolTableRecord
100
AcDbBlockTableRecord
  2
CLUMP10
340
0
  0
BLOCK_RECORD
  5
C6
100
AcDbSymbolTableRecord
100
AcDbBlockTableRecord
  2
CLUMP11
340
0
  0
BLOCK_RECORD
  5
F2
100
AcDbSymbolTableRecord
100
AcDbBlockTableRecord
  2
CLUMP12
340
0
  0
BLOCK_RECORD
  5
F5
100
AcDbSymbolTableRecord
100
AcDbBlockTableRecord
  2
CLUMP13
340
0
  0
BLOCK_RECORD
  5
103
100
AcDbSymbolTableRecord
100
AcDbBlockTableRecord
  2
CLUMP14
340
0
  0
BLOCK_RECORD
  5
106
100
AcDbSymbolTableRecord
100
AcDbBlockTableRecord
  2
CLUMP15
340
0
  0
BLOCK_RECORD
  5
114
100
AcDbSymbolTableRecord
100
AcDbBlockTableRecord
  2
CLUMP16
340
0
  0
BLOCK_RECORD
  5
117
100
AcDbSymbolTableRecord
100
AcDbBlockTableRecord
  2
CLUMP17
340
0
  0
BLOCK_RECORD
  5
125
100
AcDbSymbolTableRecord
100
AcDbBlockTableRecord
  2
CLUMP18
340
0
  0
BLOCK_RECORD
  5
128
100
AcDbSymbolTableRecord
100
AcDbBlockTableRecord
  2
CLUMP19
340
0
  0
BLOCK_RECORD
  5
136
100
AcDbSymbolTableRecord
100
AcDbBlockTableRecord
  2
CLUMP20
340
0
  0
BLOCK_RECORD
  5
139
100
AcDbSymbolTableRecord
100
AcDbBlockTableRecord
  2
CLUMP21
340
0
  0
BLOCK_RECORD
  5
143
100
AcDbSymbolTableRecord
100
AcDbBlockTableRecord
  2
CLUMP22
340
0
  0
BLOCK_RECORD
  5
146
100
AcDbSymbolTableRecord
100
AcDbBlockTableRecord
  2
CLUMP23
340
0
  0
BLOCK_RECORD
  5
152
100
AcDbSymbolTableRecord
100
AcDbBlockTableRecord
  2
CLUMP24
340
0
  0
BLOCK_RECORD
  5
155
100
AcDbSymbolTableRecord
100
AcDbBlockTableRecord
  2
CLUMP25
340
0
  0
BLOCK_RECORD
  5
15E
100
AcDbSymbolTableRecord
100
AcDbBlockTableRecord
  2
CLUMP26
340
0
  0
BLOCK_RECORD
  5
161
100
AcDbSymbolTableRecord
100
AcDbBlockTableRecord
  2
CLUMP27
340
0
  0
BLOCK_RECORD
  5
176
100
AcDbSymbolTableRecord
100
AcDbBlockTableRecord
  2
CLUMP28
340
0
  0
BLOCK_RECORD
  5
179
100
AcDbSymbolTableRecord
100
AcDbBlockTableRecord
  2
CLUMP29
340
0
  0
BLOCK_RECORD
  5
1F1
100
AcDbSymbolTableRecord
100
AcDbBlockTableRecord
  2
CLUMP30
340
0
  0
BLOCK_RECORD
  5
1F4
100
AcDbSymbolTableRecord
100
AcDbBlockTableRecord
  2
CLUMP31
340
0
  0
BLOCK_RECORD
  5
201
100
AcDbSymbolTableRecord
100
AcDbBlockTableRecord
  2
CLUMP32
340
0
  0
BLOCK_RECORD
  5
204
100
AcDbSymbolTableRecord
100
AcDbBlockTableRecord
  2
CLUMP33
340
0
  0
BLOCK_RECORD
  5
212
100
AcDbSymbolTableRecord
100
AcDbBlockTableRecord
  2
CLUMP34
340
0
  0
BLOCK_RECORD
  5
215
100
AcDbSymbolTableRecord
100
AcDbBlockTableRecord
  2
CLUMP35
340
0
  0
BLOCK_RECORD
  5
222
100
AcDbSymbolTableRecord
100
AcDbBlockTableRecord
  2
CLUMP36
340
0
  0
BLOCK_RECORD
  5
225
100
AcDbSymbolTableRecord
100
AcDbBlockTableRecord
  2
CLUMP37
340
0
  0
BLOCK_RECORD
  5
232
100
AcDbSymbolTableRecord
100
AcDbBlockTableRecord
  2
CLUMP38
340
0
  0
BLOCK_RECORD
  5
235
100
AcDbSymbolTableRecord
100
AcDbBlockTableRecord
  2
CLUMP39
340
0
  0
BLOCK_RECORD
  5
23E
100
AcDbSymbolTableRecord
100
AcDbBlockTableRecord
  2
CLUMP40
340
0
  0
BLOCK_RECORD
  5
241
100
AcDbSymbolTableRecord
100
AcDbBlockTableRecord
  2
CLUMP41
340
0
  0
BLOCK_RECORD
  5
24A
100
AcDbSymbolTableRecord
100
AcDbBlockTableRecord
  2
CLUMP42
340
0
  0
BLOCK_RECORD
  5
24D
100
AcDbSymbolTableRecord
100
AcDbBlockTableRecord
  2
CLUMP43
340
0
  0
BLOCK_RECORD
  5
25A
100
AcDbSymbolTableRecord
100
AcDbBlockTableRecord
  2
CLUMP44
340
0
  0
BLOCK_RECORD
  5
25D
100
AcDbSymbolTableRecord
100
AcDbBlockTableRecord
  2
CLUMP45
340
0
  0
BLOCK_RECORD
  5
266
100
AcDbSymbolTableRecord
100
AcDbBlockTableRecord
  2
CLUMP46
340
0
  0
BLOCK_RECORD
  5
269
100
AcDbSymbolTableRecord
100
AcDbBlockTableRecord
  2
CLUMP47
340
0
  0
BLOCK_RECORD
  5
276
100
AcDbSymbolTableRecord
100
AcDbBlockTableRecord
  2
CLUMP48
340
0
  0
BLOCK_RECORD
  5
279
100
AcDbSymbolTableRecord
100
AcDbBlockTableRecord
  2
CLUMP49
340
0
  0
BLOCK_RECORD
  5
282
100
AcDbSymbolTableRecord
100
AcDbBlockTableRecord
  2
CLUMP50
340
0
  0
BLOCK_RECORD
  5
285
100
AcDbSymbolTableRecord
100
AcDbBlockTableRecord
  2
CLUMP51
340
0
  0
BLOCK_RECORD
  5
2A7
100
AcDbSymbolTableRecord
100
AcDbBlockTableRecord
  2
CLUMP52
340
0
  0
BLOCK_RECORD
  5
2AA
100
AcDbSymbolTableRecord
100
AcDbBlockTableRecord
  2
CLUMP53
340
0
  0
BLOCK_RECORD
  5
2B7
100
AcDbSymbolTableRecord
100
AcDbBlockTableRecord
  2
CLUMP54
340
0
  0
BLOCK_RECORD
  5
2BA
100
AcDbSymbolTableRecord
100
AcDbBlockTableRecord
  2
CLUMP55
340
0
  0
BLOCK_RECORD
  5
2C9
100
AcDbSymbolTableRecord
100
AcDbBlockTableRecord
  2
CLUMP56
340
0
  0
BLOCK_RECORD
  5
2CC
100
AcDbSymbolTableRecord
100
AcDbBlockTableRecord
  2
CLUMP57
340
0
  0
BLOCK_RECORD
  5
2E3
100
AcDbSymbolTableRecord
100
AcDbBlockTableRecord
  2
CLUMP58
340
0
  0
BLOCK_RECORD
  5
2E6
100
AcDbSymbolTableRecord
100
AcDbBlockTableRecord
  2
CLUMP59
340
0
  0
BLOCK_RECORD
  5
2FE
100
AcDbSymbolTableRecord
100
AcDbBlockTableRecord
  2
CLUMP60
340
0
  0
BLOCK_RECORD
  5
301
100
AcDbSymbolTableRecord
100
AcDbBlockTableRecord
  2
CLUMP61
340
0
  0
BLOCK_RECORD
  5
31A
100
AcDbSymbolTableRecord
100
AcDbBlockTableRecord
  2
CLUMP62
340
0
  0
BLOCK_RECORD
  5
31D
100
AcDbSymbolTableRecord
100
AcDbBlockTableRecord
  2
CLUMP63
340
0
  0
BLOCK_RECORD
  5
335
100
AcDbSymbolTableRecord
100
AcDbBlockTableRecord
  2
CLUMP64
340
0
  0
BLOCK_RECORD
  5
338
100
AcDbSymbolTableRecord
100
AcDbBlockTableRecord
  2
CLUMP65
340
0
  0
BLOCK_RECORD
  5
346
100
AcDbSymbolTableRecord
100
AcDbBlockTableRecord
  2
CLUMP66
340
0
  0
BLOCK_RECORD
  5
349
100
AcDbSymbolTableRecord
100
AcDbBlockTableRecord
  2
CLUMP67
340
0
  0
BLOCK_RECORD
  5
357
100
AcDbSymbolTableRecord
100
AcDbBlockTableRecord
  2
CLUMP68
340
0
  0
BLOCK_RECORD
  5
35A
100
AcDbSymbolTableRecord
100
AcDbBlockTableRecord
  2
CLUMP69
340
0
  0
ENDTAB
  0
ENDSEC
  0
SECTION
  2
BLOCKS
  0
BLOCK
  5
D
100
AcDbEntity
  8
0
100
AcDbBlockBegin
  2
*MODEL_SPACE
 70
         0
 10
0.0
 20
0.0
 30
0.0
  3
*MODEL_SPACE
  1

  0
ENDBLK
  5
E
100
AcDbEntity
  8
0
100
AcDbBlockEnd
  0
BLOCK
  5
F
100
AcDbEntity
 67
         1
  8
0
100
AcDbBlockBegin
  2
*PAPER_SPACE
 70
         0
 10
0.0
 20
0.0
 30
0.0
  3
*PAPER_SPACE
  1

  0
ENDBLK
  5
10
100
AcDbEntity
 67
         1
  8
0
100
AcDbBlockEnd
  0
BLOCK
  5
30
100
AcDbEntity
  8
0
100
AcDbBlockBegin
  2
CLUMP0
 70
         0
 10
0.0
 20
0.0
 30
0.0
  3

  1

  0
INSERT
  5
32
100
AcDbEntity
  8
0
100
AcDbBlockReference
  2
CLUMP1
 10
0.0
 20
0.0
 30
0.0
  0
ENDBLK
  5
5C
100
AcDbEntity
  8
0
100
AcDbBlockEnd
  0
BLOCK
  5
33
100
AcDbEntity
  8
0
100
AcDbBlockBegin
  2
CLUMP1
 70
         0
 10
0.0
 20
0.0
 30
0.0
  3

  1

  0
LINE
  5
35
100
AcDbEntity
  8
LAYER0
 62
         3
100
AcDbLine
 10
26.9676818704
 20
5.3198746269
 30
0.0
 11
26.9616708176
 21
5.3293714243
 31
0.0
  0
LINE
  5
36
100
AcDbEntity
  8
LAYER0
 62
         3
100
AcDbLine
 10
26.9616708176
 20
5.3293714243
 30
0.0
 11
26.9540359017
 21
5.33777611
 31
0.0
  0
LINE
  5
37
100
AcDbEntity
  8
LAYER0
 62
         3
100
AcDbLine
 10
26.9540359017
 20
5.33777611
 30
0.0
 11
26.9450588168
 21
5.3447345215
 31
0.0
  0
LINE
  5
38
100
AcDbEntity
  8
LAYER0
 62
         3
100
AcDbLine
 10
26.9450588168
 20
5.3447345215
 30
0.0
 11
26.9349410764
 21
5.3500485857
 31
0.0
  0
LINE
  5
39
100
AcDbEntity
  8
LAYER0
 62
         3
100
AcDbLine
 10
26.9349410764
 20
5.3500485857
 30
0.0
 11
26.9240677373
 21
5.353518756
 31
0.0
  0
LINE
  5
3A
100
AcDbEntity
  8
LAYER0
 62
         3
100
AcDbLine
 10
26.9240677373
 20
5.353518756
 30
0.0
 11
26.9170229535
 21
5.3546964066
 31
0.0
  0
LINE
  5
3B
100
AcDbEntity
  8
LAYER0
 62
         3
100
AcDbLine
 10
26.9170229535
 20
5.3546964066
 30
0.0
 11
26.909891145
 21
5.3550871032
 31
0.0
  0
LINE
  5
3C
100
AcDbEntity
  8
LAYER0
 62
         3
100
AcDbLine
 10
26.909891145
 20
5.3550871032
 30
0.0
 11
26.8985448312
 21
5.3540796889
 31
0.0
  0
LINE
  5
3D
100
AcDbEntity
  8
LAYER0
 62
         3
100
AcDbLine
 10
26.8985448312
 20
5.3540796889
 30
0.0
 11
26.8875319527
 21
5.3511122185
 31
0.0
  0
LINE
  5
3E
100
AcDbEntity
  8
LAYER0
 62
         3
100
AcDbLine
 10
26.8875319527
 20
5.3511122185
 30
0.0
 11
26.8772761654
 21
5.3462967928
 31
0.0
  0
LINE
  5
3F
100
AcDbEntity
  8
LAYER0
 62
         3
100
AcDbLine
 10
26.8772761654
 20
5.3462967928
 30
0.0
 11
26.8680123628
 21
5.3397798854
 31
0.0
  0
LINE
  5
40
100
AcDbEntity
  8
LAYER0
 62
         3
100
AcDbLine
 10
26.8680123628
 20
5.3397798854
 30
0.0
 11
26.8600795633
 21
5.3318281685
 31
0.0
  0
LINE
  5
41
100
AcDbEntity
  8
LAYER0
 62
         3
100
AcDbLine
 10
26.8600795633
 20
5.3318281685
 30
0.0
 11
26.8536187724
 21
5.3226398247
 31
0.0
  0
LINE
  5
42
100
AcDbEntity
  8
LAYER0
 62
         3
100
AcDbLine
 10
26.8536187724
 20
5.3226398247
 30
0.0
 11
26.848861398
 21
5.312582122
 31
0.0
  0
LINE
  5
43
100
AcDbEntity
  8
LAYER0
 62
         3
100
AcDbLine
 10
26.848861398
 20
5.312582122
 30
0.0
 11
26.845865512
 21
5.301867606
 31
0.0
  0
LINE
  5
44
100
AcDbEntity
  8
LAYER0
 62
         3
100
AcDbLine
 10
26.845865512
 20
5.301867606
 30
0.0
 11
26.8447257111
 21
5.2909033493
 31
0.0
  0
LINE
  5
45
100
AcDbEntity
  8
LAYER0
 62
         3
100
AcDbLine
 10
26.8447257111
 20
5.2909033493
 30
0.0
 11
26.8454287217
 21
5.2799032944
 31
0.0
  0
LINE
  5
46
100
AcDbEntity
  8
LAYER0
 62
         3
100
AcDbLine
 10
26.8454287217
 20
5.2799032944
 30
0.0
 11
26.8479302164
 21
5.2692791614
 31
0.0
  0
LINE
  5
47
100
AcDbEntity
  8
LAYER0
 62
         3
100
AcDbLine
 10
26.8479302164
 20
5.2692791614
 30
0.0
 11
26.8521528707
 21
5.2592130321
 31
0.0
  0
LINE
  5
48
100
AcDbEntity
  8
LAYER0
 62
         3
100
AcDbLine
 10
26.8521528707
 20
5.2592130321
 30
0.0
 11
26.8579286746
 21
5.2500677623
 31
0.0
  0
LINE
  5
49
100
AcDbEntity
  8
LAYER0
 62
         3
100
AcDbLine
 10
26.8579286746
 20
5.2500677623
 30
0.0
 11
26.8651261942
 21
5.2420021909
 31
0.0
  0
LINE
  5
4A
100
AcDbEntity
  8
LAYER0
 62
         3
100
AcDbLine
 10
26.8651261942
 20
5.2420021909
 30
0.0
 11
26.8734759293
 21
5.235302509
 31
0.0
  0
LINE
  5
4B
100
AcDbEntity
  8
LAYER0
 62
         3
100
AcDbLine
 10
26.8734759293
 20
5.235302509
 30
0.0
 11
26.8828157352
 21
5.2300365585
 31
0.0
  0
LINE
  5
4C
100
AcDbEntity
  8
LAYER0
 62
         3
100
AcDbLine
 10
26.8828157352
 20
5.2300365585
 30
0.0
 11
26.8928250921
 21
5.2263683889
 31
0.0
  0
LINE
  5
4D
100
AcDbEntity
  8
LAYER0
 62
         3
100
AcDbLine
 10
26.8928250921
 20
5.2263683889
 30
0.0
 11
26.9032713042
 21
5.2244597989
 31
0.0
  0
LINE
  5
4E
100
AcDbEntity
  8
LAYER0
 62
         3
100
AcDbLine
 10
26.9032713042
 20
5.2244597989
 30
0.0
 11
26.909891145
 21
5.2241207975
 31
0.0
  0
LINE
  5
4F
100
AcDbEntity
  8
LAYER0
 62
         3
100
AcDbLine
 10
26.909891145
 20
5.2241207975
 30
0.0
 11
26.9243517907
 21
5.2257524747
 31
0.0
  0
LINE
  5
50
100
AcDbEntity
  8
LAYER0
 62
         3
100
AcDbLine
 10
26.9243517907
 20
5.2257524747
 30
0.0
 11
26.9344556152
 21
5.2288831427
 31
0.0
  0
LINE
  5
51
100
AcDbEntity
  8
LAYER0
 62
         3
100
AcDbLine
 10
26.9344556152
 20
5.2288831427
 30
0.0
 11
26.943916084
 21
5.2337506729
 31
0.0
  0
LINE
  5
52
100
AcDbEntity
  8
LAYER0
 62
         3
100
AcDbLine
 10
26.943916084
 20
5.2337506729
 30
0.0
 11
26.9525151598
 21
5.2400810955
 31
0.0
  0
LINE
  5
53
100
AcDbEntity
  8
LAYER0
 62
         3
100
AcDbLine
 10
26.9525151598
 20
5.2400810955
 30
0.0
 11
26.9599720852
 21
5.2476869839
 31
0.0
  0
LINE
  5
54
100
AcDbEntity
  8
LAYER0
 62
         3
100
AcDbLine
 10
26.9599720852
 20
5.2476869839
 30
0.0
 11
26.9661441466
 21
5.2565176739
 31
0.0
  0
LINE
  5
55
100
AcDbEntity
  8
LAYER0
 62
         3
100
AcDbLine
 10
26.9661441466
 20
5.2565176739
 30
0.0
 11
26.9707884656
 21
5.2662501055
 31
0.0
  0
LINE
  5
56
100
AcDbEntity
  8
LAYER0
 62
         3
100
AcDbLine
 10
26.9707884656
 20
5.2662501055
 30
0.0
 11
26.9738033728
 21
5.2767546642
 31
0.0
  0
LINE
  5
57
100
AcDbEntity
  8
LAYER0
 62
         3
100
AcDbLine
 10
26.9738033728
 20
5.2767546642
 30
0.0
 11
26.9750408844
 21
5.2876109201
 31
0.0
  0
LINE
  5
58
100
AcDbEntity
  8
LAYER0
 62
         3
100
AcDbLine
 10
26.9750408844
 20
5.2876109201
 30
0.0
 11
26.9744382245
 21
5.2986801217
 31
0.0
  0
LINE
  5
59
100
AcDbEntity
  8
LAYER0
 62
         3
100
AcDbLine
 10
26.9744382245
 20
5.2986801217
 30
0.0
 11
26.9719889404
 21
5.3094932753
 31
0.0
  0
LINE
  5
5A
100
AcDbEntity
  8
LAYER0
 62
         3
100
AcDbLine
 10
26.9719889404
 20
5.3094932753
 30
0.0
 11
26.9676818704
 21
5.3198746269
 31
0.0
  0
ENDBLK
  5
5B
100
AcDbEntity
  8
0
100
AcDbBlockEnd
  0
BLOCK
  5
5F
100
AcDbEntity
  8
0
100
AcDbBlockBegin
  2
CLUMP2
 70
         0
 10
0.0
 20
0.0
 30
0.0
  3

  1

  0
INSERT
  5
61
100
AcDbEntity
  8
0
100
AcDbBlockReference
  2
CLUMP3
 10
0.0
 20
0.0
 30
0.0
  0
ENDBLK
  5
8B
100
AcDbEntity
  8
0
100
AcDbBlockEnd
  0
BLOCK
  5
62
100
AcDbEntity
  8
0
100
AcDbBlockBegin
  2
CLUMP3
 70
         0
 10
0.0
 20
0.0
 30
0.0
  3

  1

  0
LINE
  5
63
100
AcDbEntity
  8
LAYER0
 62
         3
100
AcDbLine
 10
26.8453632088
 20
25.2803669413
 30
0.0
 11
26.8477961437
 21
25.2696881014
 31
0.0
  0
LINE
  5
64
100
AcDbEntity
  8
LAYER0
 62
         3
100
AcDbLine
 10
26.8477961437
 20
25.2696881014
 30
0.0
 11
26.8519047811
 21
25.2596968846
 31
0.0
  0
LINE
  5
65
100
AcDbEntity
  8
LAYER0
 62
         3
100
AcDbLine
 10
26.8519047811
 20
25.2596968846
 30
0.0
 11
26.8575936572
 21
25.2505140322
 31
0.0
  0
LINE
  5
66
100
AcDbEntity
  8
LAYER0
 62
         3
100
AcDbLine
 10
26.8575936572
 20
25.2505140322
 30
0.0
 11
26.8646319001
 21
25.2424784129
 31
0.0
  0
LINE
  5
67
100
AcDbEntity
  8
LAYER0
 62
         3
100
AcDbLine
 10
26.8646319001
 20
25.2424784129
 30
0.0
 11
26.8728841112
 21
25.2356948274
 31
0.0
  0
LINE
  5
68
100
AcDbEntity
  8
LAYER0
 62
         3
100
AcDbLine
 10
26.8728841112
 20
25.2356948274
 30
0.0
 11
26.8820719764
 21
25.2303843439
 31
0.0
  0
LINE
  5
69
100
AcDbEntity
  8
LAYER0
 62
         3
100
AcDbLine
 10
26.8820719764
 20
25.2303843439
 30
0.0
 11
26.8919957818
 21
25.2266349214
 31
0.0
  0
LINE
  5
6A
100
AcDbEntity
  8
LAYER0
 62
         3
100
AcDbLine
 10
26.8919957818
 20
25.2266349214
 30
0.0
 11
26.9008583683
 21
25.2247528231
 31
0.0
  0
LINE
  5
6B
100
AcDbEntity
  8
LAYER0
 62
         3
100
AcDbLine
 10
26.9008583683
 20
25.2247528231
 30
0.0
 11
26.909891145
 21
25.2241203505
 31
0.0
  0
LINE
  5
6C
100
AcDbEntity
  8
LAYER0
 62
         3
100
AcDbLine
 10
26.909891145
 20
25.2241203505
 30
0.0
 11
26.9180391057
 21
25.224632744
 31
0.0
  0
LINE
  5
6D
100
AcDbEntity
  8
LAYER0
 62
         3
100
AcDbLine
 10
26.9180391057
 20
25.224632744
 30
0.0
 11
26.9260607676
 21
25.2261655348
 31
0.0
  0
LINE
  5
6E
100
AcDbEntity
  8
LAYER0
 62
         3
100
AcDbLine
 10
26.9260607676
 20
25.2261655348
 30
0.0
 11
26.9361355183
 21
25.229665789
 31
0.0
  0
LINE
  5
6F
100
AcDbEntity
  8
LAYER0
 62
         3
100
AcDbLine
 10
26.9361355183
 20
25.229665789
 30
0.0
 11
26.9455123709
 21
25.2347635049
 31
0.0
  0
LINE
  5
70
100
AcDbEntity
  8
LAYER0
 62
         3
100
AcDbLine
 10
26.9455123709
 20
25.2347635049
 30
0.0
 11
26.9539912216
 21
25.2413838243
 31
0.0
  0
LINE
  5
71
100
AcDbEntity
  8
LAYER0
 62
         3
100
AcDbLine
 10
26.9539912216
 20
25.2413838243
 30
0.0
 11
26.9612694175
 21
25.2493033129
 31
0.0
  0
LINE
  5
72
100
AcDbEntity
  8
LAYER0
 62
         3
100
AcDbLine
 10
26.9612694175
 20
25.2493033129
 30
0.0
 11
26.9671975438
 21
25.2584023245
 31
0.0
  0
LINE
  5
73
100
AcDbEntity
  8
LAYER0
 62
         3
100
AcDbLine
 10
26.9671975438
 20
25.2584023245
 30
0.0
 11
26.9715465621
 21
25.2683544475
 31
0.0
  0
LINE
  5
74
100
AcDbEntity
  8
LAYER0
 62
         3
100
AcDbLine
 10
26.9715465621
 20
25.2683544475
 30
0.0
 11
26.9742089547
 21
25.2789922083
 31
0.0
  0
LINE
  5
75
100
AcDbEntity
  8
LAYER0
 62
         3
100
AcDbLine
 10
26.9742089547
 20
25.2789922083
 30
0.0
 11
26.9750706868
 21
25.2899238783
 31
0.0
  0
LINE
  5
76
100
AcDbEntity
  8
LAYER0
 62
         3
100
AcDbLine
 10
26.9750706868
 20
25.2899238783
 30
0.0
 11
26.974082395
 21
25.3009476278
 31
0.0
  0
LINE
  5
77
100
AcDbEntity
  8
LAYER0
 62
         3
100
AcDbLine
 10
26.974082395
 20
25.3009476278
 30
0.0
 11
26.9712625087
 21
25.3116534966
 31
0.0
  0
LINE
  5
78
100
AcDbEntity
  8
LAYER0
 62
         3
100
AcDbLine
 10
26.9712625087
 20
25.3116534966
 30
0.0
 11
26.9666293789
 21
25.3218265295
 31
0.0
  0
LINE
  5
79
100
AcDbEntity
  8
LAYER0
 62
         3
100
AcDbLine
 10
26.9666293789
 20
25.3218265295
 30
0.0
 11
26.9603418202
 21
25.3310585338
 31
0.0
  0
LINE
  5
7A
100
AcDbEntity
  8
LAYER0
 62
         3
100
AcDbLine
 10
26.9603418202
 20
25.3310585338
 30
0.0
 11
26.9524945746
 21
25.339136672
 31
0.0
  0
LINE
  5
7B
100
AcDbEntity
  8
LAYER0
 62
         3
100
AcDbLine
 10
26.9524945746
 20
25.339136672
 30
0.0
 11
26.9433693976
 21
25.3457846063
 31
0.0
  0
LINE
  5
7C
100
AcDbEntity
  8
LAYER0
 62
         3
100
AcDbLine
 10
26.9433693976
 20
25.3457846063
 30
0.0
 11
26.9331465827
 21
25.3508383581
 31
0.0
  0
LINE
  5
7D
100
AcDbEntity
  8
LAYER0
 62
         3
100
AcDbLine
 10
26.9331465827
 20
25.3508383581
 30
0.0
 11
26.9222293065
 21
25.3539020139
 31
0.0
  0
LINE
  5
7E
100
AcDbEntity
  8
LAYER0
 62
         3
100
AcDbLine
 10
26.9222293065
 20
25.3539020139
 30
0.0
 11
26.9098818318
 21
25.3550866562
 31
0.0
  0
LINE
  5
7F
100
AcDbEntity
  8
LAYER0
 62
         3
100
AcDbLine
 10
26.9098818318
 20
25.3550866562
 30
0.0
 11
26.8994761647
 21
25.3542447406
 31
0.0
  0
LINE
  5
80
100
AcDbEntity
  8
LAYER0
 62
         3
100
AcDbLine
 10
26.8994761647
 20
25.3542447406
 30
0.0
 11
26.8888439224
 21
25.3516153104
 31
0.0
  0
LINE
  5
81
100
AcDbEntity
  8
LAYER0
 62
         3
100
AcDbLine
 10
26.8888439224
 20
25.3516153104
 30
0.0
 11
26.8788212926
 21
25.347166689
 31
0.0
  0
LINE
  5
82
100
AcDbEntity
  8
LAYER0
 62
         3
100
AcDbLine
 10
26.8788212926
 20
25.347166689
 30
0.0
 11
26.8779942782
 21
25.3467084783
 31
0.0
  0
LINE
  5
83
100
AcDbEntity
  8
LAYER0
 62
         3
100
AcDbLine
 10
26.8779942782
 20
25.3467084783
 30
0.0
 11
26.8686311223
 21
25.3402862391
 31
0.0
  0
LINE
  5
84
100
AcDbEntity
  8
LAYER0
 62
         3
100
AcDbLine
 10
26.8686311223
 20
25.3402862391
 30
0.0
 11
26.8604928644
 21
25.3323176819
 31
0.0
  0
LINE
  5
85
100
AcDbEntity
  8
LAYER0
 62
         3
100
AcDbLine
 10
26.8604928644
 20
25.3323176819
 30
0.0
 11
26.8539267466
 21
25.3231628357
 31
0.0
  0
LINE
  5
86
100
AcDbEntity
  8
LAYER0
 62
         3
100
AcDbLine
 10
26.8539267466
 20
25.3231628357
 30
0.0
 11
26.8490273522
 21
25.3130281287
 31
0.0
  0
LINE
  5
87
100
AcDbEntity
  8
LAYER0
 62
         3
100
AcDbLine
 10
26.8490273522
 20
25.3130281287
 30
0.0
 11
26.8459620279
 21
25.3023472324
 31
0.0
  0
LINE
  5
88
100
AcDbEntity
  8
LAYER0
 62
         3
100
AcDbLine
 10
26.8459620279
 20
25.3023472324
 30
0.0
 11
26.8447330238
 21
25.2913022357
 31
0.0
  0
LINE
  5
89
100
AcDbEntity
  8
LAYER0
 62
         3
100
AcDbLine
 10
26.8447330238
 20
25.2913022357
 30
0.0
 11
26.8453632088
 21
25.2803669413
 31
0.0
  0
ENDBLK
  5
8A
100
AcDbEntity
  8
0
100
AcDbBlockEnd
  0
BLOCK
  5
8E
100
AcDbEntity
  8
0
100
AcDbBlockBegin
  2
CLUMP4
 70
         0
 10
0.0
 20
0.0
 30
0.0
  3

  1

  0
INSERT
  5
90
100
AcDbEntity
  8
0
100
AcDbBlockReference
  2
CLUMP5
 10
0.0
 20
0.0
 30
0.0
  0
ENDBLK
  5
9B
100
AcDbEntity
  8
0
100
AcDbBlockEnd
  0
BLOCK
  5
91
100
AcDbEntity
  8
0
100
AcDbBlockBegin
  2
CLUMP5
 70
         0
 10
0.0
 20
0.0
 30
0.0
  3

  1

  0
LINE
  5
92
100
AcDbEntity
  8
LAYER0
 62
         3
100
AcDbLine
 10
23.6598901467
 20
8.4813991505
 30
0.0
 11
23.6567442996
 21
8.6320349957
 31
0.0
  0
LINE
  5
93
100
AcDbEntity
  8
LAYER0
 62
         3
100
AcDbLine
 10
23.6567442996
 20
8.6320349957
 30
0.0
 11
23.6509848402
 21
8.7776901144
 31
0.0
  0
LINE
  5
94
100
AcDbEntity
  8
LAYER0
 62
         3
100
AcDbLine
 10
23.6509848402
 20
8.7776901144
 30
0.0
 11
23.6462557669
 21
8.8487461283
 31
0.0
  0
LINE
  5
95
100
AcDbEntity
  8
LAYER0
 62
         3
100
AcDbLine
 10
23.6462557669
 20
8.8487461283
 30
0.0
 11
23.6402834915
 21
8.9165630086
 31
0.0
  0
LINE
  5
96
100
AcDbEntity
  8
LAYER0
 62
         3
100
AcDbLine
 10
23.6402834915
 20
8.9165630086
 30
0.0
 11
23.6331957178
 21
8.980514139
 31
0.0
  0
LINE
  5
97
100
AcDbEntity
  8
LAYER0
 62
         3
100
AcDbLine
 10
23.6331957178
 20
8.980514139
 30
0.0
 11
23.6251201497
 21
9.0399729031
 31
0.0
  0
LINE
  5
98
100
AcDbEntity
  8
LAYER0
 62
         3
100
AcDbLine
 10
23.6251201497
 20
9.0399729031
 30
0.0
 11
23.6122486591
 21
9.1168344168
 31
0.0
  0
LINE
  5
99
100
AcDbEntity
  8
LAYER0
 62
         3
100
AcDbLine
 10
23.6122486591
 20
9.1168344168
 30
0.0
 11
23.5985048131
 21
9.1885039526
 31
0.0
  0
ENDBLK
  5
9A
100
AcDbEntity
  8
0
100
AcDbBlockEnd
  0
BLOCK
  5
9E
100
AcDbEntity
  8
0
100
AcDbBlockBegin
  2
CLUMP6
 70
         0
 10
0.0
 20
0.0
 30
0.0
  3

  1

  0
INSERT
  5
A0
100
AcDbEntity
  8
0
100
AcDbBlockReference
  2
CLUMP7
 10
0.0
 20
0.0
 30
0.0
  0
ENDBLK
  5
A7
100
AcDbEntity
  8
0
100
AcDbBlockEnd
  0
BLOCK
  5
A1
100
AcDbEntity
  8
0
100
AcDbBlockBegin
  2
CLUMP7
 70
         0
 10
0.0
 20
0.0
 30
0.0
  3

  1

  0
LINE
  5
A2
100
AcDbEntity
  8
LAYER0
 62
         3
100
AcDbLine
 10
23.5985048131
 20
9.1885039526
 30
0.0
 11
23.6268337832
 21
10.0452089625
 31
0.0
  0
LINE
  5
A3
100
AcDbEntity
  8
LAYER0
 62
         3
100
AcDbLine
 10
23.6268337832
 20
10.0452089625
 30
0.0
 11
23.6437211332
 21
10.4621998705
 31
0.0
  0
LINE
  5
A4
100
AcDbEntity
  8
LAYER0
 62
         3
100
AcDbLine
 10
23.6437211332
 20
10.4621998705
 30
0.0
 11
23.6630659567
 21
10.8614796716
 31
0.0
  0
LINE
  5
A5
100
AcDbEntity
  8
LAYER0
 62
         3
100
AcDbLine
 10
23.6630659567
 20
10.8614796716
 30
0.0
 11
23.6976664529
 21
11.4491628426
 31
0.0
  0
ENDBLK
  5
A6
100
AcDbEntity
  8
0
100
AcDbBlockEnd
  0
BLOCK
  5
AA
100
AcDbEntity
  8
0
100
AcDbBlockBegin
  2
CLUMP8
 70
         0
 10
0.0
 20
0.0
 30
0.0
  3

  1

  0
INSERT
  5
AC
100
AcDbEntity
  8
0
100
AcDbBlockReference
  2
CLUMP9
 10
0.0
 20
0.0
 30
0.0
  0
ENDBLK
  5
C2
100
AcDbEntity
  8
0
100
AcDbBlockEnd
  0
BLOCK
  5
AD
100
AcDbEntity
  8
0
100
AcDbBlockBegin
  2
CLUMP9
 70
         0
 10
0.0
 20
0.0
 30
0.0
  3

  1

  0
LINE
  5
AE
100
AcDbEntity
  8
LAYER0
 62
         3
100
AcDbLine
 10
23.8168682919
 20
18.9956100601
 30
0.0
 11
23.8165907578
 21
19.1093655246
 31
0.0
  0
LINE
  5
AF
100
AcDbEntity
  8
LAYER0
 62
         3
100
AcDbLine
 10
23.8165907578
 20
19.1093655246
 30
0.0
 11
23.8147100111
 21
19.3131529118
 31
0.0
  0
LINE
  5
B0
100
AcDbEntity
  8
LAYER0
 62
         3
100
AcDbLine
 10
23.8147100111
 20
19.3131529118
 30
0.0
 11
23.8111127184
 21
19.5061759966
 31
0.0
  0
LINE
  5
B1
100
AcDbEntity
  8
LAYER0
 62
         3
100
AcDbLine
 10
23.8111127184
 20
19.5061759966
 30
0.0
 11
23.8099522905
 21
19.5532673913
 31
0.0
  0
LINE
  5
B2
100
AcDbEntity
  8
LAYER0
 62
         3
100
AcDbLine
 10
23.8099522905
 20
19.5532673913
 30
0.0
 11
23.8070912287
 21
19.6528117692
 31
0.0
  0
LINE
  5
B3
100
AcDbEntity
  8
LAYER0
 62
         3
100
AcDbLine
 10
23.8070912287
 20
19.6528117692
 30
0.0
 11
23.8038521276
 21
19.7464870232
 31
0.0
  0
LINE
  5
B4
100
AcDbEntity
  8
LAYER0
 62
         3
100
AcDbLine
 10
23.8038521276
 20
19.7464870232
 30
0.0
 11
23.8001844631
 21
19.8363799323
 31
0.0
  0
LINE
  5
B5
100
AcDbEntity
  8
LAYER0
 62
         3
100
AcDbLine
 10
23.8001844631
 20
19.8363799323
 30
0.0
 11
23.796254398
 21
19.9193330425
 31
0.0
  0
LINE
  5
B6
100
AcDbEntity
  8
LAYER0
 62
         3
100
AcDbLine
 10
23.796254398
 20
19.9193330425
 30
0.0
 11
23.7913098077
 21
20.0094068543
 31
0.0
  0
LINE
  5
B7
100
AcDbEntity
  8
LAYER0
 62
         3
100
AcDbLine
 10
23.7913098077
 20
20.0094068543
 30
0.0
 11
23.7862035648
 21
20.08984703
 31
0.0
  0
LINE
  5
B8
100
AcDbEntity
  8
LAYER0
 62
         3
100
AcDbLine
 10
23.7862035648
 20
20.08984703
 30
0.0
 11
23.7809237278
 21
20.1626672036
 31
0.0
  0
LINE
  5
B9
100
AcDbEntity
  8
LAYER0
 62
         3
100
AcDbLine
 10
23.7809237278
 20
20.1626672036
 30
0.0
 11
23.7757541255
 21
20.2260175663
 31
0.0
  0
LINE
  5
BA
100
AcDbEntity
  8
LAYER0
 62
         3
100
AcDbLine
 10
23.7757541255
 20
20.2260175663
 30
0.0
 11
23.771381024
 21
20.2745797123
 31
0.0
  0
LINE
  5
BB
100
AcDbEntity
  8
LAYER0
 62
         3
100
AcDbLine
 10
23.771381024
 20
20.2745797123
 30
0.0
 11
23.7672481407
 21
20.3166665332
 31
0.0
  0
LINE
  5
BC
100
AcDbEntity
  8
LAYER0
 62
         3
100
AcDbLine
 10
23.7672481407
 20
20.3166665332
 30
0.0
 11
23.7598061578
 21
20.3842902499
 31
0.0
  0
LINE
  5
BD
100
AcDbEntity
  8
LAYER0
 62
         3
100
AcDbLine
 10
23.7598061578
 20
20.3842902499
 30
0.0
 11
23.7537051491
 21
20.4336359874
 31
0.0
  0
LINE
  5
BE
100
AcDbEntity
  8
LAYER0
 62
         3
100
AcDbLine
 10
23.7537051491
 20
20.4336359874
 30
0.0
 11
23.7517150375
 21
20.4487152836
 31
0.0
  0
LINE
  5
BF
100
AcDbEntity
  8
LAYER0
 62
         3
100
AcDbLine
 10
23.7517150375
 20
20.4487152836
 30
0.0
 11
23.7507257627
 21
20.4559760111
 31
0.0
  0
LINE
  5
C0
100
AcDbEntity
  8
LAYER0
 62
         3
100
AcDbLine
 10
23.7507257627
 20
20.4559760111
 30
0.0
 11
23.7510871158
 21
20.453304978
 31
0.0
  0
ENDBLK
  5
C1
100
AcDbEntity
  8
0
100
AcDbBlockEnd
  0
BLOCK
  5
C5
100
AcDbEntity
  8
0
100
AcDbBlockBegin
  2
CLUMP10
 70
         0
 10
0.0
 20
0.0
 30
0.0
  3

  1

  0
INSERT
  5
C7
100
AcDbEntity
  8
0
100
AcDbBlockReference
  2
CLUMP11
 10
0.0
 20
0.0
 30
0.0
  0
ENDBLK
  5
D3
100
AcDbEntity
  8
0
100
AcDbBlockEnd
  0
BLOCK
  5
C8
100
AcDbEntity
  8
0
100
AcDbBlockBegin
  2
CLUMP11
 70
         0
 10
0.0
 20
0.0
 30
0.0
  3

  1

  0
LINE
  5
C9
100
AcDbEntity
  8
LAYER0
 62
         3
100
AcDbLine
 10
24.409890864
 20
29.3043139249
 30
0.0
 11
24.4194982238
 21
29.2473639768
 31
0.0
  0
LINE
  5
CA
100
AcDbEntity
  8
LAYER0
 62
         3
100
AcDbLine
 10
24.4194982238
 20
29.2473639768
 30
0.0
 11
24.4479510977
 21
29.1926025833
 31
0.0
  0
LINE
  5
CB
100
AcDbEntity
  8
LAYER0
 62
         3
100
AcDbLine
 10
24.4479510977
 20
29.1926025833
 30
0.0
 11
24.4941560578
 21
29.1421341939
 31
0.0
  0
LINE
  5
CC
100
AcDbEntity
  8
LAYER0
 62
         3
100
AcDbLine
 10
24.4941560578
 20
29.1421341939
 30
0.0
 11
24.5563374734
 21
29.0978982807
 31
0.0
  0
LINE
  5
CD
100
AcDbEntity
  8
LAYER0
 62
         3
100
AcDbLine
 10
24.5563374734
 20
29.0978982807
 30
0.0
 11
24.6321057475
 21
29.0615948049
 31
0.0
  0
LINE
  5
CE
100
AcDbEntity
  8
LAYER0
 62
         3
100
AcDbLine
 10
24.6321057475
 20
29.0615948049
 30
0.0
 11
24.7185491478
 21
29.0346188888
 31
0.0
  0
LINE
  5
CF
100
AcDbEntity
  8
LAYER0
 62
         3
100
AcDbLine
 10
24.7185491478
 20
29.0346188888
 30
0.0
 11
24.812345703
 21
29.0180072017
 31
0.0
  0
LINE
  5
D0
100
AcDbEntity
  8
LAYER0
 62
         3
100
AcDbLine
 10
24.812345703
 20
29.0180072017
 30
0.0
 11
24.909890864
 21
29.0123981214
 31
0.0
  0
LINE
  5
D1
100
AcDbEntity
  8
LAYER0
 62
         3
100
AcDbLine
 10
24.909890864
 20
29.0123981214
 30
0.0
 11
24.409890864
 21
29.3043139249
 31
0.0
  0
ENDBLK
  5
D2
100
AcDbEntity
  8
0
100
AcDbBlockEnd
  0
BLOCK
  5
F4
100
AcDbEntity
  8
0
100
AcDbBlockBegin
  2
CLUMP12
 70
         0
 10
0.0
 20
0.0
 30
0.0
  3

  1

  0
INSERT
  5
F6
100
AcDbEntity
  8
0
100
AcDbBlockReference
  2
CLUMP13
 10
0.0
 20
0.0
 30
0.0
  0
ENDBLK
  5
102
100
AcDbEntity
  8
0
100
AcDbBlockEnd
  0
BLOCK
  5
F7
100
AcDbEntity
  8
0
100
AcDbBlockBegin
  2
CLUMP13
 70
         0
 10
0.0
 20
0.0
 30
0.0
  3

  1

  0
LINE
  5
F8
100
AcDbEntity
  8
LAYER0
 62
         3
100
AcDbLine
 10
28.909890864
 20
28.4318071834
 30
0.0
 11
29.104981186
 21
28.4430267573
 31
0.0
  0
LINE
  5
F9
100
AcDbEntity
  8
LAYER0
 62
         3
100
AcDbLine
 10
29.104981186
 20
28.4430267573
 30
0.0
 11
29.2925742964
 21
28.4762543171
 31
0.0
  0
LINE
  5
FA
100
AcDbEntity
  8
LAYER0
 62
         3
100
AcDbLine
 10
29.2925742964
 20
28.4762543171
 30
0.0
 11
29.465461097
 21
28.5302129464
 31
0.0
  0
LINE
  5
FB
100
AcDbEntity
  8
LAYER0
 62
         3
100
AcDbLine
 10
29.465461097
 20
28.5302129464
 30
0.0
 11
29.6169976452
 21
28.6028290451
 31
0.0
  0
LINE
  5
FC
100
AcDbEntity
  8
LAYER0
 62
         3
100
AcDbLine
 10
29.6169976452
 20
28.6028290451
 30
0.0
 11
29.7413604763
 21
28.6913120175
 31
0.0
  0
LINE
  5
FD
100
AcDbEntity
  8
LAYER0
 62
         3
100
AcDbLine
 10
29.7413604763
 20
28.6913120175
 30
0.0
 11
29.8337703965
 21
28.7922615125
 31
0.0
  0
LINE
  5
FE
100
AcDbEntity
  8
LAYER0
 62
         3
100
AcDbLine
 10
29.8337703965
 20
28.7922615125
 30
0.0
 11
29.8906761444
 21
28.9017980975
 31
0.0
  0
LINE
  5
FF
100
AcDbEntity
  8
LAYER0
 62
         3
100
AcDbLine
 10
29.8906761444
 20
28.9017980975
 30
0.0
 11
29.909890864
 21
29.0157123432
 31
0.0
  0
LINE
  5
100
100
AcDbEntity
  8
LAYER0
 62
         3
100
AcDbLine
 10
29.909890864
 20
29.0157123432
 30
0.0
 11
28.909890864
 21
28.4318071834
 31
0.0
  0
ENDBLK
  5
101
100
AcDbEntity
  8
0
100
AcDbBlockEnd
  0
BLOCK
  5
105
100
AcDbEntity
  8
0
100
AcDbBlockBegin
  2
CLUMP14
 70
         0
 10
0.0
 20
0.0
 30
0.0
  3

  1

  0
INSERT
  5
107
100
AcDbEntity
  8
0
100
AcDbBlockReference
  2
CLUMP15
 10
0.0
 20
0.0
 30
0.0
  0
ENDBLK
  5
113
100
AcDbEntity
  8
0
100
AcDbBlockEnd
  0
BLOCK
  5
108
100
AcDbEntity
  8
0
100
AcDbBlockBegin
  2
CLUMP15
 70
         0
 10
0.0
 20
0.0
 30
0.0
  3

  1

  0
LINE
  5
109
100
AcDbEntity
  8
LAYER0
 62
         3
100
AcDbLine
 10
25.909890864
 20
28.7237597633
 30
0.0
 11
25.714800542
 21
28.7013247205
 31
0.0
  0
LINE
  5
10A
100
AcDbEntity
  8
LAYER0
 62
         3
100
AcDbLine
 10
25.714800542
 20
28.7013247205
 30
0.0
 11
25.5272074317
 21
28.634881758
 31
0.0
  0
LINE
  5
10B
100
AcDbEntity
  8
LAYER0
 62
         3
100
AcDbLine
 10
25.5272074317
 20
28.634881758
 30
0.0
 11
25.354320631
 21
28.5269842419
 31
0.0
  0
LINE
  5
10C
100
AcDbEntity
  8
LAYER0
 62
         3
100
AcDbLine
 10
25.354320631
 20
28.5269842419
 30
0.0
 11
25.2027840828
 21
28.3817786129
 31
0.0
  0
LINE
  5
10D
100
AcDbEntity
  8
LAYER0
 62
         3
100
AcDbLine
 10
25.2027840828
 20
28.3817786129
 30
0.0
 11
25.0784212517
 21
28.2048450421
 31
0.0
  0
LINE
  5
10E
100
AcDbEntity
  8
LAYER0
 62
         3
100
AcDbLine
 10
25.0784212517
 20
28.2048450421
 30
0.0
 11
24.9860113315
 21
28.0029829874
 31
0.0
  0
LINE
  5
10F
100
AcDbEntity
  8
LAYER0
 62
         3
100
AcDbLine
 10
24.9860113315
 20
28.0029829874
 30
0.0
 11
24.9291055836
 21
27.7839498942
 31
0.0
  0
LINE
  5
110
100
AcDbEntity
  8
LAYER0
 62
         3
100
AcDbLine
 10
24.9291055836
 20
27.7839498942
 30
0.0
 11
24.909890864
 21
27.5561630816
 31
0.0
  0
LINE
  5
111
100
AcDbEntity
  8
LAYER0
 62
         3
100
AcDbLine
 10
24.909890864
 20
27.5561630816
 30
0.0
 11
25.909890864
 21
28.7237597633
 31
0.0
  0
ENDBLK
  5
112
100
AcDbEntity
  8
0
100
AcDbBlockEnd
  0
BLOCK
  5
116
100
AcDbEntity
  8
0
100
AcDbBlockBegin
  2
CLUMP16
 70
         0
 10
0.0
 20
0.0
 30
0.0
  3

  1

  0
INSERT
  5
118
100
AcDbEntity
  8
0
100
AcDbBlockReference
  2
CLUMP17
 10
0.0
 20
0.0
 30
0.0
  0
ENDBLK
  5
124
100
AcDbEntity
  8
0
100
AcDbBlockEnd
  0
BLOCK
  5
119
100
AcDbEntity
  8
0
100
AcDbBlockBegin
  2
CLUMP17
 70
         0
 10
0.0
 20
0.0
 30
0.0
  3

  1

  0
LINE
  5
11A
100
AcDbEntity
  8
LAYER0
 62
         3
100
AcDbLine
 10
28.909890864
 20
28.7237597633
 30
0.0
 11
29.007436025
 21
28.7293695503
 31
0.0
  0
LINE
  5
11B
100
AcDbEntity
  8
LAYER0
 62
         3
100
AcDbLine
 10
29.007436025
 20
28.7293695503
 30
0.0
 11
29.1012325802
 21
28.7459833302
 31
0.0
  0
LINE
  5
11C
100
AcDbEntity
  8
LAYER0
 62
         3
100
AcDbLine
 10
29.1012325802
 20
28.7459833302
 30
0.0
 11
29.1876759805
 21
28.7729626448
 31
0.0
  0
LINE
  5
11D
100
AcDbEntity
  8
LAYER0
 62
         3
100
AcDbLine
 10
29.1876759805
 20
28.7729626448
 30
0.0
 11
29.2634442546
 21
28.8092706942
 31
0.0
  0
LINE
  5
11E
100
AcDbEntity
  8
LAYER0
 62
         3
100
AcDbLine
 10
29.2634442546
 20
28.8092706942
 30
0.0
 11
29.3256256702
 21
28.8535121804
 31
0.0
  0
LINE
  5
11F
100
AcDbEntity
  8
LAYER0
 62
         3
100
AcDbLine
 10
29.3256256702
 20
28.8535121804
 30
0.0
 11
29.3718306303
 21
28.9039869278
 31
0.0
  0
LINE
  5
120
100
AcDbEntity
  8
LAYER0
 62
         3
100
AcDbLine
 10
29.3718306303
 20
28.9039869278
 30
0.0
 11
29.4002835042
 21
28.9587552204
 31
0.0
  0
LINE
  5
121
100
AcDbEntity
  8
LAYER0
 62
         3
100
AcDbLine
 10
29.4002835042
 20
28.9587552204
 30
0.0
 11
29.409890864
 21
29.0157123432
 31
0.0
  0
LINE
  5
122
100
AcDbEntity
  8
LAYER0
 62
         3
100
AcDbLine
 10
29.409890864
 20
29.0157123432
 30
0.0
 11
28.909890864
 21
28.7237597633
 31
0.0
  0
ENDBLK
  5
123
100
AcDbEntity
  8
0
100
AcDbBlockEnd
  0
BLOCK
  5
127
100
AcDbEntity
  8
0
100
AcDbBlockBegin
  2
CLUMP18
 70
         0
 10
0.0
 20
0.0
 30
0.0
  3

  1

  0
INSERT
  5
129
100
AcDbEntity
  8
0
100
AcDbBlockReference
  2
CLUMP19
 10
0.0
 20
0.0
 30
0.0
  0
ENDBLK
  5
135
100
AcDbEntity
  8
0
100
AcDbBlockEnd
  0
BLOCK
  5
12A
100
AcDbEntity
  8
0
100
AcDbBlockBegin
  2
CLUMP19
 70
         0
 10
0.0
 20
0.0
 30
0.0
  3

  1

  0
LINE
  5
12B
100
AcDbEntity
  8
LAYER0
 62
         3
100
AcDbLine
 10
23.909890864
 20
29.3043139249
 30
0.0
 11
23.9291055836
 21
29.1904140287
 31
0.0
  0
LINE
  5
12C
100
AcDbEntity
  8
LAYER0
 62
         3
100
AcDbLine
 10
23.9291055836
 20
29.1904140287
 30
0.0
 11
23.9860113315
 21
29.0808912416
 31
0.0
  0
LINE
  5
12D
100
AcDbEntity
  8
LAYER0
 62
         3
100
AcDbLine
 10
23.9860113315
 20
29.0808912416
 30
0.0
 11
24.0784212517
 21
28.979954463
 31
0.0
  0
LINE
  5
12E
100
AcDbEntity
  8
LAYER0
 62
         3
100
AcDbLine
 10
24.0784212517
 20
28.979954463
 30
0.0
 11
24.2027840828
 21
28.8914826365
 31
0.0
  0
LINE
  5
12F
100
AcDbEntity
  8
LAYER0
 62
         3
100
AcDbLine
 10
24.2027840828
 20
28.8914826365
 30
0.0
 11
24.354320631
 21
28.818875685
 31
0.0
  0
LINE
  5
130
100
AcDbEntity
  8
LAYER0
 62
         3
100
AcDbLine
 10
24.354320631
 20
28.818875685
 30
0.0
 11
24.5272074316
 21
28.7649238528
 31
0.0
  0
LINE
  5
131
100
AcDbEntity
  8
LAYER0
 62
         3
100
AcDbLine
 10
24.5272074316
 20
28.7649238528
 30
0.0
 11
24.714800542
 21
28.7317004785
 31
0.0
  0
LINE
  5
132
100
AcDbEntity
  8
LAYER0
 62
         3
100
AcDbLine
 10
24.714800542
 20
28.7317004785
 30
0.0
 11
24.909890864
 21
28.7204823179
 31
0.0
  0
LINE
  5
133
100
AcDbEntity
  8
LAYER0
 62
         3
100
AcDbLine
 10
24.909890864
 20
28.7204823179
 30
0.0
 11
23.909890864
 21
29.3043139249
 31
0.0
  0
ENDBLK
  5
134
100
AcDbEntity
  8
0
100
AcDbBlockEnd
  0
BLOCK
  5
138
100
AcDbEntity
  8
0
100
AcDbBlockBegin
  2
CLUMP20
 70
         0
 10
0.0
 20
0.0
 30
0.0
  3

  1

  0
INSERT
  5
13A
100
AcDbEntity
  8
0
100
AcDbBlockReference
  2
CLUMP21
 10
0.0
 20
0.0
 30
0.0
  0
ENDBLK
  5
142
100
AcDbEntity
  8
0
100
AcDbBlockEnd
  0
BLOCK
  5
13B
100
AcDbEntity
  8
0
100
AcDbBlockBegin
  2
CLUMP21
 70
         0
 10
0.0
 20
0.0
 30
0.0
  3

  1

  0
LINE
  5
13C
100
AcDbEntity
  8
LAYER0
 62
         3
100
AcDbLine
 10
28.5681829544
 20
28.7237597633
 30
0.0
 11
28.4230922797
 21
28.8469327327
 31
0.0
  0
LINE
  5
13D
100
AcDbEntity
  8
LAYER0
 62
         3
100
AcDbLine
 10
28.4230922797
 20
28.8469327327
 30
0.0
 11
28.2614853787
 21
28.9378589582
 31
0.0
  0
LINE
  5
13E
100
AcDbEntity
  8
LAYER0
 62
         3
100
AcDbLine
 10
28.2614853787
 20
28.9378589582
 30
0.0
 11
28.0885632038
 21
28.9936121849
 31
0.0
  0
LINE
  5
13F
100
AcDbEntity
  8
LAYER0
 62
         3
100
AcDbLine
 10
28.0885632038
 20
28.9936121849
 30
0.0
 11
27.909890864
 21
29.0123981215
 31
0.0
  0
LINE
  5
140
100
AcDbEntity
  8
LAYER0
 62
         3
100
AcDbLine
 10
27.909890864
 20
29.0123981215
 30
0.0
 11
28.5681829544
 21
28.7237597633
 31
0.0
  0
ENDBLK
  5
141
100
AcDbEntity
  8
0
100
AcDbBlockEnd
  0
BLOCK
  5
145
100
AcDbEntity
  8
0
100
AcDbBlockBegin
  2
CLUMP22
 70
         0
 10
0.0
 20
0.0
 30
0.0
  3

  1

  0
INSERT
  5
147
100
AcDbEntity
  8
0
100
AcDbBlockReference
  2
CLUMP23
 10
0.0
 20
0.0
 30
0.0
  0
ENDBLK
  5
151
100
AcDbEntity
  8
0
100
AcDbBlockEnd
  0
BLOCK
  5
148
100
AcDbEntity
  8
0
100
AcDbBlockBegin
  2
CLUMP23
 70
         0
 10
0.0
 20
0.0
 30
0.0
  3

  1

  0
LINE
  5
149
100
AcDbEntity
  8
LAYER0
 62
         3
100
AcDbLine
 10
30.2212765456
 20
9.1885039526
 30
0.0
 11
30.2005582234
 21
9.0713000202
 31
0.0
  0
LINE
  5
14A
100
AcDbEntity
  8
LAYER0
 62
         3
100
AcDbLine
 10
30.2005582234
 20
9.0713000202
 30
0.0
 11
30.191016082
 21
9.0087461986
 31
0.0
  0
LINE
  5
14B
100
AcDbEntity
  8
LAYER0
 62
         3
100
AcDbLine
 10
30.191016082
 20
9.0087461986
 30
0.0
 11
30.1824543641
 21
8.9414501506
 31
0.0
  0
LINE
  5
14C
100
AcDbEntity
  8
LAYER0
 62
         3
100
AcDbLine
 10
30.1824543641
 20
8.9414501506
 30
0.0
 11
30.1753919275
 21
8.8709689981
 31
0.0
  0
LINE
  5
14D
100
AcDbEntity
  8
LAYER0
 62
         3
100
AcDbLine
 10
30.1753919275
 20
8.8709689981
 30
0.0
 11
30.1696219734
 21
8.7957849358
 31
0.0
  0
LINE
  5
14E
100
AcDbEntity
  8
LAYER0
 62
         3
100
AcDbLine
 10
30.1696219734
 20
8.7957849358
 30
0.0
 11
30.1622604967
 21
8.6360471266
 31
0.0
  0
LINE
  5
14F
100
AcDbEntity
  8
LAYER0
 62
         3
100
AcDbLine
 10
30.1622604967
 20
8.6360471266
 30
0.0
 11
30.1598912121
 21
8.4813991505
 31
0.0
  0
ENDBLK
  5
150
100
AcDbEntity
  8
0
100
AcDbBlockEnd
  0
BLOCK
  5
154
100
AcDbEntity
  8
0
100
AcDbBlockBegin
  2
CLUMP24
 70
         0
 10
0.0
 20
0.0
 30
0.0
  3

  1

  0
INSERT
  5
156
100
AcDbEntity
  8
0
100
AcDbBlockReference
  2
CLUMP25
 10
0.0
 20
0.0
 30
0.0
  0
ENDBLK
  5
15D
100
AcDbEntity
  8
0
100
AcDbBlockEnd
  0
BLOCK
  5
157
100
AcDbEntity
  8
0
100
AcDbBlockBegin
  2
CLUMP25
 70
         0
 10
0.0
 20
0.0
 30
0.0
  3

  1

  0
LINE
  5
158
100
AcDbEntity
  8
LAYER0
 62
         3
100
AcDbLine
 10
30.1221149058
 20
11.4491628426
 30
0.0
 11
30.1567163334
 21
10.8614796716
 31
0.0
  0
LINE
  5
159
100
AcDbEntity
  8
LAYER0
 62
         3
100
AcDbLine
 10
30.1567163334
 20
10.8614796716
 30
0.0
 11
30.1760300536
 21
10.4628798483
 31
0.0
  0
LINE
  5
15A
100
AcDbEntity
  8
LAYER0
 62
         3
100
AcDbLine
 10
30.1760300536
 20
10.4628798483
 30
0.0
 11
30.1928935589
 21
10.0466171223
 31
0.0
  0
LINE
  5
15B
100
AcDbEntity
  8
LAYER0
 62
         3
100
AcDbLine
 10
30.1928935589
 20
10.0466171223
 30
0.0
 11
30.2212765456
 21
9.1885039526
 31
0.0
  0
ENDBLK
  5
15C
100
AcDbEntity
  8
0
100
AcDbBlockEnd
  0
BLOCK
  5
160
100
AcDbEntity
  8
0
100
AcDbBlockBegin
  2
CLUMP26
 70
         0
 10
0.0
 20
0.0
 30
0.0
  3

  1

  0
INSERT
  5
162
100
AcDbEntity
  8
0
100
AcDbBlockReference
  2
CLUMP27
 10
0.0
 20
0.0
 30
0.0
  0
ENDBLK
  5
175
100
AcDbEntity
  8
0
100
AcDbBlockEnd
  0
BLOCK
  5
163
100
AcDbEntity
  8
0
100
AcDbBlockBegin
  2
CLUMP27
 70
         0
 10
0.0
 20
0.0
 30
0.0
  3

  1

  0
LINE
  5
164
100
AcDbEntity
  8
LAYER0
 62
         3
100
AcDbLine
 10
30.0686933116
 20
20.453304978
 30
0.0
 11
30.0681708397
 21
20.4494567531
 31
0.0
  0
LINE
  5
165
100
AcDbEntity
  8
LAYER0
 62
         3
100
AcDbLine
 10
30.0681708397
 20
20.4494567531
 30
0.0
 11
30.0666589677
 21
20.4380894618
 31
0.0
  0
LINE
  5
166
100
AcDbEntity
  8
LAYER0
 62
         3
100
AcDbLine
 10
30.0666589677
 20
20.4380894618
 30
0.0
 11
30.0642934938
 21
20.4197078689
 31
0.0
  0
LINE
  5
167
100
AcDbEntity
  8
LAYER0
 62
         3
100
AcDbLine
 10
30.0642934938
 20
20.4197078689
 30
0.0
 11
30.0577316449
 21
20.3647697288
 31
0.0
  0
LINE
  5
168
100
AcDbEntity
  8
LAYER0
 62
         3
100
AcDbLine
 10
30.0577316449
 20
20.3647697288
 30
0.0
 11
30.0523794397
 21
20.3149754866
 31
0.0
  0
LINE
  5
169
100
AcDbEntity
  8
LAYER0
 62
         3
100
AcDbLine
 10
30.0523794397
 20
20.3149754866
 30
0.0
 11
30.0465054826
 21
20.2539646941
 31
0.0
  0
LINE
  5
16A
100
AcDbEntity
  8
LAYER0
 62
         3
100
AcDbLine
 10
30.0465054826
 20
20.2539646941
 30
0.0
 11
30.0400505809
 21
20.1779747737
 31
0.0
  0
LINE
  5
16B
100
AcDbEntity
  8
LAYER0
 62
         3
100
AcDbLine
 10
30.0400505809
 20
20.1779747737
 30
0.0
 11
30.0333840789
 21
20.0869711059
 31
0.0
  0
LINE
  5
16C
100
AcDbEntity
  8
LAYER0
 62
         3
100
AcDbLine
 10
30.0333840789
 20
20.0869711059
 30
0.0
 11
30.0292944963
 21
20.0230282946
 31
0.0
  0
LINE
  5
16D
100
AcDbEntity
  8
LAYER0
 62
         3
100
AcDbLine
 10
30.0292944963
 20
20.0230282946
 30
0.0
 11
30.0252931488
 21
19.9529437173
 31
0.0
  0
LINE
  5
16E
100
AcDbEntity
  8
LAYER0
 62
         3
100
AcDbLine
 10
30.0252931488
 20
19.9529437173
 30
0.0
 11
30.0214422425
 21
19.8766773992
 31
0.0
  0
LINE
  5
16F
100
AcDbEntity
  8
LAYER0
 62
         3
100
AcDbLine
 10
30.0214422425
 20
19.8766773992
 30
0.0
 11
30.0178039835
 21
19.7941893655
 31
0.0
  0
LINE
  5
170
100
AcDbEntity
  8
LAYER0
 62
         3
100
AcDbLine
 10
30.0178039835
 20
19.7941893655
 30
0.0
 11
30.0117233784
 21
19.6213172692
 31
0.0
  0
LINE
  5
171
100
AcDbEntity
  8
LAYER0
 62
         3
100
AcDbLine
 10
30.0117233784
 20
19.6213172692
 30
0.0
 11
30.0068916769
 21
19.4223979431
 31
0.0
  0
LINE
  5
172
100
AcDbEntity
  8
LAYER0
 62
         3
100
AcDbLine
 10
30.0068916769
 20
19.4223979431
 30
0.0
 11
30.0039691867
 21
19.2174101192
 31
0.0
  0
LINE
  5
173
100
AcDbEntity
  8
LAYER0
 62
         3
100
AcDbLine
 10
30.0039691867
 20
19.2174101192
 30
0.0
 11
30.0029139982
 21
18.9956100601
 31
0.0
  0
ENDBLK
  5
174
100
AcDbEntity
  8
0
100
AcDbBlockEnd
  0
BLOCK
  5
178
100
AcDbEntity
  8
0
100
AcDbBlockBegin
  2
CLUMP28
 70
         0
 10
0.0
 20
0.0
 30
0.0
  3

  1

  0
INSERT
  5
17A
100
AcDbEntity
  8
0
100
AcDbBlockReference
  2
CLUMP29
 10
0.0
 20
0.0
 30
0.0
  0
ENDBLK
  5
186
100
AcDbEntity
  8
0
100
AcDbBlockEnd
  0
BLOCK
  5
17B
100
AcDbEntity
  8
0
100
AcDbBlockBegin
  2
CLUMP29
 70
         0
 10
0.0
 20
0.0
 30
0.0
  3

  1

  0
LINE
  5
17C
100
AcDbEntity
  8
LAYER0
 62
         3
100
AcDbLine
 10
25.909890864
 20
28.4318071834
 30
0.0
 11
25.714800542
 21
28.4093721406
 31
0.0
  0
LINE
  5
17D
100
AcDbEntity
  8
LAYER0
 62
         3
100
AcDbLine
 10
25.714800542
 20
28.4093721406
 30
0.0
 11
25.5272074317
 21
28.3429291781
 31
0.0
  0
LINE
  5
17E
100
AcDbEntity
  8
LAYER0
 62
         3
100
AcDbLine
 10
25.5272074317
 20
28.3429291781
 30
0.0
 11
25.354320631
 21
28.235031662
 31
0.0
  0
LINE
  5
17F
100
AcDbEntity
  8
LAYER0
 62
         3
100
AcDbLine
 10
25.354320631
 20
28.235031662
 30
0.0
 11
25.2027840828
 21
28.089826033
 31
0.0
  0
LINE
  5
180
100
AcDbEntity
  8
LAYER0
 62
         3
100
AcDbLine
 10
25.2027840828
 20
28.089826033
 30
0.0
 11
25.0784212517
 21
27.9128924622
 31
0.0
  0
LINE
  5
181
100
AcDbEntity
  8
LAYER0
 62
         3
100
AcDbLine
 10
25.0784212517
 20
27.9128924622
 30
0.0
 11
24.9860113315
 21
27.7110304075
 31
0.0
  0
LINE
  5
182
100
AcDbEntity
  8
LAYER0
 62
         3
100
AcDbLine
 10
24.9860113315
 20
27.7110304075
 30
0.0
 11
24.9291055836
 21
27.4919973143
 31
0.0
  0
LINE
  5
183
100
AcDbEntity
  8
LAYER0
 62
         3
100
AcDbLine
 10
24.9291055836
 20
27.4919973143
 30
0.0
 11
24.909890864
 21
27.2642105017
 31
0.0
  0
LINE
  5
184
100
AcDbEntity
  8
LAYER0
 62
         3
100
AcDbLine
 10
24.909890864
 20
27.2642105017
 30
0.0
 11
25.909890864
 21
28.4318071834
 31
0.0
  0
ENDBLK
  5
185
100
AcDbEntity
  8
0
100
AcDbBlockEnd
  0
BLOCK
  5
1F3
100
AcDbEntity
  8
0
100
AcDbBlockBegin
  2
CLUMP30
 70
         0
 10
0.0
 20
0.0
 30
0.0
  3

  1

  0
INSERT
  5
1F5
100
AcDbEntity
  8
0
100
AcDbBlockReference
  2
CLUMP31
 10
0.0
 20
0.0
 30
0.0
  0
ENDBLK
  5
200
100
AcDbEntity
  8
0
100
AcDbBlockEnd
  0
BLOCK
  5
1F6
100
AcDbEntity
  8
0
100
AcDbBlockBegin
  2
CLUMP31
 70
         0
 10
0.0
 20
0.0
 30
0.0
  3

  1

  0
LINE
  5
1F7
100
AcDbEntity
  8
LAYER1
 62
         3
100
AcDbLine
 10
-12.52657098
 20
28.431807639
 30
0.0
 11
-12.5261416403
 21
28.4093739408
 31
0.0
  0
LINE
  5
1F8
100
AcDbEntity
  8
LAYER1
 62
         3
100
AcDbLine
 10
-12.5261416403
 20
28.4093739408
 30
0.0
 11
-12.5248703849
 21
28.3429296631
 31
0.0
  0
LINE
  5
1F9
100
AcDbEntity
  8
LAYER1
 62
         3
100
AcDbLine
 10
-12.5248703849
 20
28.3429296631
 30
0.0
 11
-12.5228065741
 21
28.2350303548
 31
0.0
  0
LINE
  5
1FA
100
AcDbEntity
  8
LAYER1
 62
         3
100
AcDbLine
 10
-12.5228065741
 20
28.2350303548
 30
0.0
 11
-12.5200284389
 21
28.0898259896
 31
0.0
  0
LINE
  5
1FB
100
AcDbEntity
  8
LAYER1
 62
         3
100
AcDbLine
 10
-12.5200284389
 20
28.0898259896
 30
0.0
 11
-12.5166430813
 21
27.9128933269
 31
0.0
  0
LINE
  5
1FC
100
AcDbEntity
  8
LAYER1
 62
         3
100
AcDbLine
 10
-12.5166430813
 20
27.9128933269
 30
0.0
 11
-12.5127818179
 21
27.7110310215
 31
0.0
  0
LINE
  5
1FD
100
AcDbEntity
  8
LAYER1
 62
         3
100
AcDbLine
 10
-12.5127818179
 20
27.7110310215
 30
0.0
 11
-12.5085917977
 21
27.4919988531
 31
0.0
  0
LINE
  5
1FE
100
AcDbEntity
  8
LAYER1
 62
         3
100
AcDbLine
 10
-12.5085917977
 20
27.4919988531
 30
0.0
 11
-12.5042341393
 21
27.2642122525
 31
0.0
  0
ENDBLK
  5
1FF
100
AcDbEntity
  8
0
100
AcDbBlockEnd
  0
BLOCK
  5
203
100
AcDbEntity
  8
0
100
AcDbBlockBegin
  2
CLUMP32
 70
         0
 10
0.0
 20
0.0
 30
0.0
  3

  1

  0
INSERT
  5
205
100
AcDbEntity
  8
0
100
AcDbBlockReference
  2
CLUMP33
 10
0.0
 20
0.0
 30
0.0
  0
ENDBLK
  5
211
100
AcDbEntity
  8
0
100
AcDbBlockEnd
  0
BLOCK
  5
206
100
AcDbEntity
  8
0
100
AcDbBlockBegin
  2
CLUMP33
 70
         0
 10
0.0
 20
0.0
 30
0.0
  3

  1

  0
LINE
  5
207
100
AcDbEntity
  8
LAYER1
 62
         3
100
AcDbLine
 10
-12.045701195
 20
3.2956125158
 30
0.0
 11
-12.0423791674
 21
3.1219618338
 31
0.0
  0
LINE
  5
208
100
AcDbEntity
  8
LAYER1
 62
         3
100
AcDbLine
 10
-12.0423791674
 20
3.1219618338
 30
0.0
 11
-12.0391586539
 21
2.9535898882
 31
0.0
  0
LINE
  5
209
100
AcDbEntity
  8
LAYER1
 62
         3
100
AcDbLine
 10
-12.0391586539
 20
2.9535898882
 30
0.0
 11
-12.0361355809
 21
2.7956115025
 31
0.0
  0
LINE
  5
20A
100
AcDbEntity
  8
LAYER1
 62
         3
100
AcDbLine
 10
-12.0361355809
 20
2.7956115025
 30
0.0
 11
-12.0334040117
 21
2.6528248507
 31
0.0
  0
LINE
  5
20B
100
AcDbEntity
  8
LAYER1
 62
         3
100
AcDbLine
 10
-12.0334040117
 20
2.6528248507
 30
0.0
 11
-12.0310468343
 21
2.5295661706
 31
0.0
  0
LINE
  5
20C
100
AcDbEntity
  8
LAYER1
 62
         3
100
AcDbLine
 10
-12.0310468343
 20
2.5295661706
 30
0.0
 11
-12.0291338977
 21
2.4295868295
 31
0.0
  0
LINE
  5
20D
100
AcDbEntity
  8
LAYER1
 62
         3
100
AcDbLine
 10
-12.0291338977
 20
2.4295868295
 30
0.0
 11
-12.0277248067
 21
2.3559192139
 31
0.0
  0
LINE
  5
20E
100
AcDbEntity
  8
LAYER1
 62
         3
100
AcDbLine
 10
-12.0277248067
 20
2.3559192139
 30
0.0
 11
-12.0268614707
 21
2.3108022231
 31
0.0
  0
LINE
  5
20F
100
AcDbEntity
  8
LAYER1
 62
         3
100
AcDbLine
 10
-12.0268614707
 20
2.3108022231
 30
0.0
 11
-12.026570898
 21
2.2956104892
 31
0.0
  0
ENDBLK
  5
210
100
AcDbEntity
  8
0
100
AcDbBlockEnd
  0
BLOCK
  5
214
100
AcDbEntity
  8
0
100
AcDbBlockBegin
  2
CLUMP34
 70
         0
 10
0.0
 20
0.0
 30
0.0
  3

  1

  0
INSERT
  5
216
100
AcDbEntity
  8
0
100
AcDbBlockReference
  2
CLUMP35
 10
0.0
 20
0.0
 30
0.0
  0
ENDBLK
  5
221
100
AcDbEntity
  8
0
100
AcDbBlockEnd
  0
BLOCK
  5
217
100
AcDbEntity
  8
0
100
AcDbBlockBegin
  2
CLUMP35
 70
         0
 10
0.0
 20
0.0
 30
0.0
  3

  1

  0
LINE
  5
218
100
AcDbEntity
  8
LAYER1
 62
         3
100
AcDbLine
 10
-31.526570369
 20
28.431807639
 30
0.0
 11
-31.5071373922
 21
28.4430282134
 31
0.0
  0
LINE
  5
219
100
AcDbEntity
  8
LAYER1
 62
         3
100
AcDbLine
 10
-31.5071373922
 20
28.4430282134
 30
0.0
 11
-31.4495863137
 21
28.4762540775
 31
0.0
  0
LINE
  5
21A
100
AcDbEntity
  8
LAYER1
 62
         3
100
AcDbLine
 10
-31.4495863137
 20
28.4762540775
 30
0.0
 11
-31.356127162
 21
28.5302111822
 31
0.0
  0
LINE
  5
21B
100
AcDbEntity
  8
LAYER1
 62
         3
100
AcDbLine
 10
-31.356127162
 20
28.5302111822
 30
0.0
 11
-31.2303520483
 21
28.602828266
 31
0.0
  0
LINE
  5
21C
100
AcDbEntity
  8
LAYER1
 62
         3
100
AcDbLine
 10
-31.2303520483
 20
28.602828266
 30
0.0
 11
-31.0770954681
 21
28.6913113612
 31
0.0
  0
LINE
  5
21D
100
AcDbEntity
  8
LAYER1
 62
         3
100
AcDbLine
 10
-31.0770954681
 20
28.6913113612
 30
0.0
 11
-30.9022452426
 21
28.792263003
 31
0.0
  0
LINE
  5
21E
100
AcDbEntity
  8
LAYER1
 62
         3
100
AcDbLine
 10
-30.9022452426
 20
28.792263003
 30
0.0
 11
-30.712522727
 21
28.9017977136
 31
0.0
  0
LINE
  5
21F
100
AcDbEntity
  8
LAYER1
 62
         3
100
AcDbLine
 10
-30.712522727
 20
28.9017977136
 30
0.0
 11
-30.5152173829
 21
29.0157133657
 31
0.0
  0
ENDBLK
  5
220
100
AcDbEntity
  8
0
100
AcDbBlockEnd
  0
BLOCK
  5
224
100
AcDbEntity
  8
0
100
AcDbBlockBegin
  2
CLUMP36
 70
         0
 10
0.0
 20
0.0
 30
0.0
  3

  1

  0
INSERT
  5
226
100
AcDbEntity
  8
0
100
AcDbBlockReference
  2
CLUMP37
 10
0.0
 20
0.0
 30
0.0
  0
ENDBLK
  5
231
100
AcDbEntity
  8
0
100
AcDbBlockEnd
  0
BLOCK
  5
227
100
AcDbEntity
  8
0
100
AcDbBlockBegin
  2
CLUMP37
 70
         0
 10
0.0
 20
0.0
 30
0.0
  3

  1

  0
LINE
  5
228
100
AcDbEntity
  8
LAYER1
 62
         3
100
AcDbLine
 10
-14.0377964568
 20
29.3043153304
 30
0.0
 11
-13.8405162585
 21
29.1904145795
 31
0.0
  0
LINE
  5
229
100
AcDbEntity
  8
LAYER1
 62
         3
100
AcDbLine
 10
-13.8405162585
 20
29.1904145795
 30
0.0
 11
-13.6508170259
 21
29.0808910447
 31
0.0
  0
LINE
  5
22A
100
AcDbEntity
  8
LAYER1
 62
         3
100
AcDbLine
 10
-13.6508170259
 20
29.0808910447
 30
0.0
 11
-13.4759891522
 21
28.9799543041
 31
0.0
  0
LINE
  5
22B
100
AcDbEntity
  8
LAYER1
 62
         3
100
AcDbLine
 10
-13.4759891522
 20
28.9799543041
 30
0.0
 11
-13.3227521297
 21
28.8914823848
 31
0.0
  0
LINE
  5
22C
100
AcDbEntity
  8
LAYER1
 62
         3
100
AcDbLine
 10
-13.3227521297
 20
28.8914823848
 30
0.0
 11
-13.1969928485
 21
28.8188764769
 31
0.0
  0
LINE
  5
22D
100
AcDbEntity
  8
LAYER1
 62
         3
100
AcDbLine
 10
-13.1969928485
 20
28.8188764769
 30
0.0
 11
-13.103545804
 21
28.7649230975
 31
0.0
  0
LINE
  5
22E
100
AcDbEntity
  8
LAYER1
 62
         3
100
AcDbLine
 10
-13.103545804
 20
28.7649230975
 30
0.0
 11
-13.0460012448
 21
28.7317009586
 31
0.0
  0
LINE
  5
22F
100
AcDbEntity
  8
LAYER1
 62
         3
100
AcDbLine
 10
-13.0460012448
 20
28.7317009586
 30
0.0
 11
-13.0265710619
 21
28.7204841095
 31
0.0
  0
ENDBLK
  5
230
100
AcDbEntity
  8
0
100
AcDbBlockEnd
  0
BLOCK
  5
234
100
AcDbEntity
  8
0
100
AcDbBlockBegin
  2
CLUMP38
 70
         0
 10
0.0
 20
0.0
 30
0.0
  3

  1

  0
INSERT
  5
236
100
AcDbEntity
  8
0
100
AcDbBlockReference
  2
CLUMP39
 10
0.0
 20
0.0
 30
0.0
  0
ENDBLK
  5
23D
100
AcDbEntity
  8
0
100
AcDbBlockEnd
  0
BLOCK
  5
237
100
AcDbEntity
  8
0
100
AcDbBlockBegin
  2
CLUMP39
 70
         0
 10
0.0
 20
0.0
 30
0.0
  3

  1

  0
LINE
  5
238
100
AcDbEntity
  8
LAYER0
 62
         3
100
AcDbLine
 10
-16.776532561
 20
9.1885039526
 30
0.0
 11
-17.8018418816
 21
10.0452089625
 31
0.0
  0
LINE
  5
239
100
AcDbEntity
  8
LAYER0
 62
         3
100
AcDbLine
 10
-17.8018418816
 20
10.0452089625
 30
0.0
 11
-18.3251779378
 21
10.4621998705
 31
0.0
  0
LINE
  5
23A
100
AcDbEntity
  8
LAYER0
 62
         3
100
AcDbLine
 10
-18.3251779378
 20
10.4621998705
 30
0.0
 11
-18.8616897655
 21
10.8614796716
 31
0.0
  0
LINE
  5
23B
100
AcDbEntity
  8
LAYER0
 62
         3
100
AcDbLine
 10
-18.8616897655
 20
10.8614796716
 30
0.0
 11
-19.7339613666
 21
11.4491628426
 31
0.0
  0
ENDBLK
  5
23C
100
AcDbEntity
  8
0
100
AcDbBlockEnd
  0
BLOCK
  5
240
100
AcDbEntity
  8
0
100
AcDbBlockBegin
  2
CLUMP40
 70
         0
 10
0.0
 20
0.0
 30
0.0
  3

  1

  0
INSERT
  5
242
100
AcDbEntity
  8
0
100
AcDbBlockReference
  2
CLUMP41
 10
0.0
 20
0.0
 30
0.0
  0
ENDBLK
  5
249
100
AcDbEntity
  8
0
100
AcDbBlockEnd
  0
BLOCK
  5
243
100
AcDbEntity
  8
0
100
AcDbBlockBegin
  2
CLUMP41
 70
         0
 10
0.0
 20
0.0
 30
0.0
  3

  1

  0
LINE
  5
244
100
AcDbEntity
  8
LAYER0
 62
         3
100
AcDbLine
 10
-24.3191799824
 20
11.4491628426
 30
0.0
 11
-25.1914515835
 21
10.8614796716
 31
0.0
  0
LINE
  5
245
100
AcDbEntity
  8
LAYER0
 62
         3
100
AcDbLine
 10
-25.1914515835
 20
10.8614796716
 30
0.0
 11
-25.7270752571
 21
10.4628798466
 31
0.0
  0
LINE
  5
246
100
AcDbEntity
  8
LAYER0
 62
         3
100
AcDbLine
 10
-25.7270752571
 20
10.4628798466
 30
0.0
 11
-26.2495597568
 21
10.0466171223
 31
0.0
  0
LINE
  5
247
100
AcDbEntity
  8
LAYER0
 62
         3
100
AcDbLine
 10
-26.2495597568
 20
10.0466171223
 30
0.0
 11
-27.2766087879
 21
9.1885039526
 31
0.0
  0
ENDBLK
  5
248
100
AcDbEntity
  8
0
100
AcDbBlockEnd
  0
BLOCK
  5
24C
100
AcDbEntity
  8
0
100
AcDbBlockBegin
  2
CLUMP42
 70
         0
 10
0.0
 20
0.0
 30
0.0
  3

  1

  0
INSERT
  5
24E
100
AcDbEntity
  8
0
100
AcDbBlockReference
  2
CLUMP43
 10
0.0
 20
0.0
 30
0.0
  0
ENDBLK
  5
259
100
AcDbEntity
  8
0
100
AcDbBlockEnd
  0
BLOCK
  5
24F
100
AcDbEntity
  8
0
100
AcDbBlockBegin
  2
CLUMP43
 70
         0
 10
0.0
 20
0.0
 30
0.0
  3

  1

  0
LINE
  5
250
100
AcDbEntity
  8
LAYER1
 62
         3
100
AcDbLine
 10
-19.7339613666
 20
11.4491628426
 30
0.0
 11
-19.7152313054
 21
11.4814052302
 31
0.0
  0
LINE
  5
251
100
AcDbEntity
  8
LAYER1
 62
         3
100
AcDbLine
 10
-19.7152313054
 20
11.4814052302
 30
0.0
 11
-19.693830444
 21
11.5182446259
 31
0.0
  0
LINE
  5
252
100
AcDbEntity
  8
LAYER1
 62
         3
100
AcDbLine
 10
-19.693830444
 20
11.5182446259
 30
0.0
 11
-19.6700651874
 21
11.5591520387
 31
0.0
  0
LINE
  5
253
100
AcDbEntity
  8
LAYER1
 62
         3
100
AcDbLine
 10
-19.6700651874
 20
11.5591520387
 30
0.0
 11
-19.6442752355
 21
11.6035463232
 31
0.0
  0
LINE
  5
254
100
AcDbEntity
  8
LAYER1
 62
         3
100
AcDbLine
 10
-19.6442752355
 20
11.6035463232
 30
0.0
 11
-19.6168298577
 21
11.6507904547
 31
0.0
  0
LINE
  5
255
100
AcDbEntity
  8
LAYER1
 62
         3
100
AcDbLine
 10
-19.6168298577
 20
11.6507904547
 30
0.0
 11
-19.5881213737
 21
11.7002101558
 31
0.0
  0
LINE
  5
256
100
AcDbEntity
  8
LAYER1
 62
         3
100
AcDbLine
 10
-19.5881213737
 20
11.7002101558
 30
0.0
 11
-19.5585609623
 21
11.751093896
 31
0.0
  0
LINE
  5
257
100
AcDbEntity
  8
LAYER1
 62
         3
100
AcDbLine
 10
-19.5585609623
 20
11.751093896
 30
0.0
 11
-19.5285714441
 21
11.802718969
 31
0.0
  0
ENDBLK
  5
258
100
AcDbEntity
  8
0
100
AcDbBlockEnd
  0
BLOCK
  5
25C
100
AcDbEntity
  8
0
100
AcDbBlockBegin
  2
CLUMP44
 70
         0
 10
0.0
 20
0.0
 30
0.0
  3

  1

  0
INSERT
  5
25E
100
AcDbEntity
  8
0
100
AcDbBlockReference
  2
CLUMP45
 10
0.0
 20
0.0
 30
0.0
  0
ENDBLK
  5
265
100
AcDbEntity
  8
0
100
AcDbBlockEnd
  0
BLOCK
  5
25F
100
AcDbEntity
  8
0
100
AcDbBlockBegin
  2
CLUMP45
 70
         0
 10
0.0
 20
0.0
 30
0.0
  3

  1

  0
LINE
  5
260
100
AcDbEntity
  8
LAYER0
 62
         3
100
AcDbLine
 10
-19.5285714441
 20
11.802718969
 30
0.0
 11
-18.6149048828
 21
11.2150320727
 31
0.0
  0
LINE
  5
261
100
AcDbEntity
  8
LAYER0
 62
         3
100
AcDbLine
 10
-18.6149048828
 20
11.2150320727
 30
0.0
 11
-18.0645553852
 21
10.8193229271
 31
0.0
  0
LINE
  5
262
100
AcDbEntity
  8
LAYER0
 62
         3
100
AcDbLine
 10
-18.0645553852
 20
10.8193229271
 30
0.0
 11
-17.5287422468
 21
10.4035558122
 31
0.0
  0
LINE
  5
263
100
AcDbEntity
  8
LAYER0
 62
         3
100
AcDbLine
 10
-17.5287422468
 20
10.4035558122
 30
0.0
 11
-16.4774932642
 21
9.5420563537
 31
0.0
  0
ENDBLK
  5
264
100
AcDbEntity
  8
0
100
AcDbBlockEnd
  0
BLOCK
  5
268
100
AcDbEntity
  8
0
100
AcDbBlockBegin
  2
CLUMP46
 70
         0
 10
0.0
 20
0.0
 30
0.0
  3

  1

  0
INSERT
  5
26A
100
AcDbEntity
  8
0
100
AcDbBlockReference
  2
CLUMP47
 10
0.0
 20
0.0
 30
0.0
  0
ENDBLK
  5
275
100
AcDbEntity
  8
0
100
AcDbBlockEnd
  0
BLOCK
  5
26B
100
AcDbEntity
  8
0
100
AcDbBlockBegin
  2
CLUMP47
 70
         0
 10
0.0
 20
0.0
 30
0.0
  3

  1

  0
LINE
  5
26C
100
AcDbEntity
  8
LAYER1
 62
         3
100
AcDbLine
 10
-16.776532561
 20
9.1885039526
 30
0.0
 11
-16.7553021316
 21
9.2136049586
 31
0.0
  0
LINE
  5
26D
100
AcDbEntity
  8
LAYER1
 62
         3
100
AcDbLine
 10
-16.7553021316
 20
9.2136049586
 30
0.0
 11
-16.7279976164
 21
9.2458883244
 31
0.0
  0
LINE
  5
26E
100
AcDbEntity
  8
LAYER1
 62
         3
100
AcDbLine
 10
-16.7279976164
 20
9.2458883244
 30
0.0
 11
-16.6952159931
 21
9.2846425193
 31
0.0
  0
LINE
  5
26F
100
AcDbEntity
  8
LAYER1
 62
         3
100
AcDbLine
 10
-16.6952159931
 20
9.2846425193
 30
0.0
 11
-16.6576743801
 21
9.3290293532
 31
0.0
  0
LINE
  5
270
100
AcDbEntity
  8
LAYER1
 62
         3
100
AcDbLine
 10
-16.6576743801
 20
9.3290293532
 30
0.0
 11
-16.6161932726
 21
9.3780728
 31
0.0
  0
LINE
  5
271
100
AcDbEntity
  8
LAYER1
 62
         3
100
AcDbLine
 10
-16.6161932726
 20
9.3780728
 30
0.0
 11
-16.5716797789
 21
9.4306999761
 31
0.0
  0
LINE
  5
272
100
AcDbEntity
  8
LAYER1
 62
         3
100
AcDbLine
 10
-16.5716797789
 20
9.4306999761
 30
0.0
 11
-16.5251071309
 21
9.485763492
 31
0.0
  0
LINE
  5
273
100
AcDbEntity
  8
LAYER1
 62
         3
100
AcDbLine
 10
-16.5251071309
 20
9.485763492
 30
0.0
 11
-16.4774932642
 21
9.5420563537
 31
0.0
  0
ENDBLK
  5
274
100
AcDbEntity
  8
0
100
AcDbBlockEnd
  0
BLOCK
  5
278
100
AcDbEntity
  8
0
100
AcDbBlockBegin
  2
CLUMP48
 70
         0
 10
0.0
 20
0.0
 30
0.0
  3

  1

  0
INSERT
  5
27A
100
AcDbEntity
  8
0
100
AcDbBlockReference
  2
CLUMP49
 10
0.0
 20
0.0
 30
0.0
  0
ENDBLK
  5
281
100
AcDbEntity
  8
0
100
AcDbBlockEnd
  0
BLOCK
  5
27B
100
AcDbEntity
  8
0
100
AcDbBlockBegin
  2
CLUMP49
 70
         0
 10
0.0
 20
0.0
 30
0.0
  3

  1

  0
LINE
  5
27C
100
AcDbEntity
  8
LAYER0
 62
         3
100
AcDbLine
 10
-27.5756480847
 20
9.5420563537
 30
0.0
 11
-26.5266156499
 21
10.4018049258
 31
0.0
  0
LINE
  5
27D
100
AcDbEntity
  8
LAYER0
 62
         3
100
AcDbLine
 10
-26.5266156499
 20
10.4018049258
 30
0.0
 11
-25.9897196297
 21
10.8184817085
 31
0.0
  0
LINE
  5
27E
100
AcDbEntity
  8
LAYER0
 62
         3
100
AcDbLine
 10
-25.9897196297
 20
10.8184817085
 30
0.0
 11
-25.4382364661
 21
11.2150320727
 31
0.0
  0
LINE
  5
27F
100
AcDbEntity
  8
LAYER0
 62
         3
100
AcDbLine
 10
-25.4382364661
 20
11.2150320727
 30
0.0
 11
-24.5245699049
 21
11.802718969
 31
0.0
  0
ENDBLK
  5
280
100
AcDbEntity
  8
0
100
AcDbBlockEnd
  0
BLOCK
  5
284
100
AcDbEntity
  8
0
100
AcDbBlockBegin
  2
CLUMP50
 70
         0
 10
0.0
 20
0.0
 30
0.0
  3

  1

  0
INSERT
  5
286
100
AcDbEntity
  8
0
100
AcDbBlockReference
  2
CLUMP51
 10
0.0
 20
0.0
 30
0.0
  0
ENDBLK
  5
291
100
AcDbEntity
  8
0
100
AcDbBlockEnd
  0
BLOCK
  5
287
100
AcDbEntity
  8
0
100
AcDbBlockBegin
  2
CLUMP51
 70
         0
 10
0.0
 20
0.0
 30
0.0
  3

  1

  0
LINE
  5
288
100
AcDbEntity
  8
LAYER1
 62
         3
100
AcDbLine
 10
-24.5245699049
 20
11.802718969
 30
0.0
 11
-24.4945803867
 21
11.751093896
 31
0.0
  0
LINE
  5
289
100
AcDbEntity
  8
LAYER1
 62
         3
100
AcDbLine
 10
-24.4945803867
 20
11.751093896
 30
0.0
 11
-24.4650199753
 21
11.7002101558
 31
0.0
  0
LINE
  5
28A
100
AcDbEntity
  8
LAYER1
 62
         3
100
AcDbLine
 10
-24.4650199753
 20
11.7002101558
 30
0.0
 11
-24.4363114913
 21
11.6507904547
 31
0.0
  0
LINE
  5
28B
100
AcDbEntity
  8
LAYER1
 62
         3
100
AcDbLine
 10
-24.4363114913
 20
11.6507904547
 30
0.0
 11
-24.4088661135
 21
11.6035463232
 31
0.0
  0
LINE
  5
28C
100
AcDbEntity
  8
LAYER1
 62
         3
100
AcDbLine
 10
-24.4088661135
 20
11.6035463232
 30
0.0
 11
-24.3830761616
 21
11.5591520387
 31
0.0
  0
LINE
  5
28D
100
AcDbEntity
  8
LAYER1
 62
         3
100
AcDbLine
 10
-24.3830761616
 20
11.5591520387
 30
0.0
 11
-24.359310905
 21
11.5182446259
 31
0.0
  0
LINE
  5
28E
100
AcDbEntity
  8
LAYER1
 62
         3
100
AcDbLine
 10
-24.359310905
 20
11.5182446259
 30
0.0
 11
-24.3379100435
 21
11.4814052302
 31
0.0
  0
LINE
  5
28F
100
AcDbEntity
  8
LAYER1
 62
         3
100
AcDbLine
 10
-24.3379100435
 20
11.4814052302
 30
0.0
 11
-24.3191799824
 21
11.4491628426
 31
0.0
  0
ENDBLK
  5
290
100
AcDbEntity
  8
0
100
AcDbBlockEnd
  0
BLOCK
  5
2A9
100
AcDbEntity
  8
0
100
AcDbBlockBegin
  2
CLUMP52
 70
         0
 10
0.0
 20
0.0
 30
0.0
  3

  1

  0
INSERT
  5
2AB
100
AcDbEntity
  8
0
100
AcDbBlockReference
  2
CLUMP53
 10
0.0
 20
0.0
 30
0.0
  0
ENDBLK
  5
2B6
100
AcDbEntity
  8
0
100
AcDbBlockEnd
  0
BLOCK
  5
2AC
100
AcDbEntity
  8
0
100
AcDbBlockBegin
  2
CLUMP53
 70
         0
 10
0.0
 20
0.0
 30
0.0
  3

  1

  0
LINE
  5
2AD
100
AcDbEntity
  8
LAYER1
 62
         3
100
AcDbLine
 10
-27.5756480847
 20
9.5420563537
 30
0.0
 11
-27.5280342181
 21
9.485763492
 31
0.0
  0
LINE
  5
2AE
100
AcDbEntity
  8
LAYER1
 62
         3
100
AcDbLine
 10
-27.5280342181
 20
9.485763492
 30
0.0
 11
-27.4814615701
 21
9.4306999761
 31
0.0
  0
LINE
  5
2AF
100
AcDbEntity
  8
LAYER1
 62
         3
100
AcDbLine
 10
-27.4814615701
 20
9.4306999761
 30
0.0
 11
-27.4369480764
 21
9.3780728
 31
0.0
  0
LINE
  5
2B0
100
AcDbEntity
  8
LAYER1
 62
         3
100
AcDbLine
 10
-27.4369480764
 20
9.3780728
 30
0.0
 11
-27.3954669689
 21
9.3290293532
 31
0.0
  0
LINE
  5
2B1
100
AcDbEntity
  8
LAYER1
 62
         3
100
AcDbLine
 10
-27.3954669689
 20
9.3290293532
 30
0.0
 11
-27.3579253559
 21
9.2846425193
 31
0.0
  0
LINE
  5
2B2
100
AcDbEntity
  8
LAYER1
 62
         3
100
AcDbLine
 10
-27.3579253559
 20
9.2846425193
 30
0.0
 11
-27.3251437326
 21
9.2458883244
 31
0.0
  0
LINE
  5
2B3
100
AcDbEntity
  8
LAYER1
 62
         3
100
AcDbLine
 10
-27.3251437326
 20
9.2458883244
 30
0.0
 11
-27.2978392173
 21
9.2136049586
 31
0.0
  0
LINE
  5
2B4
100
AcDbEntity
  8
LAYER1
 62
         3
100
AcDbLine
 10
-27.2978392173
 20
9.2136049586
 30
0.0
 11
-27.2766087879
 21
9.1885039526
 31
0.0
  0
ENDBLK
  5
2B5
100
AcDbEntity
  8
0
100
AcDbBlockEnd
  0
BLOCK
  5
2B9
100
AcDbEntity
  8
0
100
AcDbBlockBegin
  2
CLUMP54
 70
         0
 10
0.0
 20
0.0
 30
0.0
  3

  1

  0
INSERT
  5
2BB
100
AcDbEntity
  8
0
100
AcDbBlockReference
  2
CLUMP55
 10
0.0
 20
0.0
 30
0.0
  0
ENDBLK
  5
2C8
100
AcDbEntity
  8
0
100
AcDbBlockEnd
  0
BLOCK
  5
2BC
100
AcDbEntity
  8
0
100
AcDbBlockBegin
  2
CLUMP55
 70
         0
 10
0.0
 20
0.0
 30
0.0
  3

  1

  0
LINE
  5
2BD
100
AcDbEntity
  8
LAYER0
 62
         3
100
AcDbLine
 10
-28.0887486157
 20
8.4813991505
 30
0.0
 11
-28.0815708927
 21
8.5978408823
 31
0.0
  0
LINE
  5
2BE
100
AcDbEntity
  8
LAYER0
 62
         3
100
AcDbLine
 10
-28.0815708927
 20
8.5978408823
 30
0.0
 11
-28.0679018912
 21
8.7133692521
 31
0.0
  0
LINE
  5
2BF
100
AcDbEntity
  8
LAYER0
 62
         3
100
AcDbLine
 10
-28.0679018912
 20
8.7133692521
 30
0.0
 11
-28.041455346
 21
8.8314196142
 31
0.0
  0
LINE
  5
2C0
100
AcDbEntity
  8
LAYER0
 62
         3
100
AcDbLine
 10
-28.041455346
 20
8.8314196142
 30
0.0
 11
-28.0032392335
 21
8.9464792925
 31
0.0
  0
LINE
  5
2C1
100
AcDbEntity
  8
LAYER0
 62
         3
100
AcDbLine
 10
-28.0032392335
 20
8.9464792925
 30
0.0
 11
-27.953372405
 21
9.0613656274
 31
0.0
  0
LINE
  5
2C2
100
AcDbEntity
  8
LAYER0
 62
         3
100
AcDbLine
 10
-27.953372405
 20
9.0613656274
 30
0.0
 11
-27.8937664558
 21
9.1714793759
 31
0.0
  0
LINE
  5
2C3
100
AcDbEntity
  8
LAYER0
 62
         3
100
AcDbLine
 10
-27.8937664558
 20
9.1714793759
 30
0.0
 11
-27.8272922328
 21
9.2726392567
 31
0.0
  0
LINE
  5
2C4
100
AcDbEntity
  8
LAYER0
 62
         3
100
AcDbLine
 10
-27.8272922328
 20
9.2726392567
 30
0.0
 11
-27.7520284732
 21
9.3672173041
 31
0.0
  0
LINE
  5
2C5
100
AcDbEntity
  8
LAYER0
 62
         3
100
AcDbLine
 10
-27.7520284732
 20
9.3672173041
 30
0.0
 11
-27.6661941832
 21
9.4568182508
 31
0.0
  0
LINE
  5
2C6
100
AcDbEntity
  8
LAYER0
 62
         3
100
AcDbLine
 10
-27.6661941832
 20
9.4568182508
 30
0.0
 11
-27.5756480847
 21
9.5420563537
 31
0.0
  0
ENDBLK
  5
2C7
100
AcDbEntity
  8
0
100
AcDbBlockEnd
  0
BLOCK
  5
2CB
100
AcDbEntity
  8
0
100
AcDbBlockBegin
  2
CLUMP56
 70
         0
 10
0.0
 20
0.0
 30
0.0
  3

  1

  0
INSERT
  5
2CD
100
AcDbEntity
  8
0
100
AcDbBlockReference
  2
CLUMP57
 10
0.0
 20
0.0
 30
0.0
  0
ENDBLK
  5
2E2
100
AcDbEntity
  8
0
100
AcDbBlockEnd
  0
BLOCK
  5
2CE
100
AcDbEntity
  8
0
100
AcDbBlockBegin
  2
CLUMP57
 70
         0
 10
0.0
 20
0.0
 30
0.0
  3

  1

  0
LINE
  5
2CF
100
AcDbEntity
  8
LAYER0
 62
         3
100
AcDbLine
 10
-12.2627664101
 20
25.3550866562
 30
0.0
 11
-12.2627682728
 21
25.3542447406
 31
0.0
  0
LINE
  5
2D0
100
AcDbEntity
  8
LAYER0
 62
         3
100
AcDbLine
 10
-12.2627682728
 20
25.3542447406
 30
0.0
 11
-12.2627723432
 21
25.3516153101
 31
0.0
  0
LINE
  5
2D1
100
AcDbEntity
  8
LAYER0
 62
         3
100
AcDbLine
 10
-12.2627723432
 20
25.3516153101
 30
0.0
 11
-12.26278038
 21
25.347166689
 31
0.0
  0
LINE
  5
2D2
100
AcDbEntity
  8
LAYER0
 62
         3
100
AcDbLine
 10
-12.26278038
 20
25.347166689
 30
0.0
 11
-12.2627813113
 21
25.3467084783
 31
0.0
  0
LINE
  5
2D3
100
AcDbEntity
  8
LAYER0
 62
         3
100
AcDbLine
 10
-12.2627813113
 20
25.3467084783
 30
0.0
 11
-12.2627926609
 21
25.3402862143
 31
0.0
  0
LINE
  5
2D4
100
AcDbEntity
  8
LAYER0
 62
         3
100
AcDbLine
 10
-12.2627926609
 20
25.3402862143
 30
0.0
 11
-12.2628055257
 21
25.3323176819
 31
0.0
  0
LINE
  5
2D5
100
AcDbEntity
  8
LAYER0
 62
         3
100
AcDbLine
 10
-12.2628055257
 20
25.3323176819
 30
0.0
 11
-12.2628211546
 21
25.3231629541
 31
0.0
  0
LINE
  5
2D6
100
AcDbEntity
  8
LAYER0
 62
         3
100
AcDbLine
 10
-12.2628211546
 20
25.3231629541
 30
0.0
 11
-12.2628390533
 21
25.3130281287
 31
0.0
  0
LINE
  5
2D7
100
AcDbEntity
  8
LAYER0
 62
         3
100
AcDbLine
 10
-12.2628390533
 20
25.3130281287
 30
0.0
 11
-12.2628772375
 21
25.2913022357
 31
0.0
  0
LINE
  5
2D8
100
AcDbEntity
  8
LAYER0
 62
         3
100
AcDbLine
 10
-12.2628772375
 20
25.2913022357
 30
0.0
 11
-12.2629144904
 21
25.2696881014
 31
0.0
  0
LINE
  5
2D9
100
AcDbEntity
  8
LAYER0
 62
         3
100
AcDbLine
 10
-12.2629144904
 20
25.2696881014
 30
0.0
 11
-12.2629318972
 21
25.259690991
 31
0.0
  0
LINE
  5
2DA
100
AcDbEntity
  8
LAYER0
 62
         3
100
AcDbLine
 10
-12.2629318972
 20
25.259690991
 30
0.0
 11
-12.262948018
 21
25.2505140322
 31
0.0
  0
LINE
  5
2DB
100
AcDbEntity
  8
LAYER0
 62
         3
100
AcDbLine
 10
-12.262948018
 20
25.2505140322
 30
0.0
 11
-12.2629621362
 21
25.242500036
 31
0.0
  0
LINE
  5
2DC
100
AcDbEntity
  8
LAYER0
 62
         3
100
AcDbLine
 10
-12.2629621362
 20
25.242500036
 30
0.0
 11
-12.2629740951
 21
25.2356948274
 31
0.0
  0
LINE
  5
2DD
100
AcDbEntity
  8
LAYER0
 62
         3
100
AcDbLine
 10
-12.2629740951
 20
25.2356948274
 30
0.0
 11
-12.2629835019
 21
25.2303045054
 31
0.0
  0
LINE
  5
2DE
100
AcDbEntity
  8
LAYER0
 62
         3
100
AcDbLine
 10
-12.2629835019
 20
25.2303045054
 30
0.0
 11
-12.2629899275
 21
25.2266349214
 31
0.0
  0
LINE
  5
2DF
100
AcDbEntity
  8
LAYER0
 62
         3
100
AcDbLine
 10
-12.2629899275
 20
25.2266349214
 30
0.0
 11
-12.2629928963
 21
25.2249997066
 31
0.0
  0
LINE
  5
2E0
100
AcDbEntity
  8
LAYER0
 62
         3
100
AcDbLine
 10
-12.2629928963
 20
25.2249997066
 30
0.0
 11
-12.2629945842
 21
25.2241315263
 31
0.0
  0
ENDBLK
  5
2E1
100
AcDbEntity
  8
0
100
AcDbBlockEnd
  0
BLOCK
  5
2E5
100
AcDbEntity
  8
0
100
AcDbBlockBegin
  2
CLUMP58
 70
         0
 10
0.0
 20
0.0
 30
0.0
  3

  1

  0
INSERT
  5
2E7
100
AcDbEntity
  8
0
100
AcDbBlockReference
  2
CLUMP59
 10
0.0
 20
0.0
 30
0.0
  0
ENDBLK
  5
2FD
100
AcDbEntity
  8
0
100
AcDbBlockEnd
  0
BLOCK
  5
2E8
100
AcDbEntity
  8
0
100
AcDbBlockBegin
  2
CLUMP59
 70
         0
 10
0.0
 20
0.0
 30
0.0
  3

  1

  0
LINE
  5
2E9
100
AcDbEntity
  8
LAYER0
 62
         3
100
AcDbLine
 10
-11.8843355891
 20
5.3550684768
 30
0.0
 11
-11.8843377814
 21
5.3536979222
 31
0.0
  0
LINE
  5
2EA
100
AcDbEntity
  8
LAYER0
 62
         3
100
AcDbLine
 10
-11.8843377814
 20
5.3536979222
 30
0.0
 11
-11.8843421084
 21
5.3511122185
 31
0.0
  0
LINE
  5
2EB
100
AcDbEntity
  8
LAYER0
 62
         3
100
AcDbLine
 10
-11.8843421084
 20
5.3511122185
 30
0.0
 11
-11.8843456704
 21
5.3490240779
 31
0.0
  0
LINE
  5
2EC
100
AcDbEntity
  8
LAYER0
 62
         3
100
AcDbLine
 10
-11.8843456704
 20
5.3490240779
 30
0.0
 11
-11.884350189
 21
5.3463957203
 31
0.0
  0
LINE
  5
2ED
100
AcDbEntity
  8
LAYER0
 62
         3
100
AcDbLine
 10
-11.884350189
 20
5.3463957203
 30
0.0
 11
-11.8843616662
 21
5.3397798854
 31
0.0
  0
LINE
  5
2EE
100
AcDbEntity
  8
LAYER0
 62
         3
100
AcDbLine
 10
-11.8843616662
 20
5.3397798854
 30
0.0
 11
-11.8843756014
 21
5.3318019964
 31
0.0
  0
LINE
  5
2EF
100
AcDbEntity
  8
LAYER0
 62
         3
100
AcDbLine
 10
-11.8843756014
 20
5.3318019964
 30
0.0
 11
-11.8843914685
 21
5.3226398247
 31
0.0
  0
LINE
  5
2F0
100
AcDbEntity
  8
LAYER0
 62
         3
100
AcDbLine
 10
-11.8843914685
 20
5.3226398247
 30
0.0
 11
-11.8844085946
 21
5.3125890364
 31
0.0
  0
LINE
  5
2F1
100
AcDbEntity
  8
LAYER0
 62
         3
100
AcDbLine
 10
-11.8844085946
 20
5.3125890364
 30
0.0
 11
-11.8844268587
 21
5.301867606
 31
0.0
  0
LINE
  5
2F2
100
AcDbEntity
  8
LAYER0
 62
         3
100
AcDbLine
 10
-11.8844268587
 20
5.301867606
 30
0.0
 11
-11.884465043
 21
5.2799032944
 31
0.0
  0
LINE
  5
2F3
100
AcDbEntity
  8
LAYER0
 62
         3
100
AcDbLine
 10
-11.884465043
 20
5.2799032944
 30
0.0
 11
-11.8844837425
 21
5.2692796438
 31
0.0
  0
LINE
  5
2F4
100
AcDbEntity
  8
LAYER0
 62
         3
100
AcDbLine
 10
-11.8844837425
 20
5.2692796438
 30
0.0
 11
-11.8845013645
 21
5.2592130321
 31
0.0
  0
LINE
  5
2F5
100
AcDbEntity
  8
LAYER0
 62
         3
100
AcDbLine
 10
-11.8845013645
 20
5.2592130321
 30
0.0
 11
-11.8845171491
 21
5.2500676349
 31
0.0
  0
LINE
  5
2F6
100
AcDbEntity
  8
LAYER0
 62
         3
100
AcDbLine
 10
-11.8845171491
 20
5.2500676349
 30
0.0
 11
-11.8845311669
 21
5.2420021909
 31
0.0
  0
LINE
  5
2F7
100
AcDbEntity
  8
LAYER0
 62
         3
100
AcDbLine
 10
-11.8845311669
 20
5.2420021909
 30
0.0
 11
-11.8845431848
 21
5.2353025424
 31
0.0
  0
LINE
  5
2F8
100
AcDbEntity
  8
LAYER0
 62
         3
100
AcDbLine
 10
-11.8845431848
 20
5.2353025424
 30
0.0
 11
-11.8845525873
 21
5.2300365585
 31
0.0
  0
LINE
  5
2F9
100
AcDbEntity
  8
LAYER0
 62
         3
100
AcDbLine
 10
-11.8845525873
 20
5.2300365585
 30
0.0
 11
-11.8845586859
 21
5.2263683811
 31
0.0
  0
LINE
  5
2FA
100
AcDbEntity
  8
LAYER0
 62
         3
100
AcDbLine
 10
-11.8845586859
 20
5.2263683811
 30
0.0
 11
-11.8845619005
 21
5.2244597989
 31
0.0
  0
LINE
  5
2FB
100
AcDbEntity
  8
LAYER0
 62
         3
100
AcDbLine
 10
-11.8845619005
 20
5.2244597989
 30
0.0
 11
-11.8845628318
 21
5.2241207975
 31
0.0
  0
ENDBLK
  5
2FC
100
AcDbEntity
  8
0
100
AcDbBlockEnd
  0
BLOCK
  5
300
100
AcDbEntity
  8
0
100
AcDbBlockBegin
  2
CLUMP60
 70
         0
 10
0.0
 20
0.0
 30
0.0
  3

  1

  0
INSERT
  5
302
100
AcDbEntity
  8
0
100
AcDbBlockReference
  2
CLUMP61
 10
0.0
 20
0.0
 30
0.0
  0
ENDBLK
  5
319
100
AcDbEntity
  8
0
100
AcDbBlockEnd
  0
BLOCK
  5
303
100
AcDbEntity
  8
0
100
AcDbBlockBegin
  2
CLUMP61
 70
         0
 10
0.0
 20
0.0
 30
0.0
  3

  1

  0
LINE
  5
304
100
AcDbEntity
  8
LAYER0
 62
         3
100
AcDbLine
 10
-31.7901467648
 20
25.224127801
 30
0.0
 11
-31.7901467648
 21
25.2241203505
 31
0.0
  0
LINE
  5
305
100
AcDbEntity
  8
LAYER0
 62
         3
100
AcDbLine
 10
-31.7901467648
 20
25.2241203505
 30
0.0
 11
-31.7901470146
 21
25.2239519061
 31
0.0
  0
LINE
  5
306
100
AcDbEntity
  8
LAYER0
 62
         3
100
AcDbLine
 10
-31.7901470146
 20
25.2239519061
 30
0.0
 11
-31.7901477388
 21
25.2243212693
 31
0.0
  0
LINE
  5
307
100
AcDbEntity
  8
LAYER0
 62
         3
100
AcDbLine
 10
-31.7901477388
 20
25.2243212693
 30
0.0
 11
-31.7901504901
 21
25.2261655348
 31
0.0
  0
LINE
  5
308
100
AcDbEntity
  8
LAYER0
 62
         3
100
AcDbLine
 10
-31.7901504901
 20
25.2261655348
 30
0.0
 11
-31.7901564906
 21
25.2297850581
 31
0.0
  0
LINE
  5
309
100
AcDbEntity
  8
LAYER0
 62
         3
100
AcDbLine
 10
-31.7901564906
 20
25.2297850581
 30
0.0
 11
-31.7901653913
 21
25.2347635049
 31
0.0
  0
LINE
  5
30A
100
AcDbEntity
  8
LAYER0
 62
         3
100
AcDbLine
 10
-31.7901653913
 20
25.2347635049
 30
0.0
 11
-31.7901773579
 21
25.2413514139
 31
0.0
  0
LINE
  5
30B
100
AcDbEntity
  8
LAYER0
 62
         3
100
AcDbLine
 10
-31.7901773579
 20
25.2413514139
 30
0.0
 11
-31.7901914683
 21
25.2493033129
 31
0.0
  0
LINE
  5
30C
100
AcDbEntity
  8
LAYER0
 62
         3
100
AcDbLine
 10
-31.7901914683
 20
25.2493033129
 30
0.0
 11
-31.7902070305
 21
25.2584110905
 31
0.0
  0
LINE
  5
30D
100
AcDbEntity
  8
LAYER0
 62
         3
100
AcDbLine
 10
-31.7902070305
 20
25.2584110905
 30
0.0
 11
-31.7902240646
 21
25.2683544475
 31
0.0
  0
LINE
  5
30E
100
AcDbEntity
  8
LAYER0
 62
         3
100
AcDbLine
 10
-31.7902240646
 20
25.2683544475
 30
0.0
 11
-31.7902622488
 21
25.2899238783
 31
0.0
  0
LINE
  5
30F
100
AcDbEntity
  8
LAYER0
 62
         3
100
AcDbLine
 10
-31.7902622488
 20
25.2899238783
 30
0.0
 11
-31.7902995017
 21
25.3116534966
 31
0.0
  0
LINE
  5
310
100
AcDbEntity
  8
LAYER0
 62
         3
100
AcDbLine
 10
-31.7902995017
 20
25.3116534966
 30
0.0
 11
-31.7903170376
 21
25.3218263389
 31
0.0
  0
LINE
  5
311
100
AcDbEntity
  8
LAYER0
 62
         3
100
AcDbLine
 10
-31.7903170376
 20
25.3218263389
 30
0.0
 11
-31.7903330293
 21
25.3310585338
 31
0.0
  0
LINE
  5
312
100
AcDbEntity
  8
LAYER0
 62
         3
100
AcDbLine
 10
-31.7903330293
 20
25.3310585338
 30
0.0
 11
-31.7903468944
 21
25.3391366673
 31
0.0
  0
LINE
  5
313
100
AcDbEntity
  8
LAYER0
 62
         3
100
AcDbLine
 10
-31.7903468944
 20
25.3391366673
 30
0.0
 11
-31.7903581751
 21
25.3457846063
 31
0.0
  0
LINE
  5
314
100
AcDbEntity
  8
LAYER0
 62
         3
100
AcDbLine
 10
-31.7903581751
 20
25.3457846063
 30
0.0
 11
-31.7903667132
 21
25.3508384476
 31
0.0
  0
LINE
  5
315
100
AcDbEntity
  8
LAYER0
 62
         3
100
AcDbLine
 10
-31.7903667132
 20
25.3508384476
 30
0.0
 11
-31.7903698347
 21
25.3526423022
 31
0.0
  0
LINE
  5
316
100
AcDbEntity
  8
LAYER0
 62
         3
100
AcDbLine
 10
-31.7903698347
 20
25.3526423022
 30
0.0
 11
-31.7903721449
 21
25.3539020139
 31
0.0
  0
LINE
  5
317
100
AcDbEntity
  8
LAYER0
 62
         3
100
AcDbLine
 10
-31.7903721449
 20
25.3539020139
 30
0.0
 11
-31.7903749389
 21
25.3550866562
 31
0.0
  0
ENDBLK
  5
318
100
AcDbEntity
  8
0
100
AcDbBlockEnd
  0
BLOCK
  5
31C
100
AcDbEntity
  8
0
100
AcDbBlockBegin
  2
CLUMP62
 70
         0
 10
0.0
 20
0.0
 30
0.0
  3

  1

  0
INSERT
  5
31E
100
AcDbEntity
  8
0
100
AcDbBlockReference
  2
CLUMP63
 10
0.0
 20
0.0
 30
0.0
  0
ENDBLK
  5
334
100
AcDbEntity
  8
0
100
AcDbBlockEnd
  0
BLOCK
  5
31F
100
AcDbEntity
  8
0
100
AcDbBlockBegin
  2
CLUMP63
 70
         0
 10
0.0
 20
0.0
 30
0.0
  3

  1

  0
LINE
  5
320
100
AcDbEntity
  8
LAYER0
 62
         3
100
AcDbLine
 10
-32.1685785172
 20
5.2241207975
 30
0.0
 11
-32.1685813111
 21
5.2257524747
 31
0.0
  0
LINE
  5
321
100
AcDbEntity
  8
LAYER0
 62
         3
100
AcDbLine
 10
-32.1685813111
 20
5.2257524747
 30
0.0
 11
-32.1685867889
 21
5.2288830687
 31
0.0
  0
LINE
  5
322
100
AcDbEntity
  8
LAYER0
 62
         3
100
AcDbLine
 10
-32.1685867889
 20
5.2288830687
 30
0.0
 11
-32.168595281
 21
5.2337506729
 31
0.0
  0
LINE
  5
323
100
AcDbEntity
  8
LAYER0
 62
         3
100
AcDbLine
 10
-32.168595281
 20
5.2337506729
 30
0.0
 11
-32.168606258
 21
5.2400810229
 31
0.0
  0
LINE
  5
324
100
AcDbEntity
  8
LAYER0
 62
         3
100
AcDbLine
 10
-32.168606258
 20
5.2400810229
 30
0.0
 11
-32.1686194953
 21
5.2476869839
 31
0.0
  0
LINE
  5
325
100
AcDbEntity
  8
LAYER0
 62
         3
100
AcDbLine
 10
-32.1686194953
 20
5.2476869839
 30
0.0
 11
-32.1686349976
 21
5.256518003
 31
0.0
  0
LINE
  5
326
100
AcDbEntity
  8
LAYER0
 62
         3
100
AcDbLine
 10
-32.1686349976
 20
5.256518003
 30
0.0
 11
-32.1686520916
 21
5.2662501055
 31
0.0
  0
LINE
  5
327
100
AcDbEntity
  8
LAYER0
 62
         3
100
AcDbLine
 10
-32.1686520916
 20
5.2662501055
 30
0.0
 11
-32.1686893445
 21
5.2876109201
 31
0.0
  0
LINE
  5
328
100
AcDbEntity
  8
LAYER0
 62
         3
100
AcDbLine
 10
-32.1686893445
 20
5.2876109201
 30
0.0
 11
-32.1687275288
 21
5.3094932753
 31
0.0
  0
LINE
  5
329
100
AcDbEntity
  8
LAYER0
 62
         3
100
AcDbLine
 10
-32.1687275288
 20
5.3094932753
 30
0.0
 11
-32.1687455924
 21
5.3198601898
 31
0.0
  0
LINE
  5
32A
100
AcDbEntity
  8
LAYER0
 62
         3
100
AcDbLine
 10
-32.1687455924
 20
5.3198601898
 30
0.0
 11
-32.1687619877
 21
5.3293714243
 31
0.0
  0
LINE
  5
32B
100
AcDbEntity
  8
LAYER0
 62
         3
100
AcDbLine
 10
-32.1687619877
 20
5.3293714243
 30
0.0
 11
-32.1687763121
 21
5.3378308637
 31
0.0
  0
LINE
  5
32C
100
AcDbEntity
  8
LAYER0
 62
         3
100
AcDbLine
 10
-32.1687763121
 20
5.3378308637
 30
0.0
 11
-32.1687880647
 21
5.3447345215
 31
0.0
  0
LINE
  5
32D
100
AcDbEntity
  8
LAYER0
 62
         3
100
AcDbLine
 10
-32.1687880647
 20
5.3447345215
 30
0.0
 11
-32.1687970383
 21
5.3498425005
 31
0.0
  0
LINE
  5
32E
100
AcDbEntity
  8
LAYER0
 62
         3
100
AcDbLine
 10
-32.1687970383
 20
5.3498425005
 30
0.0
 11
-32.1688029659
 21
5.353518756
 31
0.0
  0
LINE
  5
32F
100
AcDbEntity
  8
LAYER0
 62
         3
100
AcDbLine
 10
-32.1688029659
 20
5.353518756
 30
0.0
 11
-32.1688050414
 21
5.3551130019
 31
0.0
  0
LINE
  5
330
100
AcDbEntity
  8
LAYER0
 62
         3
100
AcDbLine
 10
-32.1688050414
 20
5.3551130019
 30
0.0
 11
-32.1688055759
 21
5.3553828506
 31
0.0
  0
LINE
  5
331
100
AcDbEntity
  8
LAYER0
 62
         3
100
AcDbLine
 10
-32.1688055759
 20
5.3553828506
 30
0.0
 11
-32.1688057599
 21
5.3550871032
 31
0.0
  0
LINE
  5
332
100
AcDbEntity
  8
LAYER0
 62
         3
100
AcDbLine
 10
-32.1688057599
 20
5.3550871032
 30
0.0
 11
-32.1688057599
 21
5.3550610262
 31
0.0
  0
ENDBLK
  5
333
100
AcDbEntity
  8
0
100
AcDbBlockEnd
  0
BLOCK
  5
337
100
AcDbEntity
  8
0
100
AcDbBlockBegin
  2
CLUMP64
 70
         0
 10
0.0
 20
0.0
 30
0.0
  3

  1

  0
INSERT
  5
339
100
AcDbEntity
  8
0
100
AcDbBlockReference
  2
CLUMP65
 10
0.0
 20
0.0
 30
0.0
  0
ENDBLK
  5
345
100
AcDbEntity
  8
0
100
AcDbBlockEnd
  0
BLOCK
  5
33A
100
AcDbEntity
  8
0
100
AcDbBlockBegin
  2
CLUMP65
 70
         0
 10
0.0
 20
0.0
 30
0.0
  3

  1

  0
LINE
  5
33B
100
AcDbEntity
  8
LAYER0
 62
         3
100
AcDbLine
 10
-16.3974055764
 20
8.4813991505
 30
0.0
 11
-16.4176947964
 21
8.6320349957
 31
0.0
  0
LINE
  5
33C
100
AcDbEntity
  8
LAYER0
 62
         3
100
AcDbLine
 10
-16.4176947964
 20
8.6320349957
 30
0.0
 11
-16.4330049672
 21
8.7057964413
 31
0.0
  0
LINE
  5
33D
100
AcDbEntity
  8
LAYER0
 62
         3
100
AcDbLine
 10
-16.4330049672
 20
8.7057964413
 30
0.0
 11
-16.454513811
 21
8.7776901144
 31
0.0
  0
LINE
  5
33E
100
AcDbEntity
  8
LAYER0
 62
         3
100
AcDbLine
 10
-16.454513811
 20
8.7776901144
 30
0.0
 11
-16.4845818316
 21
8.8487461283
 31
0.0
  0
LINE
  5
33F
100
AcDbEntity
  8
LAYER0
 62
         3
100
AcDbLine
 10
-16.4845818316
 20
8.8487461283
 30
0.0
 11
-16.522257917
 21
8.9165630086
 31
0.0
  0
LINE
  5
340
100
AcDbEntity
  8
LAYER0
 62
         3
100
AcDbLine
 10
-16.522257917
 20
8.9165630086
 30
0.0
 11
-16.5664798358
 21
8.980514139
 31
0.0
  0
LINE
  5
341
100
AcDbEntity
  8
LAYER0
 62
         3
100
AcDbLine
 10
-16.5664798358
 20
8.980514139
 30
0.0
 11
-16.6161853564
 21
9.0399729031
 31
0.0
  0
LINE
  5
342
100
AcDbEntity
  8
LAYER0
 62
         3
100
AcDbLine
 10
-16.6161853564
 20
9.0399729031
 30
0.0
 11
-16.6941167498
 21
9.1168344168
 31
0.0
  0
LINE
  5
343
100
AcDbEntity
  8
LAYER0
 62
         3
100
AcDbLine
 10
-16.6941167498
 20
9.1168344168
 30
0.0
 11
-16.776532561
 21
9.1885039526
 31
0.0
  0
ENDBLK
  5
344
100
AcDbEntity
  8
0
100
AcDbBlockEnd
  0
BLOCK
  5
348
100
AcDbEntity
  8
0
100
AcDbBlockBegin
  2
CLUMP66
 70
         0
 10
0.0
 20
0.0
 30
0.0
  3

  1

  0
INSERT
  5
34A
100
AcDbEntity
  8
0
100
AcDbBlockReference
  2
CLUMP67
 10
0.0
 20
0.0
 30
0.0
  0
ENDBLK
  5
356
100
AcDbEntity
  8
0
100
AcDbBlockEnd
  0
BLOCK
  5
34B
100
AcDbEntity
  8
0
100
AcDbBlockBegin
  2
CLUMP67
 70
         0
 10
0.0
 20
0.0
 30
0.0
  3

  1

  0
LINE
  5
34C
100
AcDbEntity
  8
LAYER0
 62
         3
100
AcDbLine
 10
-27.2766087879
 20
9.1885039526
 30
0.0
 11
-27.401807972
 21
9.0713000389
 31
0.0
  0
LINE
  5
34D
100
AcDbEntity
  8
LAYER0
 62
         3
100
AcDbLine
 10
-27.401807972
 20
9.0713000389
 30
0.0
 11
-27.4598757482
 21
9.008746215
 31
0.0
  0
LINE
  5
34E
100
AcDbEntity
  8
LAYER0
 62
         3
100
AcDbLine
 10
-27.4598757482
 20
9.008746215
 30
0.0
 11
-27.5125053455
 21
8.9414501506
 31
0.0
  0
LINE
  5
34F
100
AcDbEntity
  8
LAYER0
 62
         3
100
AcDbLine
 10
-27.5125053455
 20
8.9414501506
 30
0.0
 11
-27.5565779608
 21
8.8709690013
 31
0.0
  0
LINE
  5
350
100
AcDbEntity
  8
LAYER0
 62
         3
100
AcDbLine
 10
-27.5565779608
 20
8.8709690013
 30
0.0
 11
-27.5931171217
 21
8.7957849363
 31
0.0
  0
LINE
  5
351
100
AcDbEntity
  8
LAYER0
 62
         3
100
AcDbLine
 10
-27.5931171217
 20
8.7957849363
 30
0.0
 11
-27.6213410921
 21
8.7170827225
 31
0.0
  0
LINE
  5
352
100
AcDbEntity
  8
LAYER0
 62
         3
100
AcDbLine
 10
-27.6213410921
 20
8.7170827225
 30
0.0
 11
-27.6404681359
 21
8.6360471266
 31
0.0
  0
LINE
  5
353
100
AcDbEntity
  8
LAYER0
 62
         3
100
AcDbLine
 10
-27.6404681359
 20
8.6360471266
 30
0.0
 11
-27.6502701434
 21
8.5589752389
 31
0.0
  0
LINE
  5
354
100
AcDbEntity
  8
LAYER0
 62
         3
100
AcDbLine
 10
-27.6502701434
 20
8.5589752389
 30
0.0
 11
-27.6557357726
 21
8.4813991505
 31
0.0
  0
ENDBLK
  5
355
100
AcDbEntity
  8
0
100
AcDbBlockEnd
  0
BLOCK
  5
359
100
AcDbEntity
  8
0
100
AcDbBlockBegin
  2
CLUMP68
 70
         0
 10
0.0
 20
0.0
 30
0.0
  3

  1

  0
INSERT
  5
35B
100
AcDbEntity
  8
0
100
AcDbBlockReference
  2
CLUMP69
 10
0.0
 20
0.0
 30
0.0
  0
ENDBLK
  5
367
100
AcDbEntity
  8
0
100
AcDbBlockEnd
  0
BLOCK
  5
35C
100
AcDbEntity
  8
0
100
AcDbBlockBegin
  2
CLUMP69
 70
         0
 10
0.0
 20
0.0
 30
0.0
  3

  1

  0
LINE
  5
35D
100
AcDbEntity
  8
LAYER0
 62
         3
100
AcDbLine
 10
-16.4774932642
 20
9.5420563537
 30
0.0
 11
-16.3662512042
 21
9.4339158071
 31
0.0
  0
LINE
  5
35E
100
AcDbEntity
  8
LAYER0
 62
         3
100
AcDbLine
 10
-16.3662512042
 20
9.4339158071
 30
0.0
 11
-16.2616783497
 21
9.3192579168
 31
0.0
  0
LINE
  5
35F
100
AcDbEntity
  8
LAYER0
 62
         3
100
AcDbLine
 10
-16.2616783497
 20
9.3192579168
 30
0.0
 11
-16.1934856269
 21
9.2287862031
 31
0.0
  0
LINE
  5
360
100
AcDbEntity
  8
LAYER0
 62
         3
100
AcDbLine
 10
-16.1934856269
 20
9.2287862031
 30
0.0
 11
-16.1334443899
 21
9.1324122247
 31
0.0
  0
LINE
  5
361
100
AcDbEntity
  8
LAYER0
 62
         3
100
AcDbLine
 10
-16.1334443899
 20
9.1324122247
 30
0.0
 11
-16.0826737314
 21
9.0311059778
 31
0.0
  0
LINE
  5
362
100
AcDbEntity
  8
LAYER0
 62
         3
100
AcDbLine
 10
-16.0826737314
 20
9.0311059778
 30
0.0
 11
-16.0422927444
 21
8.925837459
 31
0.0
  0
LINE
  5
363
100
AcDbEntity
  8
LAYER0
 62
         3
100
AcDbLine
 10
-16.0422927444
 20
8.925837459
 30
0.0
 11
-16.0127136208
 21
8.8173549504
 31
0.0
  0
LINE
  5
364
100
AcDbEntity
  8
LAYER0
 62
         3
100
AcDbLine
 10
-16.0127136208
 20
8.8173549504
 30
0.0
 11
-15.9917951722
 21
8.7066206688
 31
0.0
  0
LINE
  5
365
100
AcDbEntity
  8
LAYER0
 62
         3
100
AcDbLine
 10
-15.9917951722
 20
8.7066206688
 30
0.0
 11
-15.9643927333
 21
8.4813991505
 31
0.0
  0
ENDBLK
  5
366
100
AcDbEntity
  8
0
100
AcDbBlockEnd
  0
ENDSEC
  0
SECTION
  2
ENTITIES
  0
INSERT
  5
2F
100
AcDbEntity
  8
0
100
AcDbBlockReference
  2
CLUMP0
 10
0.0
 20
0.0
 30
0.0
  0
INSERT
  5
5E
100
AcDbEntity
  8
0
100
AcDbBlockReference
  2
CLUMP2
 10
0.0
 20
0.0
 30
0.0
  0
INSERT
  5
8D
100
AcDbEntity
  8
0
100
AcDbBlockReference
  2
CLUMP4
 10
0.0
 20
0.0
 30
0.0
  0
INSERT
  5
9D
100
AcDbEntity
  8
0
100
AcDbBlockReference
  2
CLUMP6
 10
0.0
 20
0.0
 30
0.0
  0
INSERT
  5
A9
100
AcDbEntity
  8
0
100
AcDbBlockReference
  2
CLUMP8
 10
0.0
 20
0.0
 30
0.0
  0
INSERT
  5
C4
100
AcDbEntity
  8
0
100
AcDbBlockReference
  2
CLUMP10
 10
0.0
 20
0.0
 30
0.0
  0
LINE
  5
D5
100
AcDbEntity
  8
LAYER3
 62
         4
100
AcDbLine
 10
36.5098906697
 20
43.3495670403
 30
0.0
 11
33.5754478675
 21
43.9733021128
 31
0.0
  0
LINE
  5
D6
100
AcDbEntity
  8
LAYER3
 62
         4
100
AcDbLine
 10
17.3098906891
 20
43.3495670403
 30
0.0
 11
20.2443334913
 21
43.9733021128
 31
0.0
  0
LINE
  5
D7
100
AcDbEntity
  8
LAYER3
 62
         4
100
AcDbLine
 10
17.3098906891
 20
43.3495670403
 30
0.0
 11
20.2443334913
 21
42.7258319679
 31
0.0
  0
LINE
  5
D8
100
AcDbEntity
  8
LAYER3
 62
         4
100
AcDbLine
 10
17.3098906891
 20
43.3495670403
 30
0.0
 11
36.5098906697
 21
43.3495670403
 31
0.0
  0
LINE
  5
D9
100
AcDbEntity
  8
LAYER3
 62
         4
100
AcDbLine
 10
36.5098906697
 20
35.2956120092
 30
0.0
 11
36.5098906697
 21
44.3495670403
 31
0.0
  0
LINE
  5
DA
100
AcDbEntity
  8
LAYER3
 62
         4
100
AcDbLine
 10
17.3098906891
 20
35.2956120092
 30
0.0
 11
17.3098906891
 21
44.3495670403
 31
0.0
  0
MTEXT
  5
DB
100
AcDbEntity
  8
LAYER3
100
AcDbMText
 10
49.542017983
 20
2.7456117408
 30
0.0
 40
2.1473683357
 41
5.1292919922
 71
         1
 72
         1
  1
\W0.8;53.5
 11
-0.0000000268
 21
1.0
 31
0.0
  0
LINE
  5
DC
100
AcDbEntity
  8
LAYER3
 62
         4
100
AcDbLine
 10
53.3296766744
 20
34.2956120092
 30
0.0
 11
53.9534117468
 21
31.361169207
 31
0.0
  0
LINE
  5
DD
100
AcDbEntity
  8
LAYER3
 62
         4
100
AcDbLine
 10
53.3296766744
 20
34.2956120092
 30
0.0
 11
52.7059416019
 21
31.361169207
 31
0.0
  0
LINE
  5
DE
100
AcDbEntity
  8
LAYER3
 62
         4
100
AcDbLine
 10
37.5098906697
 20
34.2956120092
 30
0.0
 11
54.3296766744
 21
34.2956120092
 31
0.0
  0
MTEXT
  5
DF
100
AcDbEntity
  8
LAYER3
100
AcDbMText
 10
22.1098906794
 20
47.1372257317
 30
0.0
 40
2.1473683357
 41
5.1292919922
 71
         1
 72
         1
  1
\W0.8;19.2
  0
LINE
  5
E0
100
AcDbEntity
  8
LAYER3
 62
         4
100
AcDbLine
 10
36.5098906697
 20
43.3495670403
 30
0.0
 11
33.5754478675
 21
42.7258319679
 31
0.0
  0
LINE
  5
E2
100
AcDbEntity
  8
LAYER1
 62
         3
100
AcDbLine
 10
23.1098901497
 20
18.9956100601
 30
0.0
 11
23.1098901497
 21
11.802718969
 31
0.0
  0
LINE
  5
E3
100
AcDbEntity
  8
LAYER1
 62
         3
100
AcDbLine
 10
31.5098907815
 20
34.2956120092
 30
0.0
 11
31.5098907815
 21
18.2956093866
 31
0.0
  0
LINE
  5
E4
100
AcDbEntity
  8
LAYER1
 62
         3
100
AcDbLine
 10
36.5098906697
 20
34.2956120092
 30
0.0
 11
36.5098906697
 21
18.2956093866
 31
0.0
  0
LINE
  5
E5
100
AcDbEntity
  8
LAYER1
 62
         3
100
AcDbLine
 10
17.0098911987
 20
28.795612039
 30
0.0
 11
17.0098911987
 21
23.7956093567
 31
0.0
  0
LINE
  5
E6
100
AcDbEntity
  8
LAYER1
 62
         3
100
AcDbLine
 10
36.5098906697
 20
34.2956120092
 30
0.0
 11
31.5098907815
 21
34.2956120092
 31
0.0
  0
LINE
  5
E7
100
AcDbEntity
  8
LAYER1
 62
         3
100
AcDbLine
 10
31.5098907815
 20
18.2956093866
 30
0.0
 11
36.5098906697
 21
18.2956093866
 31
0.0
  0
LINE
  5
E8
100
AcDbEntity
  8
LAYER1
 62
         3
100
AcDbLine
 10
22.3098915086
 20
34.2956120092
 30
0.0
 11
17.3098906891
 21
34.2956120092
 31
0.0
  0
LINE
  5
E9
100
AcDbEntity
  8
LAYER1
 62
         3
100
AcDbLine
 10
17.3098906891
 20
18.2956093866
 30
0.0
 11
22.3098915086
 21
18.2956093866
 31
0.0
  0
LINE
  5
EA
100
AcDbEntity
  8
LAYER1
 62
         3
100
AcDbLine
 10
36.8098910914
 20
28.795612039
 30
0.0
 11
36.5098906697
 21
28.795612039
 31
0.0
  0
LINE
  5
EB
100
AcDbEntity
  8
LAYER1
 62
         3
100
AcDbLine
 10
36.5098906697
 20
23.7956093567
 30
0.0
 11
36.8098910914
 21
23.7956093567
 31
0.0
  0
LINE
  5
EC
100
AcDbEntity
  8
LAYER1
 62
         3
100
AcDbLine
 10
17.3098906891
 20
28.795612039
 30
0.0
 11
17.0098911987
 21
28.795612039
 31
0.0
  0
LINE
  5
ED
100
AcDbEntity
  8
LAYER1
 62
         3
100
AcDbLine
 10
17.0098911987
 20
23.7956093567
 30
0.0
 11
17.3098906891
 21
23.7956093567
 31
0.0
  0
ARC
  5
EE
100
AcDbEntity
  8
LAYER1
 62
         3
100
AcDbCircle
 10
32.409890864
 20
8.481397625
 30
0.0
 40
1.0
210
0.0
220
0.0
230
1.0
100
AcDbArc
 50
0.0
 51
45.0000007676
  0
LINE
  5
EF
100
AcDbEntity
  8
LAYER1
 62
         3
100
AcDbLine
 10
33.4098912792
 20
2.2956104892
 30
0.0
 11
33.4098912792
 21
8.4813991505
 31
0.0
  0
LINE
  5
F0
100
AcDbEntity
  8
LAYER1
 62
         3
100
AcDbLine
 10
33.11699778
 20
9.1885039526
 30
0.0
 11
30.8563370274
 21
11.4491628426
 31
0.0
  0
LINE
  5
F1
100
AcDbEntity
  8
LAYER1
 62
         3
100
AcDbLine
 10
31.5098907815
 20
29.7956103402
 30
0.0
 11
29.9098907055
 21
29.7956103402
 31
0.0
  0
INSERT
  5
F3
100
AcDbEntity
  8
0
100
AcDbBlockReference
  2
CLUMP12
 10
0.0
 20
0.0
 30
0.0
  0
INSERT
  5
104
100
AcDbEntity
  8
0
100
AcDbBlockReference
  2
CLUMP14
 10
0.0
 20
0.0
 30
0.0
  0
INSERT
  5
115
100
AcDbEntity
  8
0
100
AcDbBlockReference
  2
CLUMP16
 10
0.0
 20
0.0
 30
0.0
  0
INSERT
  5
126
100
AcDbEntity
  8
0
100
AcDbBlockReference
  2
CLUMP18
 10
0.0
 20
0.0
 30
0.0
  0
INSERT
  5
137
100
AcDbEntity
  8
0
100
AcDbBlockReference
  2
CLUMP20
 10
0.0
 20
0.0
 30
0.0
  0
INSERT
  5
144
100
AcDbEntity
  8
0
100
AcDbBlockReference
  2
CLUMP22
 10
0.0
 20
0.0
 30
0.0
  0
INSERT
  5
153
100
AcDbEntity
  8
0
100
AcDbBlockReference
  2
CLUMP24
 10
0.0
 20
0.0
 30
0.0
  0
INSERT
  5
15F
100
AcDbEntity
  8
0
100
AcDbBlockReference
  2
CLUMP26
 10
0.0
 20
0.0
 30
0.0
  0
INSERT
  5
177
100
AcDbEntity
  8
0
100
AcDbBlockReference
  2
CLUMP28
 10
0.0
 20
0.0
 30
0.0
  0
LINE
  5
187
100
AcDbEntity
  8
LAYER1
 62
         3
100
AcDbLine
 10
29.9098907055
 20
2.2956104892
 30
0.0
 11
28.9098905416
 21
2.2956104892
 31
0.0
  0
CIRCLE
  5
188
100
AcDbEntity
  8
LAYER1
 62
         3
100
AcDbCircle
 10
26.909890864
 20
25.2956111873
 30
0.0
 40
1.05
210
0.0
220
0.0
230
1.0
  0
LINE
  5
189
100
AcDbEntity
  8
LAYER1
 62
         3
100
AcDbLine
 10
29.4098906235
 20
32.7956089693
 30
0.0
 11
26.909891145
 21
32.7956089693
 31
0.0
  0
LINE
  5
18A
100
AcDbEntity
  8
LAYER1
 62
         3
100
AcDbLine
 10
26.909891145
 20
32.7956089693
 30
0.0
 11
24.4098916666
 21
32.7956089693
 31
0.0
  0
LINE
  5
18B
100
AcDbEntity
  8
LAYER1
 62
         3
100
AcDbLine
 10
24.9098908172
 20
27.2642122525
 30
0.0
 11
24.9098908172
 21
3.2956125158
 31
0.0
  0
CIRCLE
  5
18C
100
AcDbEntity
  8
LAYER1
 62
         3
100
AcDbCircle
 10
26.909890864
 20
5.2956111873
 30
0.0
 40
1.05
210
0.0
220
0.0
230
1.0
  0
LINE
  5
18D
100
AcDbEntity
  8
LAYER1
 62
         3
100
AcDbLine
 10
28.9098905416
 20
2.2956104892
 30
0.0
 11
25.9098909811
 21
2.2956104892
 31
0.0
  0
LINE
  5
18E
100
AcDbEntity
  8
LAYER1
 62
         3
100
AcDbLine
 10
24.9098908172
 20
27.2642122525
 30
0.0
 11
24.9098908172
 21
27.5530265587
 31
0.0
  0
LINE
  5
18F
100
AcDbEntity
  8
LAYER1
 62
         3
100
AcDbLine
 10
29.4098906235
 20
32.0113757568
 30
0.0
 11
29.4098906235
 21
29.0157133657
 31
0.0
  0
LINE
  5
190
100
AcDbEntity
  8
LAYER1
 62
         3
100
AcDbLine
 10
29.9098907055
 20
32.0113757568
 30
0.0
 11
29.9098907055
 21
29.0157133657
 31
0.0
  0
LINE
  5
191
100
AcDbEntity
  8
LAYER1
 62
         3
100
AcDbLine
 10
29.9098907055
 20
22.7956110555
 30
0.0
 11
31.5098907815
 21
22.7956110555
 31
0.0
  0
LINE
  5
192
100
AcDbEntity
  8
LAYER1
 62
         3
100
AcDbLine
 10
29.9098907055
 20
32.8956106621
 30
0.0
 11
29.4098906235
 21
32.8956106621
 31
0.0
  0
ARC
  5
193
100
AcDbEntity
  8
LAYER1
 62
         3
100
AcDbCircle
 10
30.409890864
 20
20.828641464
 30
0.0
 40
0.5
210
0.0
220
0.0
230
1.0
100
AcDbArc
 50
180.000000195
 51
227.5687491998
  0
ARC
  5
194
100
AcDbEntity
  8
LAYER1
 62
         3
100
AcDbCircle
 10
28.709890864
 20
18.9956111873
 30
0.0
 40
2.0
210
0.0
220
0.0
230
1.0
100
AcDbArc
 50
0.0
 51
47.0128671179
  0
ARC
  5
195
100
AcDbEntity
  8
LAYER1
 62
         3
100
AcDbCircle
 10
31.209890864
 20
11.8027179685
 30
0.0
 40
0.5
210
0.0
220
0.0
230
1.0
100
AcDbArc
 50
179.9999969295
 51
224.9999976971
  0
LINE
  5
196
100
AcDbEntity
  8
LAYER1
 62
         3
100
AcDbLine
 10
30.7098912091
 20
11.802718969
 30
0.0
 11
30.7098912091
 21
18.9956100601
 31
0.0
  0
ARC
  5
197
100
AcDbEntity
  8
LAYER1
 62
         3
100
AcDbCircle
 10
21.409890864
 20
8.481397625
 30
0.0
 40
1.0
210
0.0
220
0.0
230
1.0
100
AcDbArc
 50
135.0000023029
 51
179.9999969295
  0
LINE
  5
198
100
AcDbEntity
  8
LAYER1
 62
         3
100
AcDbLine
 10
20.4098910109
 20
8.4813991505
 30
0.0
 11
20.4098910109
 21
2.2956104892
 31
0.0
  0
LINE
  5
199
100
AcDbEntity
  8
LAYER1
 62
         3
100
AcDbLine
 10
22.9634434001
 20
11.4491628426
 30
0.0
 11
20.7027845101
 21
9.1885039526
 31
0.0
  0
LINE
  5
19A
100
AcDbEntity
  8
LAYER1
 62
         3
100
AcDbLine
 10
22.3098915086
 20
22.7956110555
 30
0.0
 11
23.9098906533
 21
22.7956110555
 31
0.0
  0
LINE
  5
19B
100
AcDbEntity
  8
LAYER1
 62
         3
100
AcDbLine
 10
23.9098906533
 20
29.7956103402
 30
0.0
 11
22.3098915086
 21
29.7956103402
 31
0.0
  0
LINE
  5
19C
100
AcDbEntity
  8
LAYER1
 62
         3
100
AcDbLine
 10
24.4098916666
 20
32.8956106621
 30
0.0
 11
23.9098906533
 21
32.8956106621
 31
0.0
  0
ARC
  5
19D
100
AcDbEntity
  8
LAYER1
 62
         3
100
AcDbCircle
 10
23.409890864
 20
20.828641464
 30
0.0
 40
0.5
210
-0.0
220
0.0
230
1.0
100
AcDbArc
 50
312.3889376094
 51
0.0000028755
  0
ARC
  5
19E
100
AcDbEntity
  8
LAYER1
 62
         3
100
AcDbCircle
 10
25.109890864
 20
18.9956111873
 30
0.0
 40
2.0
210
0.0
220
0.0
230
1.0
100
AcDbArc
 50
132.9886136705
 51
179.9999969295
  0
ARC
  5
19F
100
AcDbEntity
  8
LAYER1
 62
         3
100
AcDbCircle
 10
22.609890864
 20
11.8027179685
 30
0.0
 40
0.5
210
-0.0
220
0.0
230
1.0
100
AcDbArc
 50
314.9999992324
 51
0.0
  0
LINE
  5
1A0
100
AcDbEntity
  8
LAYER1
 62
         3
100
AcDbLine
 10
29.9098907055
 20
32.8956106621
 30
0.0
 11
29.9098907055
 21
32.0113757568
 31
0.0
  0
CIRCLE
  5
1A1
100
AcDbEntity
  8
LAYER1
 62
         3
100
AcDbCircle
 10
26.909890864
 20
5.2956111873
 30
0.0
 40
1.0
210
0.0
220
0.0
230
1.0
  0
CIRCLE
  5
1A2
100
AcDbEntity
  8
LAYER1
 62
         3
100
AcDbCircle
 10
26.909890864
 20
25.2956111873
 30
0.0
 40
1.0
210
0.0
220
0.0
230
1.0
  0
LINE
  5
1A3
100
AcDbEntity
  8
LAYER1
 62
         3
100
AcDbLine
 10
24.9098908172
 20
28.7204841095
 30
0.0
 11
27.909891309
 21
28.7204841095
 31
0.0
  0
LINE
  5
1A4
100
AcDbEntity
  8
LAYER1
 62
         3
100
AcDbLine
 10
24.9098908172
 20
2.2956104892
 30
0.0
 11
25.9098909811
 21
2.2956104892
 31
0.0
  0
LINE
  5
1A5
100
AcDbEntity
  8
LAYER1
 62
         3
100
AcDbLine
 10
23.9098906533
 20
2.2956104892
 30
0.0
 11
23.9098906533
 21
29.3043153304
 31
0.0
  0
LINE
  5
1A6
100
AcDbEntity
  8
LAYER1
 62
         3
100
AcDbLine
 10
24.9098908172
 20
2.2956104892
 30
0.0
 11
23.9098906533
 21
2.2956104892
 31
0.0
  0
LINE
  5
1A7
100
AcDbEntity
  8
LAYER1
 62
         3
100
AcDbLine
 10
23.9098906533
 20
29.3043153304
 30
0.0
 11
23.9098906533
 21
32.0113757568
 31
0.0
  0
LINE
  5
1A8
100
AcDbEntity
  8
LAYER1
 62
         3
100
AcDbLine
 10
17.3098906891
 20
34.2956120092
 30
0.0
 11
17.3098906891
 21
18.2956093866
 31
0.0
  0
LINE
  5
1A9
100
AcDbEntity
  8
LAYER1
 62
         3
100
AcDbLine
 10
22.3098915086
 20
34.2956120092
 30
0.0
 11
22.3098915086
 21
18.2956093866
 31
0.0
  0
LINE
  5
1AA
100
AcDbEntity
  8
LAYER1
 62
         3
100
AcDbLine
 10
36.8098910914
 20
28.795612039
 30
0.0
 11
36.8098910914
 21
23.7956093567
 31
0.0
  0
LINE
  5
1AB
100
AcDbEntity
  8
LAYER1
 62
         3
100
AcDbLine
 10
23.9098906533
 20
2.2956104892
 30
0.0
 11
23.6598901467
 21
2.2956104892
 31
0.0
  0
LINE
  5
1AC
100
AcDbEntity
  8
LAYER1
 62
         3
100
AcDbLine
 10
23.6598901467
 20
2.2956104892
 30
0.0
 11
20.4098910109
 21
2.2956104892
 31
0.0
  0
LINE
  5
1AD
100
AcDbEntity
  8
LAYER1
 62
         3
100
AcDbLine
 10
23.9098906533
 20
32.0113757568
 30
0.0
 11
23.9098906533
 21
32.8956106621
 31
0.0
  0
LINE
  5
1AE
100
AcDbEntity
  8
LAYER1
 62
         3
100
AcDbLine
 10
24.4098916666
 20
32.0113757568
 30
0.0
 11
24.4098916666
 21
32.8956106621
 31
0.0
  0
LINE
  5
1AF
100
AcDbEntity
  8
LAYER1
 62
         3
100
AcDbLine
 10
26.909891145
 20
29.4585758763
 30
0.0
 11
29.4098906235
 21
29.4585758763
 31
0.0
  0
LINE
  5
1B0
100
AcDbEntity
  8
LAYER1
 62
         3
100
AcDbLine
 10
29.4098906235
 20
31.9247776586
 30
0.0
 11
26.909891145
 21
31.9247776586
 31
0.0
  0
LINE
  5
1B1
100
AcDbEntity
  8
LAYER1
 62
         3
100
AcDbLine
 10
24.4098916666
 20
29.4585758763
 30
0.0
 11
26.909891145
 21
29.4585758763
 31
0.0
  0
LINE
  5
1B2
100
AcDbEntity
  8
LAYER1
 62
         3
100
AcDbLine
 10
24.4098916666
 20
31.9247776586
 30
0.0
 11
26.909891145
 21
31.9247776586
 31
0.0
  0
LINE
  5
1B3
100
AcDbEntity
  8
LAYER1
 62
         3
100
AcDbLine
 10
28.9098905416
 20
2.2956104892
 30
0.0
 11
28.9098905416
 21
28.431807639
 31
0.0
  0
LINE
  5
1B4
100
AcDbEntity
  8
LAYER1
 62
         3
100
AcDbLine
 10
25.9098909811
 20
28.7237586397
 30
0.0
 11
25.9098909811
 21
28.431807639
 31
0.0
  0
LINE
  5
1B5
100
AcDbEntity
  8
LAYER1
 62
         3
100
AcDbLine
 10
26.909891145
 20
29.0123978573
 30
0.0
 11
26.909891145
 21
29.4585758763
 31
0.0
  0
LINE
  5
1B6
100
AcDbEntity
  8
LAYER1
 62
         3
100
AcDbLine
 10
26.909891145
 20
31.9247776586
 30
0.0
 11
26.909891145
 21
29.4585758763
 31
0.0
  0
LINE
  5
1B7
100
AcDbEntity
  8
LAYER1
 62
         3
100
AcDbLine
 10
26.909891145
 20
32.7956089693
 30
0.0
 11
26.909891145
 21
31.9247776586
 31
0.0
  0
LINE
  5
1B8
100
AcDbEntity
  8
LAYER1
 62
         3
100
AcDbLine
 10
29.9098907055
 20
29.0157133657
 30
0.0
 11
29.9098907055
 21
2.2956104892
 31
0.0
  0
LINE
  5
1B9
100
AcDbEntity
  8
LAYER1
 62
         3
100
AcDbLine
 10
33.4098912792
 20
8.4813991505
 30
0.0
 11
30.1598912121
 21
8.4813991505
 31
0.0
  0
LINE
  5
1BA
100
AcDbEntity
  8
LAYER1
 62
         3
100
AcDbLine
 10
30.2212765456
 20
9.1885039526
 30
0.0
 11
33.11699778
 21
9.1885039526
 31
0.0
  0
ARC
  5
1BB
100
AcDbEntity
  8
LAYER1
 62
         3
100
AcDbCircle
 10
30.3285906779
 20
11.8135736642
 30
0.0
 40
0.4188406515
210
0.0
220
0.0
230
1.0
100
AcDbArc
 50
181.4850435027
 51
240.4640355969
  0
LINE
  5
1BC
100
AcDbEntity
  8
LAYER1
 62
         3
100
AcDbLine
 10
30.8563370274
 20
11.4491628426
 30
0.0
 11
30.1221149058
 21
11.4491628426
 31
0.0
  0
LINE
  5
1BD
100
AcDbEntity
  8
LAYER1
 62
         3
100
AcDbLine
 10
29.9098907055
 20
18.9956100601
 30
0.0
 11
30.0029139982
 21
18.9956100601
 31
0.0
  0
LINE
  5
1BE
100
AcDbEntity
  8
LAYER1
 62
         3
100
AcDbLine
 10
28.9098905416
 20
28.431807639
 30
0.0
 11
25.9098909811
 21
28.431807639
 31
0.0
  0
ARC
  5
1BF
100
AcDbEntity
  8
LAYER1
 62
         3
100
AcDbCircle
 10
25.909890864
 20
3.2956111873
 30
0.0
 40
1.0
210
0.0
220
0.0
230
1.0
100
AcDbArc
 50
179.9999969295
 51
269.9999984648
  0
LINE
  5
1C0
100
AcDbEntity
  8
LAYER1
 62
         3
100
AcDbLine
 10
30.7098912091
 20
18.9956100601
 30
0.0
 11
30.0029139982
 21
18.9956100601
 31
0.0
  0
LINE
  5
1C1
100
AcDbEntity
  8
LAYER1
 62
         3
100
AcDbLine
 10
30.0029139982
 20
11.802718969
 30
0.0
 11
30.7098912091
 21
11.802718969
 31
0.0
  0
LINE
  5
1C2
100
AcDbEntity
  8
LAYER1
 62
         3
100
AcDbLine
 10
24.9098908172
 20
28.7204841095
 30
0.0
 11
24.9098908172
 21
27.5530265587
 31
0.0
  0
LINE
  5
1C3
100
AcDbEntity
  8
LAYER1
 62
         3
100
AcDbLine
 10
24.9098908172
 20
3.2956125158
 30
0.0
 11
24.9098908172
 21
2.2956104892
 31
0.0
  0
LINE
  5
1C4
100
AcDbEntity
  8
LAYER1
 62
         3
100
AcDbLine
 10
27.909891309
 20
28.7204841095
 30
0.0
 11
27.909891309
 21
29.0123978573
 31
0.0
  0
LINE
  5
1C5
100
AcDbEntity
  8
LAYER1
 62
         3
100
AcDbLine
 10
23.9098906533
 20
32.0113757568
 30
0.0
 11
24.4098916666
 21
32.0113757568
 31
0.0
  0
ARC
  5
1C6
100
AcDbEntity
  8
LAYER1
 62
         3
100
AcDbCircle
 10
23.5133754
 20
9.5773807197
 30
0.0
 40
0.3980856151
210
0.0
220
0.0
230
1.0
100
AcDbArc
 50
282.347890596
 51
354.9091286356
  0
LINE
  5
1C7
100
AcDbEntity
  8
LAYER1
 62
         3
100
AcDbLine
 10
23.6598901467
 20
8.4813991505
 30
0.0
 11
23.9098906533
 21
8.4813991505
 31
0.0
  0
LINE
  5
1C8
100
AcDbEntity
  8
LAYER1
 62
         3
100
AcDbLine
 10
23.6598901467
 20
2.2956104892
 30
0.0
 11
23.6598901467
 21
8.4813991505
 31
0.0
  0
LINE
  5
1C9
100
AcDbEntity
  8
LAYER1
 62
         3
100
AcDbLine
 10
23.6598901467
 20
8.4813991505
 30
0.0
 11
20.4098910109
 21
8.4813991505
 31
0.0
  0
LINE
  5
1CA
100
AcDbEntity
  8
LAYER1
 62
         3
100
AcDbLine
 10
20.7027845101
 20
9.1885039526
 30
0.0
 11
23.5985048131
 21
9.1885039526
 31
0.0
  0
ARC
  5
1CB
100
AcDbEntity
  8
LAYER1
 62
         3
100
AcDbCircle
 10
23.4911932675
 20
11.8135721116
 30
0.0
 40
0.4188380255
210
0.0
220
0.0
230
1.0
100
AcDbArc
 50
299.5357581808
 51
358.5151565787
  0
LINE
  5
1CC
100
AcDbEntity
  8
LAYER1
 62
         3
100
AcDbLine
 10
23.6976664529
 20
11.4491628426
 30
0.0
 11
22.9634434001
 21
11.4491628426
 31
0.0
  0
LINE
  5
1CD
100
AcDbEntity
  8
LAYER1
 62
         3
100
AcDbLine
 10
23.9098906533
 20
18.9956100601
 30
0.0
 11
23.8168682919
 21
18.9956100601
 31
0.0
  0
LINE
  5
1CE
100
AcDbEntity
  8
LAYER1
 62
         3
100
AcDbLine
 10
25.9098909811
 20
28.7237586397
 30
0.0
 11
28.9098905416
 21
28.7237586397
 31
0.0
  0
LINE
  5
1CF
100
AcDbEntity
  8
LAYER1
 62
         3
100
AcDbLine
 10
30.1598912121
 20
2.2956104892
 30
0.0
 11
29.9098907055
 21
2.2956104892
 31
0.0
  0
LINE
  5
1D0
100
AcDbEntity
  8
LAYER1
 62
         3
100
AcDbLine
 10
33.4098912792
 20
2.2956104892
 30
0.0
 11
30.1598912121
 21
2.2956104892
 31
0.0
  0
LINE
  5
1D1
100
AcDbEntity
  8
LAYER1
 62
         3
100
AcDbLine
 10
29.4098906235
 20
32.8956106621
 30
0.0
 11
29.4098906235
 21
32.0113757568
 31
0.0
  0
LINE
  5
1D2
100
AcDbEntity
  8
LAYER0
 62
         3
100
AcDbLine
 10
10.0
 20
-138.5
 30
0.0
 11
10.0
 21
-125.5
 31
0.0
  0
LINE
  5
1D3
100
AcDbEntity
  8
LAYER0
 62
         3
100
AcDbLine
 10
95.0
 20
-138.5
 30
0.0
 11
95.0
 21
-125.5
 31
0.0
  0
LINE
  5
1D4
100
AcDbEntity
  8
LAYER1
 62
         3
100
AcDbLine
 10
25.809891151
 20
-19.2043883783
 30
0.0
 11
28.0098911391
 21
-19.2043883783
 31
0.0
  0
LINE
  5
1D5
100
AcDbEntity
  8
LAYER1
 62
         3
100
AcDbLine
 10
28.0098911391
 20
-10.7043879163
 30
0.0
 11
28.0098911391
 21
-2.204389317
 31
0.0
  0
LINE
  5
1D6
100
AcDbEntity
  8
LAYER1
 62
         3
100
AcDbLine
 10
28.0098911391
 20
-19.2043883783
 30
0.0
 11
28.0098911391
 21
-10.7043879163
 31
0.0
  0
LINE
  5
1D7
100
AcDbEntity
  8
LAYER1
 62
         3
100
AcDbLine
 10
25.809891151
 20
-10.7043879163
 30
0.0
 11
25.809891151
 21
-2.204389317
 31
0.0
  0
LINE
  5
1D8
100
AcDbEntity
  8
LAYER1
 62
         3
100
AcDbLine
 10
25.809891151
 20
-19.2043883783
 30
0.0
 11
25.809891151
 21
-10.7043879163
 31
0.0
  0
LINE
  5
1D9
100
AcDbEntity
  8
LAYER1
 62
         3
100
AcDbLine
 10
28.0098911391
 20
-2.204389317
 30
0.0
 11
25.809891151
 21
-2.204389317
 31
0.0
  0
LINE
  5
1DA
100
AcDbEntity
  8
LAYER3
 62
         4
100
AcDbLine
 10
53.3296766744
 20
-19.2043883783
 30
0.0
 11
52.7059416019
 21
-16.2699455761
 31
0.0
  0
LINE
  5
1DB
100
AcDbEntity
  8
LAYER3
 62
         4
100
AcDbLine
 10
53.3296766744
 20
-19.2043883783
 30
0.0
 11
53.9534117468
 21
-16.2699455761
 31
0.0
  0
LINE
  5
1DC
100
AcDbEntity
  8
LAYER3
 62
         4
100
AcDbLine
 10
29.0098911391
 20
-19.2043883783
 30
0.0
 11
54.3296766744
 21
-19.2043883783
 31
0.0
  0
LINE
  5
1DD
100
AcDbEntity
  8
LAYER1
 62
         3
100
AcDbLine
 10
23.8168682919
 20
11.802718969
 30
0.0
 11
23.8168682919
 21
18.9956100601
 31
0.0
  0
LINE
  5
1DE
100
AcDbEntity
  8
LAYER1
 62
         3
100
AcDbLine
 10
23.8168682919
 20
11.802718969
 30
0.0
 11
23.9098906533
 21
11.802718969
 31
0.0
  0
ARC
  5
1DF
100
AcDbEntity
  8
LAYER1
 62
         3
100
AcDbCircle
 10
23.2545581045
 20
11.7954298914
 30
0.0
 40
0.5623574286
210
-0.0
220
0.0
230
1.0
100
AcDbArc
 50
321.9941492653
 51
0.7426683888
  0
LINE
  5
1E0
100
AcDbEntity
  8
LAYER1
 62
         3
100
AcDbLine
 10
24.4098916666
 20
29.3043153304
 30
0.0
 11
24.4098916666
 21
32.0113757568
 31
0.0
  0
LINE
  5
1E1
100
AcDbEntity
  8
LAYER1
 62
         3
100
AcDbLine
 10
27.909891309
 20
29.0123978573
 30
0.0
 11
24.9098908172
 21
29.0123978573
 31
0.0
  0
LINE
  5
1E2
100
AcDbEntity
  8
LAYER1
 62
         3
100
AcDbLine
 10
23.8168682919
 20
18.9956100601
 30
0.0
 11
23.1098901497
 21
18.9956100601
 31
0.0
  0
LINE
  5
1E3
100
AcDbEntity
  8
LAYER1
 62
         3
100
AcDbLine
 10
23.1098901497
 20
11.802718969
 30
0.0
 11
23.8168682919
 21
11.802718969
 31
0.0
  0
ARC
  5
1E4
100
AcDbEntity
  8
LAYER1
 62
         3
100
AcDbCircle
 10
30.5652251211
 20
11.7954290396
 30
0.0
 40
0.5623583751
210
0.0
220
0.0
230
1.0
100
AcDbArc
 50
179.2572491385
 51
218.0056621646
  0
LINE
  5
1E5
100
AcDbEntity
  8
LAYER1
 62
         3
100
AcDbLine
 10
29.9098907055
 20
11.802718969
 30
0.0
 11
30.0029139982
 21
11.802718969
 31
0.0
  0
LINE
  5
1E6
100
AcDbEntity
  8
LAYER1
 62
         3
100
AcDbLine
 10
30.0029139982
 20
18.9956100601
 30
0.0
 11
30.0029139982
 21
11.802718969
 31
0.0
  0
LINE
  5
1E7
100
AcDbEntity
  8
LAYER1
 62
         3
100
AcDbLine
 10
29.9098907055
 20
32.0113757568
 30
0.0
 11
29.4098906235
 21
32.0113757568
 31
0.0
  0
ARC
  5
1E8
100
AcDbEntity
  8
LAYER1
 62
         3
100
AcDbCircle
 10
30.3064068988
 20
9.5773815476
 30
0.0
 40
0.3980866249
210
0.0
220
0.0
230
1.0
100
AcDbArc
 50
185.0909749797
 51
257.6519996479
  0
LINE
  5
1E9
100
AcDbEntity
  8
LAYER1
 62
         3
100
AcDbLine
 10
29.9098907055
 20
8.4813991505
 30
0.0
 11
30.1598912121
 21
8.4813991505
 31
0.0
  0
LINE
  5
1EA
100
AcDbEntity
  8
LAYER1
 62
         3
100
AcDbLine
 10
30.1598912121
 20
8.4813991505
 30
0.0
 11
30.1598912121
 21
2.2956104892
 31
0.0
  0
LINE
  5
1EB
100
AcDbEntity
  8
LAYER3
 62
         4
100
AcDbLine
 10
-12.026570898
 20
42.5956536062
 30
0.0
 11
-14.9610137002
 21
43.2193886786
 31
0.0
  0
LINE
  5
1EC
100
AcDbEntity
  8
LAYER3
 62
         4
100
AcDbLine
 10
-32.026570451
 20
42.5956536062
 30
0.0
 11
-29.0921276488
 21
43.2193886786
 31
0.0
  0
LINE
  5
1ED
100
AcDbEntity
  8
LAYER3
 62
         4
100
AcDbLine
 10
-32.026570451
 20
42.5956536062
 30
0.0
 11
-29.0921276488
 21
41.9719185337
 31
0.0
  0
LINE
  5
1EE
100
AcDbEntity
  8
LAYER3
 62
         4
100
AcDbLine
 10
-32.026570451
 20
42.5956536062
 30
0.0
 11
-12.026570898
 21
42.5956536062
 31
0.0
  0
LINE
  5
1EF
100
AcDbEntity
  8
LAYER3
 62
         4
100
AcDbLine
 10
-12.026570898
 20
3.2956104892
 30
0.0
 11
-12.026570898
 21
43.5956536062
 31
0.0
  0
LINE
  5
1F0
100
AcDbEntity
  8
LAYER3
 62
         4
100
AcDbLine
 10
-32.026570451
 20
3.2956104892
 30
0.0
 11
-32.026570451
 21
43.5956536062
 31
0.0
  0
INSERT
  5
1F2
100
AcDbEntity
  8
0
100
AcDbBlockReference
  2
CLUMP30
 10
0.0
 20
0.0
 30
0.0
  0
INSERT
  5
202
100
AcDbEntity
  8
0
100
AcDbBlockReference
  2
CLUMP32
 10
0.0
 20
0.0
 30
0.0
  0
INSERT
  5
213
100
AcDbEntity
  8
0
100
AcDbBlockReference
  2
CLUMP34
 10
0.0
 20
0.0
 30
0.0
  0
INSERT
  5
223
100
AcDbEntity
  8
0
100
AcDbBlockReference
  2
CLUMP36
 10
0.0
 20
0.0
 30
0.0
  0
INSERT
  5
233
100
AcDbEntity
  8
0
100
AcDbBlockReference
  2
CLUMP38
 10
0.0
 20
0.0
 30
0.0
  0
INSERT
  5
23F
100
AcDbEntity
  8
0
100
AcDbBlockReference
  2
CLUMP40
 10
0.0
 20
0.0
 30
0.0
  0
INSERT
  5
24B
100
AcDbEntity
  8
0
100
AcDbBlockReference
  2
CLUMP42
 10
0.0
 20
0.0
 30
0.0
  0
INSERT
  5
25B
100
AcDbEntity
  8
0
100
AcDbBlockReference
  2
CLUMP44
 10
0.0
 20
0.0
 30
0.0
  0
INSERT
  5
267
100
AcDbEntity
  8
0
100
AcDbBlockReference
  2
CLUMP46
 10
0.0
 20
0.0
 30
0.0
  0
INSERT
  5
277
100
AcDbEntity
  8
0
100
AcDbBlockReference
  2
CLUMP48
 10
0.0
 20
0.0
 30
0.0
  0
INSERT
  5
283
100
AcDbEntity
  8
0
100
AcDbBlockReference
  2
CLUMP50
 10
0.0
 20
0.0
 30
0.0
  0
LINE
  5
292
100
AcDbEntity
  8
LAYER3
 62
         4
100
AcDbLine
 10
-48.7071569967
 20
18.2956111873
 30
0.0
 11
-48.0834219243
 21
15.3611683851
 31
0.0
  0
LINE
  5
293
100
AcDbEntity
  8
LAYER3
 62
         4
100
AcDbLine
 10
-48.7071569967
 20
18.2956111873
 30
0.0
 11
-49.3308920692
 21
15.3611683851
 31
0.0
  0
LINE
  5
294
100
AcDbEntity
  8
LAYER3
 62
         4
100
AcDbLine
 10
-23.0265706745
 20
18.2956111873
 30
0.0
 11
-49.7071569967
 21
18.2956111873
 31
0.0
  0
MTEXT
  5
295
100
AcDbEntity
  8
LAYER0
100
AcDbMText
 10
14.6627802544
 20
-133.1832799089
 30
0.0
 40
1.9790146708
 41
42.5443997719
 71
         1
 72
         1
  1
\W0.8;40用重量級オールステンレスＢランナー
  0
MTEXT
  5
296
100
AcDbEntity
  8
LAYER0
100
AcDbMText
 10
69.2920019132
 20
-133.1354167344
 30
0.0
 40
2.4737683892
 41
8.8634168007
 71
         1
 72
         1
  1
\W0.8;D56350
  0
LINE
  5
297
100
AcDbEntity
  8
LAYER0
 62
         3
100
AcDbLine
 10
60.0
 20
-125.5
 30
0.0
 11
60.0
 21
-138.5
 31
0.0
  0
MTEXT
  5
298
100
AcDbEntity
  8
LAYER0
100
AcDbMText
 10
72.5158633528
 20
-126.7970201517
 30
0.0
 40
2.1473683357
 41
10.2585839844
 71
         1
 72
         1
  1
\W0.8;管理図番
  0
MTEXT
  5
299
100
AcDbEntity
  8
LAYER0
100
AcDbMText
 10
32.0542682872
 20
-126.7970201517
 30
0.0
 40
2.1473683357
 41
7.6538653946
 71
         1
 72
         1
  1
\W0.8;品　名
  0
CIRCLE
  5
29A
100
AcDbEntity
  8
LAYER1
 62
         3
100
AcDbCircle
 10
-22.0265706745
 20
26.2956111873
 30
0.0
 40
6.6
210
0.0
220
0.0
230
1.0
  0
CIRCLE
  5
29B
100
AcDbEntity
  8
LAYER1
 62
         3
100
AcDbCircle
 10
-22.0265706745
 20
26.2956111873
 30
0.0
 40
8.0
210
0.0
220
0.0
230
1.0
  0
CIRCLE
  5
29C
100
AcDbEntity
  8
LAYER1
 62
         3
100
AcDbCircle
 10
-22.0265706745
 20
26.2956111873
 30
0.0
 40
6.0
210
0.0
220
0.0
230
1.0
  0
CIRCLE
  5
29D
100
AcDbEntity
  8
LAYER1
 62
         3
100
AcDbCircle
 10
-22.0265706745
 20
26.2956111873
 30
0.0
 40
2.5
210
0.0
220
0.0
230
1.0
  0
LINE
  5
29E
100
AcDbEntity
  8
LAYER1
 62
         3
100
AcDbLine
 10
-12.026570898
 20
2.2956104892
 30
0.0
 11
-12.52657098
 21
2.2956104892
 31
0.0
  0
LINE
  5
29F
100
AcDbEntity
  8
LAYER1
 62
         3
100
AcDbLine
 10
-16.3974055764
 20
2.2956104892
 30
0.0
 11
-27.6557357726
 21
2.2956104892
 31
0.0
  0
LINE
  5
2A0
100
AcDbEntity
  8
LAYER1
 62
         3
100
AcDbLine
 10
-15.9643927333
 20
2.2956104892
 30
0.0
 11
-16.3974055764
 21
2.2956104892
 31
0.0
  0
LINE
  5
2A1
100
AcDbEntity
  8
LAYER1
 62
         3
100
AcDbLine
 10
-27.6557357726
 20
2.2956104892
 30
0.0
 11
-28.0887486157
 21
2.2956104892
 31
0.0
  0
LINE
  5
2A2
100
AcDbEntity
  8
LAYER1
 62
         3
100
AcDbLine
 10
-32.026570451
 20
2.2956104892
 30
0.0
 11
-31.526570369
 21
28.431807639
 31
0.0
  0
LINE
  5
2A3
100
AcDbEntity
  8
LAYER1
 62
         3
100
AcDbLine
 10
-31.0263877478
 20
2.2956104892
 30
0.0
 11
-32.026570451
 21
2.2956104892
 31
0.0
  0
LINE
  5
2A4
100
AcDbEntity
  8
LAYER1
 62
         3
100
AcDbLine
 10
-29.2419252661
 20
29.750847252
 30
0.0
 11
-30.5152173829
 21
29.0157133657
 31
0.0
  0
LINE
  5
2A5
100
AcDbEntity
  8
LAYER1
 62
         3
100
AcDbLine
 10
-14.0377964568
 20
29.3043153304
 30
0.0
 11
-14.8112160829
 21
29.750847252
 31
0.0
  0
LINE
  5
2A6
100
AcDbEntity
  8
LAYER1
 62
         3
100
AcDbLine
 10
-31.0263877478
 20
2.2956104892
 30
0.0
 11
-28.0887486157
 21
2.2956104892
 31
0.0
  0
INSERT
  5
2A8
100
AcDbEntity
  8
0
100
AcDbBlockReference
  2
CLUMP52
 10
0.0
 20
0.0
 30
0.0
  0
INSERT
  5
2B8
100
AcDbEntity
  8
0
100
AcDbBlockReference
  2
CLUMP54
 10
0.0
 20
0.0
 30
0.0
  0
INSERT
  5
2CA
100
AcDbEntity
  8
0
100
AcDbBlockReference
  2
CLUMP56
 10
0.0
 20
0.0
 30
0.0
  0
INSERT
  5
2E4
100
AcDbEntity
  8
0
100
AcDbBlockReference
  2
CLUMP58
 10
0.0
 20
0.0
 30
0.0
  0
INSERT
  5
2FF
100
AcDbEntity
  8
0
100
AcDbBlockReference
  2
CLUMP60
 10
0.0
 20
0.0
 30
0.0
  0
INSERT
  5
31B
100
AcDbEntity
  8
0
100
AcDbBlockReference
  2
CLUMP62
 10
0.0
 20
0.0
 30
0.0
  0
INSERT
  5
336
100
AcDbEntity
  8
0
100
AcDbBlockReference
  2
CLUMP64
 10
0.0
 20
0.0
 30
0.0
  0
INSERT
  5
347
100
AcDbEntity
  8
0
100
AcDbBlockReference
  2
CLUMP66
 10
0.0
 20
0.0
 30
0.0
  0
INSERT
  5
358
100
AcDbEntity
  8
0
100
AcDbBlockReference
  2
CLUMP68
 10
0.0
 20
0.0
 30
0.0
  0
LINE
  5
368
100
AcDbEntity
  8
LAYER1
 62
         3
100
AcDbLine
 10
-31.7914999765
 20
25.2956123966
 30
0.0
 11
-31.790072259
 21
25.220175268
 31
0.0
  0
MTEXT
  5
369
100
AcDbEntity
  8
LAYER3
100
AcDbMText
 10
-24.4265706745
 20
46.3833122976
 30
0.0
 40
2.1473683357
 41
2.5646459961
 71
         1
 72
         1
  1
\W0.8;20
  0
LINE
  5
36A
100
AcDbEntity
  8
LAYER3
 62
         4
100
AcDbLine
 10
-12.026570898
 20
42.5956536062
 30
0.0
 11
-14.9610137002
 21
41.9719185337
 31
0.0
  0
LINE
  5
36B
100
AcDbEntity
  8
LAYER1
 62
         3
100
AcDbLine
 10
-12.5042341393
 20
27.2642122525
 30
0.0
 11
-13.0044810218
 21
27.5530265587
 31
0.0
  0
ARC
  5
36C
100
AcDbEntity
  8
LAYER1
 62
         3
100
AcDbCircle
 10
-30.790326157
 20
25.2430388561
 30
0.0
 40
1.0
210
0.0
220
0.0
230
1.0
100
AcDbArc
 50
180.131637318
 51
216.0498222523
  0
ARC
  5
36D
100
AcDbEntity
  8
LAYER1
 62
         3
100
AcDbCircle
 10
-30.7905535236
 20
25.3361672529
 30
0.0
 40
1.0
210
0.0
220
0.0
230
1.0
100
AcDbArc
 50
141.5680754253
 51
180.1504231201
  0
ARC
  5
36E
100
AcDbEntity
  8
LAYER1
 62
         3
100
AcDbCircle
 10
-31.1689848866
 20
5.3361672529
 30
0.0
 40
1.0
210
0.0
220
0.0
230
1.0
100
AcDbArc
 50
141.9646765124
 51
180.1507295747
  0
ARC
  5
36F
100
AcDbEntity
  8
LAYER1
 62
         3
100
AcDbCircle
 10
-31.1687713785
 20
5.2430342155
 30
0.0
 40
0.9999857834
210
0.0
220
0.0
230
1.0
100
AcDbArc
 50
180.1312734403
 51
215.6516782983
  0
LINE
  5
370
100
AcDbEntity
  8
LAYER1
 62
         3
100
AcDbLine
 10
-32.1687303227
 20
5.3590694386
 30
0.0
 11
-32.1699317289
 21
5.2956128436
 31
0.0
  0
LINE
  5
371
100
AcDbEntity
  8
LAYER1
 62
         3
100
AcDbLine
 10
-32.1699317289
 20
5.2956128436
 30
0.0
 11
-32.16850308
 21
5.2201347369
 31
0.0
  0
LINE
  5
372
100
AcDbEntity
  8
LAYER1
 62
         3
100
AcDbLine
 10
-31.7902995017
 20
25.3590317386
 30
0.0
 11
-31.7914999765
 21
25.2956123966
 31
0.0
  0
LINE
  5
373
100
AcDbEntity
  8
LAYER1
 62
         3
100
AcDbLine
 10
-16.3974055764
 20
2.2956104892
 30
0.0
 11
-16.3974055764
 21
8.4813991505
 31
0.0
  0
LINE
  5
374
100
AcDbEntity
  8
LAYER1
 62
         3
100
AcDbLine
 10
-19.7339613666
 20
11.4491628426
 30
0.0
 11
-24.3191799824
 21
11.4491628426
 31
0.0
  0
LINE
  5
375
100
AcDbEntity
  8
LAYER1
 62
         3
100
AcDbLine
 10
-24.2341048294
 20
11.802718969
 30
0.0
 11
-19.8190365196
 21
11.802718969
 31
0.0
  0
ARC
  5
376
100
AcDbEntity
  8
LAYER1
 62
         3
100
AcDbCircle
 10
-19.1013297055
 20
11.7884048597
 30
0.0
 40
0.7178495418
210
0.0
220
0.0
230
1.0
100
AcDbArc
 50
178.8574343638
 51
208.2019597174
  0
ARC
  5
377
100
AcDbEntity
  8
LAYER1
 62
         3
100
AcDbCircle
 10
-24.9518116435
 20
11.7884048597
 30
0.0
 40
0.7178495418
210
-0.0
220
0.0
230
1.0
100
AcDbArc
 50
331.7980372121
 51
1.1425687067
  0
LINE
  5
378
100
AcDbEntity
  8
LAYER1
 62
         3
100
AcDbLine
 10
-24.2341048294
 20
18.6062166411
 30
0.0
 11
-24.2341048294
 21
11.802718969
 31
0.0
  0
LINE
  5
379
100
AcDbEntity
  8
LAYER1
 62
         3
100
AcDbLine
 10
-19.8190365196
 20
11.802718969
 30
0.0
 11
-19.8190365196
 21
18.6062166411
 31
0.0
  0
LINE
  5
37A
100
AcDbEntity
  8
LAYER1
 62
         3
100
AcDbLine
 10
-28.0887486157
 20
8.4813991505
 30
0.0
 11
-27.6557357726
 21
8.4813991505
 31
0.0
  0
ARC
  5
37B
100
AcDbEntity
  8
LAYER1
 62
         3
100
AcDbCircle
 10
-13.262815192
 20
25.2430388561
 30
0.0
 40
1.0
210
0.0
220
0.0
230
1.0
100
AcDbArc
 50
323.9501746773
 51
359.8684443891
  0
ARC
  5
37C
100
AcDbEntity
  8
LAYER1
 62
         3
100
AcDbCircle
 10
-13.2625878254
 20
25.3361672529
 30
0.0
 40
1.0
210
-0.0
220
0.0
230
1.0
100
AcDbArc
 50
359.8495254201
 51
38.4319276452
  0
ARC
  5
37D
100
AcDbEntity
  8
LAYER1
 62
         3
100
AcDbCircle
 10
-12.8841564624
 20
5.3361672529
 30
0.0
 40
1.0
210
-0.0
220
0.0
230
1.0
100
AcDbArc
 50
359.8496054949
 51
38.0353265581
  0
ARC
  5
37E
100
AcDbEntity
  8
LAYER1
 62
         3
100
AcDbCircle
 10
-12.8827407145
 20
5.2425082478
 30
0.0
 40
0.9983554632
210
0.0
220
0.0
230
1.0
100
AcDbArc
 50
324.3183475708
 51
359.8986945496
  0
LINE
  5
37F
100
AcDbEntity
  8
LAYER1
 62
         3
100
AcDbLine
 10
-12.26306909
 20
25.220175268
 30
0.0
 11
-12.2616413725
 21
25.2956123966
 31
0.0
  0
LINE
  5
380
100
AcDbEntity
  8
LAYER1
 62
         3
100
AcDbLine
 10
-12.2616413725
 20
25.2956123966
 30
0.0
 11
-12.2628418473
 21
25.3590317386
 31
0.0
  0
LINE
  5
381
100
AcDbEntity
  8
LAYER1
 62
         3
100
AcDbLine
 10
-11.884638269
 20
5.2201347369
 30
0.0
 11
-11.8832096201
 21
5.2956128436
 31
0.0
  0
LINE
  5
382
100
AcDbEntity
  8
LAYER1
 62
         3
100
AcDbLine
 10
-11.8832096201
 20
5.2956128436
 30
0.0
 11
-11.8844110263
 21
5.3590694386
 31
0.0
  0
CIRCLE
  5
383
100
AcDbEntity
  8
LAYER1
 62
         3
100
AcDbCircle
 10
-22.0265706745
 20
26.2956111873
 30
0.0
 40
3.75
210
0.0
220
0.0
230
1.0
  0
LINE
  5
384
100
AcDbEntity
  8
LAYER0
 62
         3
100
AcDbLine
 10
-40.0
 20
-138.5
 30
0.0
 11
-40.0
 21
-125.5
 31
0.0
  0
LINE
  5
385
100
AcDbEntity
  8
LAYER1
 62
         3
100
AcDbLine
 10
-25.0265707006
 20
-8.2043884379
 30
0.0
 11
-19.0265706484
 21
-8.2043884379
 31
0.0
  0
ARC
  5
386
100
AcDbEntity
  8
LAYER1
 62
         3
100
AcDbCircle
 10
-22.0265706745
 20
-10.7043888127
 30
0.0
 40
5.5
210
0.0
220
-0.0
230
1.0
100
AcDbArc
 50
123.05573325
 51
0.0
  0
ARC
  5
387
100
AcDbEntity
  8
LAYER1
 62
         3
100
AcDbCircle
 10
-22.0265706745
 20
-10.7043888127
 30
0.0
 40
8.5
210
0.0
220
0.0
230
1.0
100
AcDbArc
 50
0.0
 51
69.3326846892
  0
ARC
  5
388
100
AcDbEntity
  8
LAYER1
 62
         3
100
AcDbCircle
 10
-22.0265706745
 20
-10.7043888127
 30
0.0
 40
8.5
210
0.0
220
-0.0
230
1.0
100
AcDbArc
 50
110.6673183813
 51
0.0
  0
ARC
  5
389
100
AcDbEntity
  8
LAYER1
 62
         3
100
AcDbCircle
 10
-22.0265706745
 20
-10.7043888127
 30
0.0
 40
5.5
210
0.0
220
0.0
230
1.0
100
AcDbArc
 50
0.0
 51
56.9442698205
  0
LINE
  5
38A
100
AcDbEntity
  8
LAYER3
 62
         4
100
AcDbLine
 10
-48.7071569967
 20
-16.2043888127
 30
0.0
 11
-49.3308920692
 21
-13.2699460105
 31
0.0
  0
LINE
  5
38B
100
AcDbEntity
  8
LAYER3
 62
         4
100
AcDbLine
 10
-48.7071569967
 20
-16.2043888127
 30
0.0
 11
-48.0834219243
 21
-13.2699460105
 31
0.0
  0
LINE
  5
38C
100
AcDbEntity
  8
LAYER3
 62
         4
100
AcDbLine
 10
-23.0265706745
 20
-16.2043888127
 30
0.0
 11
-49.7071569967
 21
-16.2043888127
 31
0.0
  0
LINE
  5
38D
100
AcDbEntity
  8
LAYER1
 62
         3
100
AcDbLine
 10
-16.3974055764
 20
8.4813991505
 30
0.0
 11
-15.9643927333
 21
8.4813991505
 31
0.0
  0
LINE
  5
38E
100
AcDbEntity
  8
LAYER1
 62
         3
100
AcDbLine
 10
-15.9643927333
 20
8.4813991505
 30
0.0
 11
-15.9643927333
 21
2.2956104892
 31
0.0
  0
LINE
  5
38F
100
AcDbEntity
  8
LAYER1
 62
         3
100
AcDbLine
 10
-12.5042341393
 20
27.2642122525
 30
0.0
 11
-12.045701195
 21
3.2956125158
 31
0.0
  0
LINE
  5
390
100
AcDbEntity
  8
LAYER1
 62
         3
100
AcDbLine
 10
-13.0265710619
 20
28.7204841095
 30
0.0
 11
-12.52657098
 21
28.431807639
 31
0.0
  0
LINE
  5
391
100
AcDbEntity
  8
LAYER1
 62
         3
100
AcDbLine
 10
-28.0887486157
 20
2.2956104892
 30
0.0
 11
-28.0887486157
 21
8.4813991505
 31
0.0
  0
LINE
  5
392
100
AcDbEntity
  8
LAYER1
 62
         3
100
AcDbLine
 10
-19.8190365196
 20
11.802718969
 30
0.0
 11
-19.5285714441
 21
11.802718969
 31
0.0
  0
LINE
  5
393
100
AcDbEntity
  8
LAYER1
 62
         3
100
AcDbLine
 10
-24.5245699049
 20
11.802718969
 30
0.0
 11
-24.2341048294
 21
11.802718969
 31
0.0
  0
LINE
  5
394
100
AcDbEntity
  8
LAYER1
 62
         3
100
AcDbLine
 10
-24.5245699049
 20
11.802718969
 30
0.0
 11
-24.5245699049
 21
18.6956124323
 31
0.0
  0
LINE
  5
395
100
AcDbEntity
  8
LAYER1
 62
         3
100
AcDbLine
 10
-19.5285714441
 20
18.6956124323
 30
0.0
 11
-19.5285714441
 21
11.802718969
 31
0.0
  0
LINE
  5
396
100
AcDbEntity
  8
LAYER1
 62
         3
100
AcDbLine
 10
-12.5454926607
 20
3.2956125158
 30
0.0
 11
-12.045701195
 21
3.2956125158
 31
0.0
  0
LINE
  5
397
100
AcDbEntity
  8
LAYER1
 62
         3
100
AcDbLine
 10
-16.3974055764
 20
8.4813991505
 30
0.0
 11
-27.6557357726
 21
8.4813991505
 31
0.0
  0
LINE
  5
398
100
AcDbEntity
  8
LAYER1
 62
         3
100
AcDbLine
 10
-27.2766087879
 20
9.1885039526
 30
0.0
 11
-16.776532561
 21
9.1885039526
 31
0.0
  0
LINE
  5
399
100
AcDbEntity
  8
LAYER1
 62
         3
100
AcDbLine
 10
-27.6557357726
 20
8.4813991505
 30
0.0
 11
-27.6557357726
 21
2.2956104892
 31
0.0
  0
LINE
  5
39A
100
AcDbEntity
  8
LAYER1
 62
         3
100
AcDbLine
 10
-15.9643927333
 20
2.2956104892
 30
0.0
 11
-13.5267499578
 21
2.2956104892
 31
0.0
  0
LINE
  5
39B
100
AcDbEntity
  8
LAYER1
 62
         3
100
AcDbLine
 10
-13.0265710619
 20
28.7204841095
 30
0.0
 11
-12.52657098
 21
2.2956104892
 31
0.0
  0
LINE
  5
39C
100
AcDbEntity
  8
LAYER1
 62
         3
100
AcDbLine
 10
-12.52657098
 20
2.2956104892
 30
0.0
 11
-13.5267499578
 21
2.2956104892
 31
0.0
  0
LINE
  5
39D
100
AcDbEntity
  8
LAYER0
 62
         3
100
AcDbLine
 10
95.0
 20
-125.5
 30
0.0
 11
-40.0
 21
-125.5
 31
0.0
  0
LINE
  5
39E
100
AcDbEntity
  8
LAYER0
 62
         3
100
AcDbLine
 10
95.0
 20
-130.5
 30
0.0
 11
-40.0
 21
-130.5
 31
0.0
  0
LINE
  5
39F
100
AcDbEntity
  8
LAYER0
 62
         3
100
AcDbLine
 10
95.0
 20
-138.5
 30
0.0
 11
-40.0
 21
-138.5
 31
0.0
  0
LINE
  5
3A0
100
AcDbEntity
  8
LAYER1
 62
         3
100
AcDbLine
 10
-25.0265707006
 20
1.5326971131
 30
0.0
 11
-25.0265707006
 21
2.2956104892
 31
0.0
  0
LINE
  5
3A1
100
AcDbEntity
  8
LAYER1
 62
         3
100
AcDbLine
 10
-25.0265707006
 20
1.5326971131
 30
0.0
 11
-19.0265706484
 21
1.5326971131
 31
0.0
  0
LINE
  5
3A2
100
AcDbEntity
  8
LAYER1
 62
         3
100
AcDbLine
 10
-19.0265706484
 20
-8.2043884379
 30
0.0
 11
-19.0265706484
 21
1.5326971131
 31
0.0
  0
LINE
  5
3A3
100
AcDbEntity
  8
LAYER1
 62
         3
100
AcDbLine
 10
-25.0265707006
 20
-8.2043884379
 30
0.0
 11
-25.0265707006
 21
1.5326971131
 31
0.0
  0
LINE
  5
3A4
100
AcDbEntity
  8
LAYER1
 62
         3
100
AcDbLine
 10
-19.0265706484
 20
1.5326971131
 30
0.0
 11
-19.0265706484
 21
2.2956104892
 31
0.0
  0
MTEXT
  5
3A5
100
AcDbEntity
  8
LAYER3
100
AcDbMText
 10
-52.4948156882
 20
-3.7543888874
 30
0.0
 40
2.1473683357
 41
5.1292919922
 71
         1
 72
         1
  1
\W0.8;34.5
 11
-0.0000000268
 21
1.0
 31
0.0
  0
LINE
  5
3A6
100
AcDbEntity
  8
LAYER3
 62
         4
100
AcDbLine
 10
-48.7071569967
 20
18.2956111873
 30
0.0
 11
-48.7071569967
 21
-16.2043888127
 31
0.0
  0
ARC
  5
3A7
100
AcDbEntity
  8
LAYER1
 62
         3
100
AcDbCircle
 10
29.009890864
 20
1.8789171982
 30
0.0
 40
2.0
210
0.0
220
0.0
230
1.0
100
AcDbArc
 50
179.9999969295
 51
247.5536475005
  0
LINE
  5
3A8
100
AcDbEntity
  8
LAYER1
 62
         3
100
AcDbLine
 10
27.0098909752
 20
1.8789181429
 30
0.0
 11
27.0098909752
 21
2.2956104892
 31
0.0
  0
LINE
  5
3A9
100
AcDbEntity
  8
LAYER1
 62
         3
100
AcDbLine
 10
28.509891221
 20
2.2956104892
 30
0.0
 11
28.509891221
 21
1.5326971131
 31
0.0
  0
ARC
  5
3AA
100
AcDbEntity
  8
LAYER1
 62
         3
100
AcDbCircle
 10
26.909890864
 20
-3.2043888127
 30
0.0
 40
5.0
210
-0.0
220
0.0
230
1.0
100
AcDbArc
 50
282.709031676
 51
71.337076332
  0
ARC
  5
3AB
100
AcDbEntity
  8
LAYER1
 62
         3
100
AcDbCircle
 10
26.909890864
 20
-3.2043888127
 30
0.0
 40
5.0
210
0.0
220
0.0
230
1.0
100
AcDbArc
 50
108.6629267385
 51
257.2909652536
  0
LINE
  5
3AC
100
AcDbEntity
  8
LAYER1
 62
         3
100
AcDbLine
 10
25.3098901377
 20
1.5326971131
 30
0.0
 11
25.3098901377
 21
2.2956104892
 31
0.0
  0
LINE
  5
3AD
100
AcDbEntity
  8
LAYER1
 62
         3
100
AcDbLine
 10
26.8098913149
 20
2.2956104892
 30
0.0
 11
26.8098913149
 21
1.8789181429
 31
0.0
  0
ARC
  5
3AE
100
AcDbEntity
  8
LAYER1
 62
         3
100
AcDbCircle
 10
24.809890864
 20
1.8789171982
 30
0.0
 40
2.0
210
-0.0
220
0.0
230
1.0
100
AcDbArc
 50
292.4463494292
 51
0.0
  0
ARC
  5
3AF
100
AcDbEntity
  8
LAYER1
 62
         3
100
AcDbCircle
 10
26.909890864
 20
-3.2043888127
 30
0.0
 40
3.5
210
0.0
220
0.0
230
1.0
100
AcDbArc
 50
112.4463524995
 51
251.6822997411
  0
ARC
  5
3B0
100
AcDbEntity
  8
LAYER1
 62
         3
100
AcDbCircle
 10
26.909890864
 20
-3.2043888127
 30
0.0
 40
3.5
210
-0.0
220
0.0
230
1.0
100
AcDbArc
 50
288.3176971884
 51
67.5536505709
  0
LINE
  5
3B1
100
AcDbEntity
  8
LAYER3
 62
         4
100
AcDbLine
 10
53.3296766744
 20
34.2956120092
 30
0.0
 11
53.3296766744
 21
-19.2043883783
 31
0.0
  0
MTEXT
  5
3B2
100
AcDbEntity
  8
LAYER0
100
AcDbMText
 10
-17.3781737419
 20
-132.5157576176
 30
0.0
 40
3.0922104359
 41
11.0792708193
 71
         1
 72
         1
  1
\W0.8;S-501A
  0
MTEXT
  5
3B3
100
AcDbEntity
  8
LAYER0
100
AcDbMText
 10
-35.7051459079
 20
-126.6461242782
 30
0.0
 40
2.1473683357
 41
6.4116149902
 71
         1
 72
         1
  1
\W0.8;Ｎｏ.
  0
LINE
  5
3B4
100
AcDbEntity
  8
LAYER0
 62
         3
100
AcDbLine
 10
-25.0
 20
-125.5
 30
0.0
 11
-25.0
 21
-138.5
 31
0.0
  0
MTEXT
  5
3B5
100
AcDbEntity
  8
LAYER0
100
AcDbMText
 10
-10.6564309049
 20
-126.7970201517
 30
0.0
 40
2.1473683357
 41
7.6538653946
 71
         1
 72
         1
  1
\W0.8;品　番
  0
ENDSEC
  0
SECTION
  2
OBJECTS
  0
DICTIONARY
  5
19
100
AcDbDictionary
280
         0
281
         1
  3
ACAD_GROUP
350
1A
  3
ACAD_MLINESTYLE
350
1B
  3
ACAD_LAYOUT
350
1E
  3
ACAD_PLOTSETTINGS
350
22
  3
ACAD_PLOTSTYLENAME
350
1F
  3
ACAD_WIPEOUT_VARS
350
23
  0
DICTIONARY
  5
1A
102
{ACAD_REACTORS
330
19
102
}
100
AcDbDictionary
280
         0
281
         1
  0
DICTIONARY
  5
1B
102
{ACAD_REACTORS
330
19
102
}
100
AcDbDictionary
280
         0
281
         1
  3
Standard
350
1C
  0
MLINESTYLE
  5
1C
102
{ACAD_REACTORS
330
1B
102
}
100
AcDbMlineStyle
  2
Standard
 70
         0
  3

 62
         0
 51
90.0
 52
90.0
 71
         2
 49
0.5
 62
       256
  6
BYLAYER
 49
-0.5
 62
       256
  6
BYLAYER
  0
ACDBDICTIONARYWDFLT
  5
1F
102
{ACAD_REACTORS
330
19
102
}
100
AcDbDictionary
281
         1
  3
Normal
350
1D
100
AcDbDictionaryWithDefault
340
1D
  0
ACDBPLACEHOLDER
  5
1D
102
{ACAD_REACTORS
330
1F
102
}
  0
LAYOUT
  5
20
102
{ACAD_REACTORS
330
1E
102
}
100
AcDbPlotSettings
  1

  2

  4

  6

 40
0.0
 41
0.0
 42
0.0
 43
0.0
 44
0.0
 45
0.0
 46
0.0
 47
0.0
 48
0.0
 49
0.0
140
0.0
141
0.0
142
1.0
143
1.0
 70
         0
 72
         0
 73
         0
 74
         0
  7

 75
         0
147
1.0
148
0.0
149
0.0
100
AcDbLayout
  1
Model
 70
         0
 71
         0
 10
0.0
 20
0.0
 11
0.0
 21
0.0
 12
0.0
 22
0.0
 32
0.0
 14
0.0
 24
0.0
 34
0.0
 15
0.0
 25
0.0
 35
0.0
146
0.0
 13
0.0
 23
0.0
 33
0.0
 16
0.0
 26
0.0
 36
0.0
 17
0.0
 27
0.0
 37
0.0
 76
         0
330
A
331
0
345
0
346
0
  0
LAYOUT
  5
21
102
{ACAD_REACTORS
330
1E
102
}
100
AcDbPlotSettings
  1

  2

  4

  6

 40
0.0
 41
0.0
 42
0.0
 43
0.0
 44
0.0
 45
0.0
 46
0.0
 47
0.0
 48
0.0
 49
0.0
140
0.0
141
0.0
142
1.0
143
1.0
 70
         0
 72
         0
 73
         0
 74
         0
  7

 75
         0
147
1.0
148
0.0
149
0.0
100
AcDbLayout
  1
Layout1
 70
         0
 71
         0
 10
0.0
 20
0.0
 11
0.0
 21
0.0
 12
0.0
 22
0.0
 32
0.0
 14
0.0
 24
0.0
 34
0.0
 15
0.0
 25
0.0
 35
0.0
146
0.0
 13
0.0
 23
0.0
 33
0.0
 16
0.0
 26
0.0
 36
0.0
 17
0.0
 27
0.0
 37
0.0
 76
         0
330
B
331
0
345
0
346
0
  0
DICTIONARY
  5
1E
102
{ACAD_REACTORS
330
19
102
}
100
AcDbDictionary
280
         0
281
         1
  3
Layout1
350
21
  3
Model
350
20
  0
DICTIONARY
  5
22
102
{ACAD_REACTORS
330
19
102
}
100
AcDbDictionary
280
         0
281
         1
  0
WIPEOUTVARIABLES
  5
23
100
AcDbWipeoutVariables
 70
         1
  0
ENDSEC
  0
EOF
