  0
SECTION
  2
HEADER
  9
$ACADVER
  1
AC1015
  9
$ACADMAINTVER
 70
         6
  9
$DWGCODEPAGE
  3
ANSI_932
  9
$INSBASE
 10
0.0
 20
0.0
 30
0.0
  9
$EXTMIN
 10
1.0000000000E+20
 20
1.0000000000E+20
 30
1.0000000000E+20
  9
$EXTMAX
 10
-1.0000000000E+20
 20
-1.0000000000E+20
 30
-1.0000000000E+20
  9
$LIMMIN
 10
0.0
 20
0.0
  9
$LIMMAX
 10
0.0
 20
0.0
  9
$ORTHOMODE
 70
         0
  9
$REGENMODE
 70
         1
  9
$FILLMODE
 70
         1
  9
$QTEXTMODE
 70
         0
  9
$MIRRTEXT
 70
         1
  9
$LTSCALE
 40
1.0
  9
$ATTMODE
 70
         1
  9
$TEXTSIZE
 40
0.2
  9
$TRACEWID
 40
0.05
  9
$TEXTSTYLE
  7
Standard
  9
$CLAYER
  8
0
  9
$CELTYPE
  6
Continuous
  9
$CECOLOR
 62
       256
  9
$CELTSCALE
 40
1.0
  9
$DISPSILH
 70
         0
  9
$DIMSCALE
 40
1.0
  9
$DIMASZ
 40
0.18
  9
$DIMEXO
 40
0.0625
  9
$DIMDLI
 40
0.38
  9
$DIMRND
 40
0.0
  9
$DIMDLE
 40
0.0
  9
$DIMEXE
 40
0.18
  9
$DIMTP
 40
0.0
  9
$DIMTM
 40
0.0
  9
$DIMTXT
 40
0.18
  9
$DIMCEN
 40
0.09
  9
$DIMTSZ
 40
0.0
  9
$DIMTOL
 70
         0
  9
$DIMLIM
 70
         0
  9
$DIMTIH
 70
         1
  9
$DIMTOH
 70
         1
  9
$DIMSE1
 70
         0
  9
$DIMSE2
 70
         0
  9
$DIMTAD
 70
         0
  9
$DIMZIN
 70
         0
  9
$DIMBLK
  1

  9
$DIMASO
 70
         1
  9
$DIMSHO
 70
         1
  9
$DIMPOST
  1

  9
$DIMAPOST
  1

  9
$DIMALT
 70
         0
  9
$DIMALTD
 70
         2
  9
$DIMALTF
 40
25.4
  9
$DIMLFAC
 40
1.0
  9
$DIMTOFL
 70
         0
  9
$DIMTVP
 40
0.0
  9
$DIMTIX
 70
         0
  9
$DIMSOXD
 70
         0
  9
$DIMSAH
 70
         0
  9
$DIMBLK1
  1

  9
$DIMBLK2
  1

  9
$DIMSTYLE
  2
Standard
  9
$DIMCLRD
 70
         0
  9
$DIMCLRE
 70
         0
  9
$DIMCLRT
 70
         0
  9
$DIMTFAC
 40
1.0
  9
$DIMGAP
 40
0.09
  9
$DIMJUST
 70
         0
  9
$DIMSD1
 70
         0
  9
$DIMSD2
 70
         0
  9
$DIMTOLJ
 70
         1
  9
$DIMTZIN
 70
         0
  9
$DIMALTZ
 70
         0
  9
$DIMALTTZ
 70
         0
  9
$DIMUPT
 70
         0
  9
$DIMDEC
 70
         4
  9
$DIMTDEC
 70
         4
  9
$DIMALTU
 70
         2
  9
$DIMALTTD
 70
         2
  9
$DIMTXSTY
  7
Standard
  9
$DIMAUNIT
 70
         0
  9
$DIMADEC
 70
         0
  9
$DIMALTRND
 40
0.0
  9
$DIMAZIN
 70
         0
  9
$DIMDSEP
 70
         0
  9
$DIMATFIT
 70
         3
  9
$DIMFRAC
 70
         0
  9
$DIMLDRBLK
  1

  9
$DIMLUNIT
 70
         2
  9
$DIMLWD
 70
         0
  9
$DIMLWE
 70
         0
  9
$DIMTMOVE
 70
         0
  9
$LUNITS
 70
         2
  9
$LUPREC
 70
         4
  9
$SKETCHINC
 40
0.1
  9
$FILLETRAD
 40
0.0
  9
$AUNITS
 70
         0
  9
$AUPREC
 70
         0
  9
$MENU
  1
acad
  9
$ELEVATION
 40
0.0
  9
$PELEVATION
 40
0.0
  9
$THICKNESS
 40
0.0
  9
$LIMCHECK
 70
         0
  9
$CHAMFERA
 40
0.0
  9
$CHAMFERB
 40
0.0
  9
$CHAMFERC
 40
0.0
  9
$CHAMFERD
 40
0.0
  9
$SKPOLY
 70
         0
  9
$TDCREATE
 40
0.000000000
  9
$TDUCREATE
 40
0.000000000
  9
$TDUPDATE
 40
0.000000000
  9
$TDUUPDATE
 40
0.000000000
  9
$TDINDWG
 40
0.0000000000
  9
$TDUSRTIMER
 40
0.0000000000
  9
$USRTIMER
 70
         1
  9
$ANGBASE
 50
0.0
  9
$ANGDIR
 70
         0
  9
$PDMODE
 70
         3
  9
$PDSIZE
 40
-1.0
  9
$PLINEWID
 40
0.0
  9
$SPLFRAME
 70
         0
  9
$SPLINETYPE
 70
         6
  9
$SPLINESEGS
 70
         8
  9
$HANDSEED
  5
169
  9
$SURFTAB1
 70
         6
  9
$SURFTAB2
 70
         6
  9
$SURFTYPE
 70
         6
  9
$SURFU
 70
         6
  9
$SURFV
 70
         6
  9
$UCSBASE
  2

  9
$UCSNAME
  2

  9
$UCSORG
 10
0.0
 20
0.0
 30
0.0
  9
$UCSXDIR
 10
1.0
 20
0.0
 30
0.0
  9
$UCSYDIR
 10
0.0
 20
1.0
 30
0.0
  9
$UCSORTHOREF
  2

  9
$UCSORTHOVIEW
 70
         0
  9
$UCSORGTOP
 10
0.0
 20
0.0
 30
0.0
  9
$UCSORGBOTTOM
 10
0.0
 20
0.0
 30
0.0
  9
$UCSORGLEFT
 10
0.0
 20
0.0
 30
0.0
  9
$UCSORGRIGHT
 10
0.0
 20
0.0
 30
0.0
  9
$UCSORGFRONT
 10
0.0
 20
0.0
 30
0.0
  9
$UCSORGBACK
 10
0.0
 20
0.0
 30
0.0
  9
$PUCSBASE
  2

  9
$PUCSNAME
  2

  9
$PUCSORG
 10
0.0
 20
0.0
 30
0.0
  9
$PUCSXDIR
 10
1.0
 20
0.0
 30
0.0
  9
$PUCSYDIR
 10
0.0
 20
1.0
 30
0.0
  9
$PUCSORTHOREF
  2

  9
$PUCSORTHOVIEW
 70
         0
  9
$PUCSORGTOP
 10
0.0
 20
0.0
 30
0.0
  9
$PUCSORGBOTTOM
 10
0.0
 20
0.0
 30
0.0
  9
$PUCSORGLEFT
 10
0.0
 20
0.0
 30
0.0
  9
$PUCSORGRIGHT
 10
0.0
 20
0.0
 30
0.0
  9
$PUCSORGFRONT
 10
0.0
 20
0.0
 30
0.0
  9
$PUCSORGBACK
 10
0.0
 20
0.0
 30
0.0
  9
$USERI1
 70
         0
  9
$USERI2
 70
         0
  9
$USERI3
 70
         0
  9
$USERI4
 70
         0
  9
$USERI5
 70
         0
  9
$USERR1
 40
0.0
  9
$USERR2
 40
0.0
  9
$USERR3
 40
0.0
  9
$USERR4
 40
0.0
  9
$USERR5
 40
0.0
  9
$WORLDVIEW
 70
         1
  9
$SHADEDGE
 70
         3
  9
$SHADEDIF
 70
        70
  9
$TILEMODE
 70
         1
  9
$MAXACTVP
 70
        16
  9
$PINSBASE
 10
0.0
 20
0.0
 30
0.0
  9
$PLIMCHECK
 70
         0
  9
$PEXTMIN
 10
1.0000000000E+20
 20
1.0000000000E+20
 30
1.0000000000E+20
  9
$PEXTMAX
 10
-1.0000000000E+20
 20
-1.0000000000E+20
 30
-1.0000000000E+20
  9
$PLIMMIN
 10
0.0
 20
0.0
  9
$PLIMMAX
 10
12.0
 20
9.0
  9
$UNITMODE
 70
         0
  9
$VISRETAIN
 70
         0
  9
$PLINEGEN
 70
         1
  9
$PSLTSCALE
 70
         0
  9
$TREEDEPTH
 70
      3020
  9
$CMLSTYLE
  2
Standard
  9
$CMLJUST
 70
         0
  9
$CMLSCALE
 40
1.0
  9
$PROXYGRAPHICS
 70
         0
  9
$MEASUREMENT
 70
         0
  9
$CELWEIGHT
370
         0
  9
$ENDCAPS
280
         0
  9
$JOINSTYLE
280
         0
  9
$LWDISPLAY
290
         0
  9
$INSUNITS
 70
         0
  9
$HYPERLINKBASE
  1

  9
$XEDIT
290
         1
  9
$CEPSNTYPE
380
         0
  9
$PSTYLEMODE
290
         0
  9
$FINGERPRINTGUID
  2

  9
$VERSIONGUID
  2

  9
$EXTNAMES
290
         1
  9
$PSVPSCALE
 40
0.0
  0
ENDSEC
  0
SECTION
  2
CLASSES
  0
CLASS
  1
LWPOLYLINE
  2
AcDbPolyline
  3
"AutoCAD"
 90
        0
280
         0
281
         1
  0
CLASS
  1
IMAGE
  2
AcDbRasterImage
  3
ISM
 90
      127
280
         0
281
         1
  0
CLASS
  1
OLE2FRAME
  2
AcDbOle2Frame
  3
""
 90
        0
280
         0
281
         1
  0
CLASS
  1
HATCH
  2
AcDbHatch
  3
"ACAD_SEDONA"
 90
        0
280
         0
281
         1
  0
CLASS
  1
DICTIONARYVAR
  2
AcDbDictionaryVar
  3
"AutoCAD"
 90
        0
280
         0
281
         0
  0
CLASS
  1
RASTERVARIABLES
  2
AcDbRasterVariables
  3
ISM
 90
        0
280
         0
281
         0
  0
CLASS
  1
IMAGEDEF
  2
AcDbRasterImageDef
  3
ISM
 90
        0
280
         0
281
         0
  0
CLASS
  1
IMAGEDEF_REACTOR
  2
AcDbRasterImageDefReactor
  3
ISM
 90
        1
280
         0
281
         0
  0
CLASS
  1
IDBUFFER
  2
AcDbIdBuffer
  3
"Acad"
 90
        0
280
         0
281
         0
  0
CLASS
  1
SPATIAL_FILTER
  2
AcDbSpatialFilter
  3
"Acad"
 90
        0
280
         0
281
         0
  0
CLASS
  1
XRECORD
  2
AcDbXrecord
  3
"<Built In>"
 90
        0
280
         0
281
         0
  0
CLASS
  1
SORTENTSTABLE
  2
AcDbSortentsTable
  3
"AutoCAD"
 90
        0
280
         0
281
         0
  0
CLASS
  1
LAYER_INDEX
  2
AcDbLayerIndex
  3
"Acad"
 90
        0
280
         0
281
         0
  0
CLASS
  1
SPATIAL_INDEX
  2
AcDbSpatialIndex
  3
"Acad"
 90
        0
280
         0
281
         0
  0
CLASS
  1
OBJECT_PTR
  2
CAseDLPNTableRecord
  3
"ASE-LPNTableRecord"
 90
        1
280
         0
281
         0
  0
CLASS
  1
LAYOUT
  2
AcDbLayout
  3
"AutoCAD 2000"
 90
        1
280
         0
281
         0
  0
CLASS
  1
PLOTSETTINGS
  2
AcDbPlotSettings
  3
"AutoCAD 2000"
 90
        1
280
         0
281
         0
  0
CLASS
  1
ACDBDICTIONARYWDFLT
  2
AcDbDictionaryWithDefault
  3
"AutoCAD 2000"
 90
        1
280
         0
281
         0
  0
CLASS
  1
ACDBPLACEHOLDER
  2
AcDbPlaceHolder
  3
"AutoCAD 2000"
 90
        1
280
         0
281
         0
  0
CLASS
  1
VBA_PROJECT
  2
AcDbVbaProject
  3
"acadvba"
 90
        1
280
         0
281
         0
  0
CLASS
  1
WIPEOUT
  2
AcDbWipeout
  3
WipeOut|AutoCAD Express Tool|expresstools@autodesk.com
 90
      127
280
         0
281
         1
  0
CLASS
  1
WIPEOUTVARIABLES
  2
AcDbWipeoutVariables
  3
WipeOut|AutoCAD Express Tool|expresstools@autodesk.com
 90
        0
280
         0
281
         0
  0
CLASS
  1
RTEXT
  2
RText
  3
RText|AutoCAD Express Tool|expresstools@autodesk.com
 90
        0
280
         0
281
         1
  0
CLASS
  1
ARCALIGNEDTEXT
  2
AcDbArcAlignedText
  3
ATEXT|AutoCAD Express Tool|expresstools@autodesk.com
 90
        0
280
         0
281
         1
  0
ENDSEC
  0
SECTION
  2
TABLES
  0
TABLE
  2
VPORT
  5
7
100
AcDbSymbolTable
 70
         1
  0
VPORT
  5
15
100
AcDbSymbolTableRecord
100
AcDbViewportTableRecord
  2
*ACTIVE
 70
         0
 10
0.0
 20
0.0
 11
1.0
 21
1.0
 12
6.591288
 22
4.579184
 13
0.0
 23
0.0
 14
1.0
 24
1.0
 15
0.0
 25
0.0
 16
0.0
 26
0.0
 36
1.0
 17
0.0
 27
0.0
 37
0.0
 40
9.158369
 41
0.688564
 42
50.0
 43
0.0
 44
0.0
 50
0.0
 51
0.0
 71
         0
 72
       100
 73
         1
 74
         1
 75
         0
 76
         0
 77
         0
 78
         0
281
         0
 65
         0
110
0.0
120
0.0
130
0.0
111
1.0
121
0.0
131
0.0
112
0.0
122
1.0
132
0.0
345
0
346
0
 79
         0
146
0.0
  0
ENDTAB
  0
TABLE
  2
LTYPE
  5
4
100
AcDbSymbolTable
 70
        13
  0
LTYPE
  5
11
100
AcDbSymbolTableRecord
100
AcDbLinetypeTableRecord
  2
ByBlock
 70
        64
  3

 72
        65
 73
         0
 40
0.0
  0
LTYPE
  5
12
100
AcDbSymbolTableRecord
100
AcDbLinetypeTableRecord
  2
ByLayer
 70
        64
  3

 72
        65
 73
         0
 40
0.0
  0
LTYPE
  5
13
100
AcDbSymbolTableRecord
100
AcDbLinetypeTableRecord
  2
Continuous
 70
        64
  3
Solid line
 72
        65
 73
         0
 40
0.0
  0
LTYPE
  5
24
100
AcDbSymbolTableRecord
100
AcDbLinetypeTableRecord
  2
DOT
 70
        64
  3
. . . . . . . . 
 72
        65
 73
         2
 40
1.0
 49
0.0
 74
         0
 49
-1.0
 74
         0
  0
LTYPE
  5
25
100
AcDbSymbolTableRecord
100
AcDbLinetypeTableRecord
  2
DASHED
 70
        64
  3
___  ___  ___  ___  
 72
        65
 73
         2
 40
4.0
 49
3.0
 74
         0
 49
-1.0
 74
         0
  0
LTYPE
  5
26
100
AcDbSymbolTableRecord
100
AcDbLinetypeTableRecord
  2
HIDDEN
 70
        64
  3
__ __ __ __ 
 72
        65
 73
         2
 40
3.0
 49
2.0
 74
         0
 49
-1.0
 74
         0
  0
LTYPE
  5
27
100
AcDbSymbolTableRecord
100
AcDbLinetypeTableRecord
  2
STITCH
 70
        64
  3
_ _ _ _ 
 72
        65
 73
         2
 40
2.0
 49
1.0
 74
         0
 49
-1.0
 74
         0
  0
LTYPE
  5
28
100
AcDbSymbolTableRecord
100
AcDbLinetypeTableRecord
  2
CENTER
 70
        64
  3
______  __  ______  __  
 72
        65
 73
         4
 40
43.0
 49
40.0
 74
         0
 49
-1.0
 74
         0
 49
1.0
 74
         0
 49
-1.0
 74
         0
  0
LTYPE
  5
29
100
AcDbSymbolTableRecord
100
AcDbLinetypeTableRecord
  2
DASHDOT
 70
        64
  3
____ . ____ . 
 72
        65
 73
         4
 40
32.0
 49
30.0
 74
         0
 49
-1.0
 74
         0
 49
0.0
 74
         0
 49
-1.0
 74
         0
  0
LTYPE
  5
2A
100
AcDbSymbolTableRecord
100
AcDbLinetypeTableRecord
  2
BORDER
 70
        64
  3
__ . __ . 
 72
        65
 73
         4
 40
22.0
 49
20.0
 74
         0
 49
-1.0
 74
         0
 49
0.0
 74
         0
 49
-1.0
 74
         0
  0
LTYPE
  5
2B
100
AcDbSymbolTableRecord
100
AcDbLinetypeTableRecord
  2
CUTTING
 70
        64
  3
________   ___   ___   
 72
        65
 73
         6
 40
45.0
 49
40.0
 74
         0
 49
-1.0
 74
         0
 49
1.0
 74
         0
 49
-1.0
 74
         0
 49
1.0
 74
         0
 49
-1.0
 74
         0
  0
LTYPE
  5
2C
100
AcDbSymbolTableRecord
100
AcDbLinetypeTableRecord
  2
PHANTOM
 70
        64
  3
______  __  __  
 72
        65
 73
         6
 40
35.0
 49
30.0
 74
         0
 49
-1.0
 74
         0
 49
1.0
 74
         0
 49
-1.0
 74
         0
 49
1.0
 74
         0
 49
-1.0
 74
         0
  0
LTYPE
  5
2D
100
AcDbSymbolTableRecord
100
AcDbLinetypeTableRecord
  2
DIVIDE
 70
        64
  3
____ . . ____ . . 
 72
        65
 73
         6
 40
23.0
 49
20.0
 74
         0
 49
-1.0
 74
         0
 49
0.0
 74
         0
 49
-1.0
 74
         0
 49
0.0
 74
         0
 49
-1.0
 74
         0
  0
ENDTAB
  0
TABLE
  2
LAYER
  5
2
100
AcDbSymbolTable
 70
         5
  0
LAYER
  5
14
100
AcDbSymbolTableRecord
100
AcDbLayerTableRecord
  2
0
 70
         0
 62
         7
  6
Continuous
290
         1
370
        -3
390
1D
  0
LAYER
  5
2E
100
AcDbSymbolTableRecord
100
AcDbLayerTableRecord
  2
LAYER1
 70
         0
 62
         7
  6
Continuous
290
         1
370
        -3
390
1F
  0
LAYER
  5
4D
100
AcDbSymbolTableRecord
100
AcDbLayerTableRecord
  2
LAYER4
 70
         0
 62
         7
  6
Continuous
290
         1
370
        -3
390
1F
  0
LAYER
  5
62
100
AcDbSymbolTableRecord
100
AcDbLayerTableRecord
  2
LAYER0
 70
         0
 62
         7
  6
Continuous
290
         1
370
        -3
390
1F
  0
LAYER
  5
64
100
AcDbSymbolTableRecord
100
AcDbLayerTableRecord
  2
LAYER3
 70
         0
 62
         7
  6
Continuous
290
         1
370
        -3
390
1F
  0
ENDTAB
  0
TABLE
  2
STYLE
  5
3
100
AcDbSymbolTable
 70
         1
  0
STYLE
  5
17
100
AcDbSymbolTableRecord
100
AcDbTextStyleTableRecord
  2
Standard
 70
         0
 40
0.0
 41
1.0
 50
0.0
 71
         0
 42
0.0
  3
txt
  4
extfont
  0
ENDTAB
  0
TABLE
  2
VIEW
  5
5
100
AcDbSymbolTable
 70
         0
  0
ENDTAB
  0
TABLE
  2
UCS
  5
6
100
AcDbSymbolTable
 70
         0
  0
ENDTAB
  0
TABLE
  2
APPID
  5
8
100
AcDbSymbolTable
 70
         1
  0
APPID
  5
16
100
AcDbSymbolTableRecord
100
AcDbRegAppTableRecord
  2
ACAD
 70
         0
  0
ENDTAB
  0
TABLE
  2
DIMSTYLE
  5
9
100
AcDbSymbolTable
 70
         1
100
AcDbDimStyleTable
 71
         0
  0
DIMSTYLE
105
18
100
AcDbSymbolTableRecord
100
AcDbDimStyleTableRecord
  2
Standard
 70
         0
  3

  4

 40
1.0
 41
0.18
 42
0.0625
 43
0.38
 44
0.18
 45
0.0
 46
0.0
 47
0.0
 48
0.0
 71
         0
 72
         0
 73
         1
 74
         1
 75
         0
 76
         0
 77
         0
 78
         0
 79
         0
140
0.18
141
0.09
142
0.0
143
25.4
144
1.0
145
0.0
146
1.0
147
0.09
148
0.0
170
         0
171
         2
172
         0
173
         0
174
         0
175
         0
176
         0
177
         0
178
         0
179
         0
271
         4
272
         4
273
         2
274
         2
275
         0
276
         0
277
         2
278
        46
279
         0
280
         0
281
         0
282
         0
283
         1
284
         0
285
         0
286
         0
288
         0
340
17
341
0
342
0
343
0
344
0
371
        -2
372
        -2
  0
ENDTAB
  0
TABLE
  2
BLOCK_RECORD
  5
1
100
AcDbSymbolTable
 70
         2
  0
BLOCK_RECORD
  5
A
100
AcDbSymbolTableRecord
100
AcDbBlockTableRecord
  2
*MODEL_SPACE
340
20
  0
BLOCK_RECORD
  5
B
100
AcDbSymbolTableRecord
100
AcDbBlockTableRecord
  2
*PAPER_SPACE
340
21
  0
BLOCK_RECORD
  5
159
100
AcDbSymbolTableRecord
100
AcDbBlockTableRecord
  2
CLUMP0
340
0
  0
BLOCK_RECORD
  5
15C
100
AcDbSymbolTableRecord
100
AcDbBlockTableRecord
  2
CLUMP1
340
0
  0
ENDTAB
  0
ENDSEC
  0
SECTION
  2
BLOCKS
  0
BLOCK
  5
D
100
AcDbEntity
  8
0
100
AcDbBlockBegin
  2
*MODEL_SPACE
 70
         0
 10
0.0
 20
0.0
 30
0.0
  3
*MODEL_SPACE
  1

  0
ENDBLK
  5
E
100
AcDbEntity
  8
0
100
AcDbBlockEnd
  0
BLOCK
  5
F
100
AcDbEntity
 67
         1
  8
0
100
AcDbBlockBegin
  2
*PAPER_SPACE
 70
         0
 10
0.0
 20
0.0
 30
0.0
  3
*PAPER_SPACE
  1

  0
ENDBLK
  5
10
100
AcDbEntity
 67
         1
  8
0
100
AcDbBlockEnd
  0
BLOCK
  5
15B
100
AcDbEntity
  8
0
100
AcDbBlockBegin
  2
CLUMP0
 70
         0
 10
0.0
 20
0.0
 30
0.0
  3

  1

  0
INSERT
  5
15D
100
AcDbEntity
  8
0
100
AcDbBlockReference
  2
CLUMP1
 10
0.0
 20
0.0
 30
0.0
  0
ENDBLK
  5
164
100
AcDbEntity
  8
0
100
AcDbBlockEnd
  0
BLOCK
  5
15E
100
AcDbEntity
  8
0
100
AcDbBlockBegin
  2
CLUMP1
 70
         0
 10
0.0
 20
0.0
 30
0.0
  3

  1

  0
MTEXT
  5
15F
100
AcDbEntity
  8
LAYER0
100
AcDbMText
 10
-51.4081779354
 20
-6.8909519974
 30
0.0
 40
2.8019390464
 41
8.3660330148
 71
         1
 72
         1
  1
\W0.8;φ46
 11
0.9100843085
 21
-0.4144231549
 31
0.0
  0
LINE
  5
160
100
AcDbEntity
  8
LAYER0
 62
         3
100
AcDbLine
 10
-66.6379271625
 20
-5.3694651337
 30
0.0
 11
-46.512869002
 21
-14.5337699351
 31
0.0
  0
LINE
  5
161
100
AcDbEntity
  8
LAYER0
 62
         3
100
AcDbLine
 10
-64.1037019173
 20
-5.836720317
 30
0.0
 11
-66.6379271625
 21
-5.3694651337
 31
0.0
  0
LINE
  5
162
100
AcDbEntity
  8
LAYER0
 62
         3
100
AcDbLine
 10
-66.6379271625
 20
-5.3694651337
 30
0.0
 11
-64.6217308559
 21
-6.9743257049
 31
0.0
  0
ENDBLK
  5
163
100
AcDbEntity
  8
0
100
AcDbBlockEnd
  0
ENDSEC
  0
SECTION
  2
ENTITIES
  0
LINE
  5
2F
100
AcDbEntity
  8
LAYER1
 62
         3
100
AcDbLine
 10
57.4246948518
 20
57.7488038257
 30
0.0
 11
57.1746948518
 21
57.7488038257
 31
0.0
  0
LINE
  5
30
100
AcDbEntity
  8
LAYER1
 62
         3
100
AcDbLine
 10
56.1746948518
 20
59.9988038257
 30
0.0
 11
57.4246948518
 21
59.9988038257
 31
0.0
  0
LINE
  5
31
100
AcDbEntity
  8
LAYER1
 62
         3
100
AcDbLine
 10
56.1746948518
 20
60.9988038257
 30
0.0
 11
62.4246948518
 21
60.9988038257
 31
0.0
  0
LINE
  5
32
100
AcDbEntity
  8
LAYER1
 62
         3
100
AcDbLine
 10
58.0246952332
 20
61.9988038257
 30
0.0
 11
62.0246952332
 21
61.9988038257
 31
0.0
  0
LINE
  5
33
100
AcDbEntity
  8
LAYER1
 62
         3
100
AcDbLine
 10
55.5246934451
 20
63.9988038257
 30
0.0
 11
55.4246948518
 21
64.0988024191
 31
0.0
  0
LINE
  5
34
100
AcDbEntity
  8
LAYER1
 62
         3
100
AcDbLine
 10
51.3246962584
 20
63.9988038257
 30
0.0
 11
51.4246948518
 21
64.0988024191
 31
0.0
  0
LINE
  5
35
100
AcDbEntity
  8
LAYER1
 62
         3
100
AcDbLine
 10
55.4246948518
 20
64.0988024191
 30
0.0
 11
51.4246948518
 21
64.0988024191
 31
0.0
  0
LINE
  5
36
100
AcDbEntity
  8
LAYER1
 62
         3
100
AcDbLine
 10
49.6746948518
 20
57.7488038257
 30
0.0
 11
49.4246948518
 21
57.7488038257
 31
0.0
  0
LINE
  5
37
100
AcDbEntity
  8
LAYER1
 62
         3
100
AcDbLine
 10
49.4246948518
 20
59.9988038257
 30
0.0
 11
50.6746948518
 21
59.9988038257
 31
0.0
  0
LINE
  5
38
100
AcDbEntity
  8
LAYER1
 62
         3
100
AcDbLine
 10
48.8246944703
 20
60.9988038257
 30
0.0
 11
48.8246944703
 21
61.9988038257
 31
0.0
  0
LINE
  5
39
100
AcDbEntity
  8
LAYER1
 62
         3
100
AcDbLine
 10
49.6746948518
 20
59.4988038257
 30
0.0
 11
50.6746948518
 21
59.4988038257
 31
0.0
  0
LINE
  5
3A
100
AcDbEntity
  8
LAYER1
 62
         3
100
AcDbLine
 10
50.6746948518
 20
63.9988038257
 30
0.0
 11
56.1746948518
 21
63.9988038257
 31
0.0
  0
LINE
  5
3B
100
AcDbEntity
  8
LAYER1
 62
         3
100
AcDbLine
 10
62.4246948518
 20
51.9988038257
 30
0.0
 11
62.9246948518
 21
52.4988038257
 31
0.0
  0
LINE
  5
3C
100
AcDbEntity
  8
LAYER1
 62
         3
100
AcDbLine
 10
57.4246948518
 20
55.2488038257
 30
0.0
 11
57.1746948518
 21
55.2488038257
 31
0.0
  0
LINE
  5
3D
100
AcDbEntity
  8
LAYER1
 62
         3
100
AcDbLine
 10
56.1746948518
 20
53.4988038257
 30
0.0
 11
57.1746948518
 21
53.4988038257
 31
0.0
  0
LINE
  5
3E
100
AcDbEntity
  8
LAYER1
 62
         3
100
AcDbLine
 10
57.4246948518
 20
51.9988038257
 30
0.0
 11
62.4246948518
 21
51.9988038257
 31
0.0
  0
LINE
  5
3F
100
AcDbEntity
  8
LAYER1
 62
         3
100
AcDbLine
 10
57.4246948518
 20
47.4849250034
 30
0.0
 11
57.4246948518
 21
50.9988033489
 31
0.0
  0
ARC
  5
40
100
AcDbEntity
  8
LAYER1
 62
         3
100
AcDbCircle
 10
57.1746948518
 20
47.0080280021
 30
0.0
 40
1.0
210
0.0
220
0.0
230
1.0
100
AcDbArc
 50
180.0
 51
233.9726223153
  0
LINE
  5
41
100
AcDbEntity
  8
LAYER1
 62
         3
100
AcDbLine
 10
56.1746948518
 20
47.4849250034
 30
0.0
 11
56.1746948518
 21
47.0080280021
 31
0.0
  0
LINE
  5
42
100
AcDbEntity
  8
LAYER1
 62
         3
100
AcDbLine
 10
56.1746948518
 20
47.4849250034
 30
0.0
 11
57.4246948518
 21
47.4849250034
 31
0.0
  0
LINE
  5
43
100
AcDbEntity
  8
LAYER1
 62
         3
100
AcDbLine
 10
57.4246948518
 20
50.9988033489
 30
0.0
 11
56.1746948518
 21
50.9988033489
 31
0.0
  0
LINE
  5
44
100
AcDbEntity
  8
LAYER1
 62
         3
100
AcDbLine
 10
56.1746948518
 20
53.4988038257
 30
0.0
 11
56.1746948518
 21
50.9988033489
 31
0.0
  0
LINE
  5
45
100
AcDbEntity
  8
LAYER1
 62
         3
100
AcDbLine
 10
49.6746948518
 20
55.2488038257
 30
0.0
 11
49.4246948518
 21
55.2488038257
 31
0.0
  0
LINE
  5
46
100
AcDbEntity
  8
LAYER1
 62
         3
100
AcDbLine
 10
62.0246952332
 20
60.9988038257
 30
0.0
 11
62.0246952332
 21
61.9988038257
 31
0.0
  0
LINE
  5
47
100
AcDbEntity
  8
LAYER1
 62
         3
100
AcDbLine
 10
62.4246948518
 20
60.9988038257
 30
0.0
 11
62.9246948518
 21
60.4988038257
 31
0.0
  0
LINE
  5
48
100
AcDbEntity
  8
LAYER1
 62
         3
100
AcDbLine
 10
49.4246948518
 20
47.4849250034
 30
0.0
 11
50.6746948518
 21
47.4849250034
 31
0.0
  0
LINE
  5
49
100
AcDbEntity
  8
LAYER1
 62
         3
100
AcDbLine
 10
50.6746948518
 20
47.4849250034
 30
0.0
 11
50.6746948518
 21
47.0080280021
 31
0.0
  0
ARC
  5
4A
100
AcDbEntity
  8
LAYER1
 62
         3
100
AcDbCircle
 10
49.6746948518
 20
47.0080280021
 30
0.0
 40
1.0
210
-0.0
220
0.0
230
1.0
100
AcDbArc
 50
306.0273715437
 51
0.0
  0
LINE
  5
4B
100
AcDbEntity
  8
LAYER1
 62
         3
100
AcDbLine
 10
50.6746948518
 20
50.9988033489
 30
0.0
 11
49.4246948518
 21
50.9988033489
 31
0.0
  0
LINE
  5
4C
100
AcDbEntity
  8
LAYER1
 62
         3
100
AcDbLine
 10
50.6746948518
 20
53.4988038257
 30
0.0
 11
50.6746948518
 21
50.9988033489
 31
0.0
  0
LINE
  5
4E
100
AcDbEntity
  8
LAYER4
 62
         4
100
AcDbLine
 10
50.8435721755
 20
46.4988038257
 30
0.0
 11
55.9511589868
 21
46.4988038257
 31
0.0
  0
LINE
  5
4F
100
AcDbEntity
  8
LAYER1
 62
         3
100
AcDbLine
 10
50.6746948518
 20
52.9988038257
 30
0.0
 11
56.1746948518
 21
52.9988038257
 31
0.0
  0
LINE
  5
50
100
AcDbEntity
  8
LAYER1
 62
         3
100
AcDbLine
 10
49.4246948518
 20
51.9988038257
 30
0.0
 11
49.4246948518
 21
60.9988038257
 31
0.0
  0
LINE
  5
51
100
AcDbEntity
  8
LAYER1
 62
         3
100
AcDbLine
 10
50.6746948518
 20
52.9988038257
 30
0.0
 11
50.6746948518
 21
63.9988038257
 31
0.0
  0
LINE
  5
52
100
AcDbEntity
  8
LAYER1
 62
         3
100
AcDbLine
 10
56.1746948518
 20
63.9988038257
 30
0.0
 11
56.1746948518
 21
52.9988038257
 31
0.0
  0
LINE
  5
53
100
AcDbEntity
  8
LAYER1
 62
         3
100
AcDbLine
 10
57.1746948518
 20
53.4988038257
 30
0.0
 11
57.1746948518
 21
59.4988038257
 31
0.0
  0
LINE
  5
54
100
AcDbEntity
  8
LAYER1
 62
         3
100
AcDbLine
 10
49.6746948518
 20
59.4988038257
 30
0.0
 11
49.6746948518
 21
53.4988038257
 31
0.0
  0
LINE
  5
55
100
AcDbEntity
  8
LAYER1
 62
         3
100
AcDbLine
 10
57.4246948518
 20
51.9988038257
 30
0.0
 11
57.4246948518
 21
60.9988038257
 31
0.0
  0
LINE
  5
56
100
AcDbEntity
  8
LAYER1
 62
         3
100
AcDbLine
 10
62.9246948518
 20
60.4988038257
 30
0.0
 11
62.9246948518
 21
52.4988038257
 31
0.0
  0
LINE
  5
57
100
AcDbEntity
  8
LAYER1
 62
         3
100
AcDbLine
 10
44.8246944703
 20
60.9988038257
 30
0.0
 11
44.8246944703
 21
61.9988038257
 31
0.0
  0
LINE
  5
58
100
AcDbEntity
  8
LAYER1
 62
         3
100
AcDbLine
 10
44.4246948518
 20
60.9988038257
 30
0.0
 11
43.9246948518
 21
60.4988038257
 31
0.0
  0
LINE
  5
59
100
AcDbEntity
  8
LAYER1
 62
         3
100
AcDbLine
 10
44.4246948518
 20
51.9988038257
 30
0.0
 11
43.9246948518
 21
52.4988038257
 31
0.0
  0
LINE
  5
5A
100
AcDbEntity
  8
LAYER1
 62
         3
100
AcDbLine
 10
43.9246948518
 20
60.4988038257
 30
0.0
 11
43.9246948518
 21
52.4988038257
 31
0.0
  0
LINE
  5
5B
100
AcDbEntity
  8
LAYER1
 62
         3
100
AcDbLine
 10
50.6746948518
 20
60.9988038257
 30
0.0
 11
44.4246948518
 21
60.9988038257
 31
0.0
  0
LINE
  5
5C
100
AcDbEntity
  8
LAYER1
 62
         3
100
AcDbLine
 10
49.4246948518
 20
51.9988038257
 30
0.0
 11
44.4246948518
 21
51.9988038257
 31
0.0
  0
LINE
  5
5D
100
AcDbEntity
  8
LAYER1
 62
         3
100
AcDbLine
 10
48.8246944703
 20
61.9988038257
 30
0.0
 11
44.8246944703
 21
61.9988038257
 31
0.0
  0
ARC
  5
5E
100
AcDbEntity
  8
LAYER1
 62
         3
100
AcDbCircle
 10
57.8758972443
 20
44.025068076
 30
0.0
 40
1.0
210
-0.0
220
0.0
230
1.0
100
AcDbArc
 50
354.6441747744
 51
53.9726284563
  0
ARC
  5
5F
100
AcDbEntity
  8
LAYER1
 62
         3
100
AcDbCircle
 10
48.9734924592
 20
44.025068076
 30
0.0
 40
1.0
210
0.0
220
0.0
230
1.0
100
AcDbArc
 50
126.0273776847
 51
185.3558190846
  0
LINE
  5
60
100
AcDbEntity
  8
LAYER1
 62
         3
100
AcDbLine
 10
58.0246952332
 20
60.9988038257
 30
0.0
 11
58.0246952332
 21
61.9988038257
 31
0.0
  0
LINE
  5
61
100
AcDbEntity
  8
LAYER1
 62
         3
100
AcDbLine
 10
56.1746948518
 20
59.4988038257
 30
0.0
 11
57.1746948518
 21
59.4988038257
 31
0.0
  0
LINE
  5
63
100
AcDbEntity
  8
LAYER0
 62
         3
100
AcDbLine
 10
95.0
 20
-138.5
 30
0.0
 11
95.0
 21
-125.5
 31
0.0
  0
LINE
  5
65
100
AcDbEntity
  8
LAYER3
 62
         4
100
AcDbLine
 10
3.3244974211
 20
-37.9011976048
 30
0.0
 11
2.7007623487
 21
-34.9667548026
 31
0.0
  0
LINE
  5
66
100
AcDbEntity
  8
LAYER3
 62
         4
100
AcDbLine
 10
3.3244974211
 20
-37.9011976048
 30
0.0
 11
3.9482324936
 21
-34.9667548026
 31
0.0
  0
ARC
  5
67
100
AcDbEntity
  8
LAYER1
 62
         3
100
AcDbCircle
 10
53.4246948518
 20
-35.4011976048
 30
0.0
 40
2.5
210
-0.0
220
0.0
230
1.0
100
AcDbArc
 50
198.5789838018
 51
0.0
  0
LINE
  5
68
100
AcDbEntity
  8
LAYER3
 62
         4
100
AcDbLine
 10
3.3244974211
 20
63.9988052324
 30
0.0
 11
3.9482324936
 21
61.0643624302
 31
0.0
  0
LINE
  5
69
100
AcDbEntity
  8
LAYER3
 62
         4
100
AcDbLine
 10
3.3244974211
 20
63.9988052324
 30
0.0
 11
2.7007623487
 21
61.0643624302
 31
0.0
  0
LINE
  5
6A
100
AcDbEntity
  8
LAYER1
 62
         3
100
AcDbLine
 10
53.9246948518
 20
28.0988038257
 30
0.0
 11
53.9246948518
 21
26.0988038257
 31
0.0
  0
LINE
  5
6B
100
AcDbEntity
  8
LAYER1
 62
         3
100
AcDbLine
 10
52.9246948518
 20
26.0988038257
 30
0.0
 11
52.9246948518
 21
28.0988038257
 31
0.0
  0
ARC
  5
6C
100
AcDbEntity
  8
LAYER1
 62
         3
100
AcDbCircle
 10
54.4246948518
 20
27.0988038257
 30
0.0
 40
1.0
210
0.0
220
0.0
230
1.0
100
AcDbArc
 50
269.9999969296
 51
90.0000030704
  0
LINE
  5
6D
100
AcDbEntity
  8
LAYER1
 62
         3
100
AcDbLine
 10
52.4246948518
 20
26.0988038257
 30
0.0
 11
54.4246948518
 21
26.0988038257
 31
0.0
  0
LINE
  5
6E
100
AcDbEntity
  8
LAYER1
 62
         3
100
AcDbLine
 10
52.4246948518
 20
28.0988038257
 30
0.0
 11
54.4246948518
 21
28.0988038257
 31
0.0
  0
LINE
  5
6F
100
AcDbEntity
  8
LAYER1
 62
         3
100
AcDbLine
 10
52.4246948518
 20
28.0988038257
 30
0.0
 11
54.4246948518
 21
28.0988038257
 31
0.0
  0
ARC
  5
70
100
AcDbEntity
  8
LAYER1
 62
         3
100
AcDbCircle
 10
52.4246948518
 20
27.0988038257
 30
0.0
 40
1.0
210
0.0
220
0.0
230
1.0
100
AcDbArc
 50
90.0000030704
 51
269.9999969296
  0
ARC
  5
71
100
AcDbEntity
  8
LAYER1
 62
         3
100
AcDbCircle
 10
50.3353279389
 20
29.4988038257
 30
0.0
 40
1.0
210
0.0
220
0.0
230
1.0
100
AcDbArc
 50
185.3558190846
 51
269.9999969296
  0
LINE
  5
72
100
AcDbEntity
  8
LAYER1
 62
         3
100
AcDbLine
 10
50.3353279389
 20
28.4988038257
 30
0.0
 11
56.5140579499
 21
28.4988038257
 31
0.0
  0
LINE
  5
73
100
AcDbEntity
  8
LAYER1
 62
         3
100
AcDbLine
 10
47.9778564729
 20
43.9317273215
 30
0.0
 11
49.3396957673
 21
29.405462952
 31
0.0
  0
LINE
  5
74
100
AcDbEntity
  8
LAYER1
 62
         3
100
AcDbLine
 10
58.871529416
 20
43.9317273215
 30
0.0
 11
57.5096939362
 21
29.405462952
 31
0.0
  0
CIRCLE
  5
75
100
AcDbEntity
  8
LAYER1
 62
         3
100
AcDbCircle
 10
38.4246948518
 20
9.2245290951
 30
0.0
 40
2.5
210
0.0
220
0.0
230
1.0
  0
CIRCLE
  5
76
100
AcDbEntity
  8
LAYER1
 62
         3
100
AcDbCircle
 10
38.0321968354
 20
9.7423723415
 30
0.0
 40
1.8225261762
210
0.0
220
0.0
230
1.0
  0
LINE
  5
77
100
AcDbEntity
  8
LAYER1
 62
         3
100
AcDbLine
 10
50.2628639497
 20
46.1992919162
 30
0.0
 11
48.3853195466
 21
44.8338041321
 31
0.0
  0
LINE
  5
78
100
AcDbEntity
  8
LAYER1
 62
         3
100
AcDbLine
 10
56.5865219392
 20
46.1992919162
 30
0.0
 11
58.4640663422
 21
44.8338041321
 31
0.0
  0
LINE
  5
79
100
AcDbEntity
  8
LAYER1
 62
         3
100
AcDbLine
 10
49.6746948518
 20
53.4988038257
 30
0.0
 11
50.6746948518
 21
53.4988038257
 31
0.0
  0
LINE
  5
7A
100
AcDbEntity
  8
LAYER1
 62
         3
100
AcDbLine
 10
49.4246948518
 20
50.9988033489
 30
0.0
 11
49.4246948518
 21
47.4849250034
 31
0.0
  0
LINE
  5
7B
100
AcDbEntity
  8
LAYER4
 62
         4
100
AcDbLine
 10
48.4461334682
 20
44.4988038257
 30
0.0
 11
58.2964794613
 21
44.4988038257
 31
0.0
  0
ARC
  5
7C
100
AcDbEntity
  8
LAYER1
 62
         3
100
AcDbCircle
 10
56.5140579499
 20
29.4988038257
 30
0.0
 40
1.0
210
0.0
220
0.0
230
1.0
100
AcDbArc
 50
269.9999969296
 51
354.6441747744
  0
LINE
  5
7D
100
AcDbEntity
  8
LAYER1
 62
         3
100
AcDbLine
 10
-34.2059861166
 20
33.9988052324
 30
0.0
 11
-34.2059861166
 21
37.4988052324
 31
0.0
  0
LINE
  5
7E
100
AcDbEntity
  8
LAYER1
 62
         3
100
AcDbLine
 10
-33.9059868796
 20
37.4988052324
 30
0.0
 11
-33.9059868796
 21
33.9988052324
 31
0.0
  0
LINE
  5
7F
100
AcDbEntity
  8
LAYER1
 62
         3
100
AcDbLine
 10
-38.2059861166
 20
35.3681013063
 30
0.0
 11
-37.7261448843
 21
35.5086442903
 31
0.0
  0
LINE
  5
80
100
AcDbEntity
  8
LAYER1
 62
         3
100
AcDbLine
 10
-37.7261448843
 20
35.5086442903
 30
0.0
 11
-37.5777646048
 21
35.0020439104
 31
0.0
  0
LINE
  5
81
100
AcDbEntity
  8
LAYER1
 62
         3
100
AcDbLine
 10
-35.7059861166
 20
36.3924428896
 30
0.0
 11
-35.7059861166
 21
35.1988050417
 31
0.0
  0
LINE
  5
82
100
AcDbEntity
  8
LAYER1
 62
         3
100
AcDbLine
 10
-36.2059861166
 20
36.1924430803
 30
0.0
 11
-36.2059861166
 21
35.1988050417
 31
0.0
  0
LINE
  5
83
100
AcDbEntity
  8
LAYER1
 62
         3
100
AcDbLine
 10
-39.7059861166
 20
33.9988052324
 30
0.0
 11
-39.7059861166
 21
38.9988052324
 31
0.0
  0
LINE
  5
84
100
AcDbEntity
  8
LAYER1
 62
         3
100
AcDbLine
 10
-39.2059861166
 20
38.9988052324
 30
0.0
 11
-39.2059861166
 21
33.9988052324
 31
0.0
  0
ARC
  5
85
100
AcDbEntity
  8
LAYER1
 62
         3
100
AcDbCircle
 10
-57.705988024
 20
36.4988052324
 30
0.0
 40
5.5
210
0.0
220
0.0
230
1.0
100
AcDbArc
 50
180.0
 51
269.9999969296
  0
ARC
  5
86
100
AcDbEntity
  8
LAYER1
 62
         3
100
AcDbCircle
 10
-57.705988024
 20
36.4988052324
 30
0.0
 40
6.5
210
0.0
220
0.0
230
1.0
100
AcDbArc
 50
180.0
 51
269.9999969296
  0
LINE
  5
87
100
AcDbEntity
  8
LAYER1
 62
         3
100
AcDbLine
 10
-50.205988024
 20
41.9988047556
 30
0.0
 11
-50.205988024
 21
30.9988052324
 31
0.0
  0
ARC
  5
88
100
AcDbEntity
  8
LAYER1
 62
         3
100
AcDbCircle
 10
-36.205988024
 20
13.5549104885
 30
0.0
 40
12.0
210
0.0
220
0.0
230
1.0
100
AcDbArc
 50
230.5132036432
 51
251.5385380029
  0
LINE
  5
89
100
AcDbEntity
  8
LAYER1
 62
         3
100
AcDbLine
 10
-35.7371350272
 20
11.7245290951
 30
0.0
 11
-34.4028721793
 21
6.9058416561
 31
0.0
  0
MTEXT
  5
8A
100
AcDbEntity
  8
LAYER3
100
AcDbMText
 10
-8.652361879
 20
7.1488037391
 30
0.0
 40
2.1473683357
 41
2.5646459961
 71
         1
 72
         1
  1
\W0.8;85
 11
-0.0000000268
 21
1.0
 31
0.0
  0
LINE
  5
8B
100
AcDbEntity
  8
LAYER3
 62
         4
100
AcDbLine
 10
-4.8647031876
 20
51.9988052324
 30
0.0
 11
-4.2409681152
 21
49.0643624302
 31
0.0
  0
LINE
  5
8C
100
AcDbEntity
  8
LAYER3
 62
         4
100
AcDbLine
 10
-4.8647031876
 20
51.9988052324
 30
0.0
 11
-5.4884382601
 21
49.0643624302
 31
0.0
  0
LINE
  5
8D
100
AcDbEntity
  8
LAYER3
 62
         4
100
AcDbLine
 10
-27.2059861166
 20
51.9988052324
 30
0.0
 11
-3.8647031876
 21
51.9988052324
 31
0.0
  0
MTEXT
  5
8E
100
AcDbEntity
  8
LAYER3
100
AcDbMText
 10
-48.1059875471
 20
78.5949111665
 30
0.0
 40
2.1473683357
 41
2.5646459961
 71
         1
 72
         1
  1
\W0.8;65
  0
LINE
  5
8F
100
AcDbEntity
  8
LAYER3
 62
         4
100
AcDbLine
 10
-13.2059870703
 20
74.8072524751
 30
0.0
 11
-16.1404298725
 21
74.1835174026
 31
0.0
  0
MTEXT
  5
90
100
AcDbEntity
  8
LAYER0
100
AcDbMText
 10
27.3808602544
 20
-132.8866032766
 30
0.0
 40
2.4737683892
 41
17.7268336013
 71
         1
 72
         1
  1
\W0.8;点滴ランナー
  0
MTEXT
  5
91
100
AcDbEntity
  8
LAYER0
100
AcDbMText
 10
69.2920019132
 20
-133.1354167344
 30
0.0
 40
2.4737683892
 41
8.8634168007
 71
         1
 72
         1
  1
\W0.8;D51057
  0
LINE
  5
92
100
AcDbEntity
  8
LAYER0
 62
         3
100
AcDbLine
 10
60.0
 20
-125.5
 30
0.0
 11
60.0
 21
-138.5
 31
0.0
  0
MTEXT
  5
93
100
AcDbEntity
  8
LAYER0
100
AcDbMText
 10
72.5158633528
 20
-126.7970201517
 30
0.0
 40
2.1473683357
 41
10.2585839844
 71
         1
 72
         1
  1
\W0.8;管理図番
  0
MTEXT
  5
94
100
AcDbEntity
  8
LAYER0
100
AcDbMText
 10
32.0542682872
 20
-126.7970201517
 30
0.0
 40
2.1473683357
 41
7.6538653946
 71
         1
 72
         1
  1
\W0.8;品　名
  0
LINE
  5
95
100
AcDbEntity
  8
LAYER0
 62
         3
100
AcDbLine
 10
10.0
 20
-138.5
 30
0.0
 11
10.0
 21
-125.5
 31
0.0
  0
LINE
  5
96
100
AcDbEntity
  8
LAYER1
 62
         3
100
AcDbLine
 10
-50.205988024
 20
30.9988052324
 30
0.0
 11
-57.705988024
 21
30.9988052324
 31
0.0
  0
LINE
  5
97
100
AcDbEntity
  8
LAYER1
 62
         3
100
AcDbLine
 10
-48.705988024
 20
28.0988038257
 30
0.0
 11
-46.705988024
 21
28.0988038257
 31
0.0
  0
LINE
  5
98
100
AcDbEntity
  8
LAYER1
 62
         3
100
AcDbLine
 10
-48.705988024
 20
26.0988038257
 30
0.0
 11
-48.705988024
 21
28.0988038257
 31
0.0
  0
LINE
  5
99
100
AcDbEntity
  8
LAYER1
 62
         3
100
AcDbLine
 10
-46.705988024
 20
26.0988038257
 30
0.0
 11
-48.705988024
 21
26.0988038257
 31
0.0
  0
LINE
  5
9A
100
AcDbEntity
  8
LAYER1
 62
         3
100
AcDbLine
 10
-46.705988024
 20
28.0988038257
 30
0.0
 11
-46.705988024
 21
26.0988038257
 31
0.0
  0
CIRCLE
  5
9B
100
AcDbEntity
  8
LAYER1
 62
         3
100
AcDbCircle
 10
-28.2059861166
 20
56.4988052324
 30
0.0
 40
4.0
210
0.0
220
0.0
230
1.0
  0
CIRCLE
  5
9C
100
AcDbEntity
  8
LAYER1
 62
         3
100
AcDbCircle
 10
-28.2059861166
 20
56.4988052324
 30
0.0
 40
4.5
210
0.0
220
0.0
230
1.0
  0
LINE
  5
9D
100
AcDbEntity
  8
LAYER1
 62
         3
100
AcDbLine
 10
-18.7059870703
 20
62.9988052324
 30
0.0
 11
-32.4699192984
 21
62.9988052324
 31
0.0
  0
CIRCLE
  5
9E
100
AcDbEntity
  8
LAYER1
 62
         3
100
AcDbCircle
 10
-28.2059861166
 20
56.4988052324
 30
0.0
 40
3.0
210
0.0
220
0.0
230
1.0
  0
LINE
  5
9F
100
AcDbEntity
  8
LAYER1
 62
         3
100
AcDbLine
 10
-18.7059870703
 20
63.9988052324
 30
0.0
 11
-32.4699192984
 21
63.9988052324
 31
0.0
  0
LINE
  5
A0
100
AcDbEntity
  8
LAYER1
 62
         3
100
AcDbLine
 10
-48.205988024
 20
28.4988052324
 30
0.0
 11
-48.205988024
 21
28.0988038257
 31
0.0
  0
LINE
  5
A1
100
AcDbEntity
  8
LAYER1
 62
         3
100
AcDbLine
 10
-43.205988024
 20
28.4988052324
 30
0.0
 11
-43.205988024
 21
28.0988038257
 31
0.0
  0
LINE
  5
A2
100
AcDbEntity
  8
LAYER1
 62
         3
100
AcDbLine
 10
-33.9059868796
 20
33.9988052324
 30
0.0
 11
-34.2059861166
 21
33.9988052324
 31
0.0
  0
ARC
  5
A3
100
AcDbEntity
  8
LAYER1
 62
         3
100
AcDbCircle
 10
-36.9059868796
 20
35.1988050417
 30
0.0
 40
0.7
210
-0.0
220
0.0
230
1.0
100
AcDbArc
 50
196.3250894753
 51
0.0
  0
LINE
  5
A4
100
AcDbEntity
  8
LAYER3
 62
         4
100
AcDbLine
 10
-13.2059870703
 20
74.8072524751
 30
0.0
 11
-16.1404298725
 21
75.4309875475
 31
0.0
  0
LINE
  5
A5
100
AcDbEntity
  8
LAYER3
 62
         4
100
AcDbLine
 10
-78.205988024
 20
74.8072524751
 30
0.0
 11
-75.2715452218
 21
75.4309875475
 31
0.0
  0
LINE
  5
A6
100
AcDbEntity
  8
LAYER3
 62
         4
100
AcDbLine
 10
-78.205988024
 20
74.8072524751
 30
0.0
 11
-75.2715452218
 21
74.1835174026
 31
0.0
  0
LINE
  5
A7
100
AcDbEntity
  8
LAYER3
 62
         4
100
AcDbLine
 10
-78.205988024
 20
74.8072524751
 30
0.0
 11
-13.2059870703
 21
74.8072524751
 31
0.0
  0
LINE
  5
A8
100
AcDbEntity
  8
LAYER3
 62
         4
100
AcDbLine
 10
-13.2059870703
 20
59.4988052324
 30
0.0
 11
-13.2059870703
 21
75.8072524751
 31
0.0
  0
LINE
  5
A9
100
AcDbEntity
  8
LAYER3
 62
         4
100
AcDbLine
 10
-78.205988024
 20
59.4988052324
 30
0.0
 11
-78.205988024
 21
75.8072524751
 31
0.0
  0
CIRCLE
  5
AA
100
AcDbEntity
  8
LAYER1
 62
         3
100
AcDbCircle
 10
-30.7059861166
 20
35.2988044695
 30
0.0
 40
0.7
210
0.0
220
0.0
230
1.0
  0
ARC
  5
AB
100
AcDbEntity
  8
LAYER1
 62
         3
100
AcDbCircle
 10
-30.7059861166
 20
35.2988044695
 30
0.0
 40
1.0
210
0.0
220
0.0
230
1.0
100
AcDbArc
 50
334.2687968458
 51
288.6957992918
  0
LINE
  5
AC
100
AcDbEntity
  8
LAYER1
 62
         3
100
AcDbLine
 10
-32.5403672201
 20
33.9988052324
 30
0.0
 11
-33.2927838309
 21
35.5272504762
 31
0.0
  0
LINE
  5
AD
100
AcDbEntity
  8
LAYER1
 62
         3
100
AcDbLine
 10
-32.9981366141
 20
35.6079637483
 30
0.0
 11
-32.2059861166
 21
33.9988052324
 31
0.0
  0
LINE
  5
AE
100
AcDbEntity
  8
LAYER1
 62
         3
100
AcDbLine
 10
-33.9059868796
 20
35.3592740968
 30
0.0
 11
-33.2927838309
 21
35.5272504762
 31
0.0
  0
LINE
  5
AF
100
AcDbEntity
  8
LAYER1
 62
         3
100
AcDbLine
 10
-30.1501046164
 20
34.1488830522
 30
0.0
 11
-29.8051453574
 21
34.8646547273
 31
0.0
  0
LINE
  5
B0
100
AcDbEntity
  8
LAYER1
 62
         3
100
AcDbLine
 10
-30.6480446799
 20
33.1156808809
 30
0.0
 11
-30.3152771933
 21
33.8061553911
 31
0.0
  0
LINE
  5
B1
100
AcDbEntity
  8
LAYER1
 62
         3
100
AcDbLine
 10
-32.5403672201
 20
33.9988052324
 30
0.0
 11
-32.2059861166
 21
33.9988052324
 31
0.0
  0
LINE
  5
B2
100
AcDbEntity
  8
LAYER1
 62
         3
100
AcDbLine
 10
-63.205988024
 20
41.9988047556
 30
0.0
 11
-50.205988024
 21
41.9988047556
 31
0.0
  0
LINE
  5
B3
100
AcDbEntity
  8
LAYER1
 62
         3
100
AcDbLine
 10
-49.205988024
 20
42.9988047556
 30
0.0
 11
-64.205988024
 21
42.9988047556
 31
0.0
  0
LINE
  5
B4
100
AcDbEntity
  8
LAYER1
 62
         3
100
AcDbLine
 10
-49.205988024
 20
42.9988047556
 30
0.0
 11
-49.205988024
 21
29.9988052324
 31
0.0
  0
ARC
  5
B5
100
AcDbEntity
  8
LAYER1
 62
         3
100
AcDbCircle
 10
-33.7059861166
 20
36.4988052324
 30
0.0
 40
5.5
210
-0.0
220
0.0
230
1.0
100
AcDbArc
 50
269.9999969296
 51
0.0
  0
ARC
  5
B6
100
AcDbEntity
  8
LAYER1
 62
         3
100
AcDbCircle
 10
-33.7059861166
 20
36.4988052324
 30
0.0
 40
6.5
210
-0.0
220
0.0
230
1.0
100
AcDbArc
 50
269.9999969296
 51
0.0
  0
ARC
  5
B7
100
AcDbEntity
  8
LAYER1
 62
         3
100
AcDbCircle
 10
-57.705988024
 20
36.4988052324
 30
0.0
 40
8.0
210
0.0
220
0.0
230
1.0
100
AcDbArc
 50
180.0
 51
269.9999969296
  0
ARC
  5
B8
100
AcDbEntity
  8
LAYER1
 62
         3
100
AcDbCircle
 10
-33.7059861166
 20
36.4988052324
 30
0.0
 40
8.0
210
-0.0
220
0.0
230
1.0
100
AcDbArc
 50
269.9999969296
 51
0.0
  0
ARC
  5
B9
100
AcDbEntity
  8
LAYER1
 62
         3
100
AcDbCircle
 10
-36.205988024
 20
13.5549104885
 30
0.0
 40
12.0
210
0.0
220
0.0
230
1.0
100
AcDbArc
 50
180.0
 51
204.5346002945
  0
ARC
  5
BA
100
AcDbEntity
  8
LAYER1
 62
         3
100
AcDbCircle
 10
-36.205988024
 20
13.5549104885
 30
0.0
 40
7.0
210
0.0
220
0.0
230
1.0
100
AcDbArc
 50
180.0
 51
211.1338325931
  0
LINE
  5
BB
100
AcDbEntity
  8
LAYER1
 62
         3
100
AcDbLine
 10
-51.8435841544
 20
7.2647665218
 30
0.0
 11
-35.7371350272
 21
11.7245290951
 31
0.0
  0
LINE
  5
BC
100
AcDbEntity
  8
LAYER1
 62
         3
100
AcDbLine
 10
-50.5093251212
 20
2.4460790828
 30
0.0
 11
-34.4028721793
 21
6.9058416561
 31
0.0
  0
CIRCLE
  5
BD
100
AcDbEntity
  8
LAYER1
 62
         3
100
AcDbCircle
 10
-63.205988024
 20
56.4988052324
 30
0.0
 40
3.0
210
0.0
220
0.0
230
1.0
  0
ARC
  5
BE
100
AcDbEntity
  8
LAYER1
 62
         3
100
AcDbCircle
 10
-72.705988024
 20
58.4988052324
 30
0.0
 40
4.5
210
-0.0
220
-0.0
230
1.0
100
AcDbArc
 50
90.0000030704
 51
277.6192916329
  0
LINE
  5
BF
100
AcDbEntity
  8
LAYER1
 62
         3
100
AcDbLine
 10
-33.705988024
 20
8.136430569
 30
0.0
 11
-34.5065442068
 21
11.0276430324
 31
0.0
  0
LINE
  5
C0
100
AcDbEntity
  8
LAYER1
 62
         3
100
AcDbLine
 10
-35.7371350272
 20
11.7245290951
 30
0.0
 11
-34.5065442068
 21
11.0276430324
 31
0.0
  0
LINE
  5
C1
100
AcDbEntity
  8
LAYER1
 62
         3
100
AcDbLine
 10
-34.4028721793
 20
6.9058416561
 30
0.0
 11
-33.705988024
 21
8.136430569
 31
0.0
  0
LINE
  5
C2
100
AcDbEntity
  8
LAYER1
 62
         3
100
AcDbLine
 10
-43.205988024
 20
28.4988052324
 30
0.0
 11
-33.7059861166
 21
28.4988052324
 31
0.0
  0
LINE
  5
C3
100
AcDbEntity
  8
LAYER1
 62
         3
100
AcDbLine
 10
-48.205988024
 20
26.0988038257
 30
0.0
 11
-48.205988024
 21
13.5549104885
 31
0.0
  0
LINE
  5
C4
100
AcDbEntity
  8
LAYER1
 62
         3
100
AcDbLine
 10
-43.205988024
 20
26.0988038257
 30
0.0
 11
-43.205988024
 21
13.5549104885
 31
0.0
  0
LINE
  5
C5
100
AcDbEntity
  8
LAYER1
 62
         3
100
AcDbLine
 10
-49.205988024
 20
29.9988052324
 30
0.0
 11
-57.705988024
 21
29.9988052324
 31
0.0
  0
LINE
  5
C6
100
AcDbEntity
  8
LAYER1
 62
         3
100
AcDbLine
 10
-50.205988024
 20
30.9988052324
 30
0.0
 11
-49.205988024
 21
29.9988052324
 31
0.0
  0
LINE
  5
C7
100
AcDbEntity
  8
LAYER1
 62
         3
100
AcDbLine
 10
-57.705988024
 20
28.4988052324
 30
0.0
 11
-43.205988024
 21
28.4988052324
 31
0.0
  0
LINE
  5
C8
100
AcDbEntity
  8
LAYER1
 62
         3
100
AcDbLine
 10
-66.7646739793
 20
53.7445886088
 30
0.0
 11
-71.9767399771
 21
53.0473648981
 31
0.0
  0
LINE
  5
C9
100
AcDbEntity
  8
LAYER1
 62
         3
100
AcDbLine
 10
-60.0305615408
 20
50.9988047556
 30
0.0
 11
-63.4946614249
 21
50.9988047556
 31
0.0
  0
LINE
  5
CA
100
AcDbEntity
  8
LAYER1
 62
         3
100
AcDbLine
 10
-64.1270104097
 20
52.0940671284
 30
0.0
 11
-61.4659214957
 21
47.4849263803
 31
0.0
  0
LINE
  5
CB
100
AcDbEntity
  8
LAYER1
 62
         3
100
AcDbLine
 10
-72.705988024
 20
62.9988052324
 30
0.0
 11
-58.9420529349
 21
62.9988052324
 31
0.0
  0
LINE
  5
CC
100
AcDbEntity
  8
LAYER1
 62
         3
100
AcDbLine
 10
-72.705988024
 20
63.9988052324
 30
0.0
 11
-58.9420529349
 21
63.9988052324
 31
0.0
  0
LINE
  5
CD
100
AcDbEntity
  8
LAYER1
 62
         3
100
AcDbLine
 10
-44.705988024
 20
28.0988038257
 30
0.0
 11
-42.705988024
 21
28.0988038257
 31
0.0
  0
LINE
  5
CE
100
AcDbEntity
  8
LAYER1
 62
         3
100
AcDbLine
 10
-44.705988024
 20
26.0988038257
 30
0.0
 11
-44.705988024
 21
28.0988038257
 31
0.0
  0
LINE
  5
CF
100
AcDbEntity
  8
LAYER1
 62
         3
100
AcDbLine
 10
-42.705988024
 20
26.0988038257
 30
0.0
 11
-44.705988024
 21
26.0988038257
 31
0.0
  0
LINE
  5
D0
100
AcDbEntity
  8
LAYER1
 62
         3
100
AcDbLine
 10
-42.705988024
 20
28.0988038257
 30
0.0
 11
-42.705988024
 21
26.0988038257
 31
0.0
  0
ARC
  5
D1
100
AcDbEntity
  8
LAYER1
 62
         3
100
AcDbCircle
 10
-36.9059868796
 20
35.1988050417
 30
0.0
 40
1.2
210
-0.0
220
0.0
230
1.0
100
AcDbArc
 50
196.3250894753
 51
0.0
  0
LINE
  5
D2
100
AcDbEntity
  8
LAYER1
 62
         3
100
AcDbLine
 10
-42.205988024
 20
29.9988052324
 30
0.0
 11
-33.7059861166
 21
29.9988052324
 31
0.0
  0
LINE
  5
D3
100
AcDbEntity
  8
LAYER1
 62
         3
100
AcDbLine
 10
-41.205988024
 20
30.9988052324
 30
0.0
 11
-33.7059861166
 21
30.9988052324
 31
0.0
  0
LINE
  5
D4
100
AcDbEntity
  8
LAYER1
 62
         3
100
AcDbLine
 10
-38.2059861166
 20
35.3681013063
 30
0.0
 11
-38.0576058371
 21
34.8614999727
 31
0.0
  0
LINE
  5
D5
100
AcDbEntity
  8
LAYER1
 62
         3
100
AcDbLine
 10
-39.2059861166
 20
33.9988052324
 30
0.0
 11
-39.7059861166
 21
33.9988052324
 31
0.0
  0
LINE
  5
D6
100
AcDbEntity
  8
LAYER1
 62
         3
100
AcDbLine
 10
-56.5664578421
 20
53.9988047556
 30
0.0
 11
-49.705988024
 21
53.9988047556
 31
0.0
  0
LINE
  5
D7
100
AcDbEntity
  8
LAYER1
 62
         3
100
AcDbLine
 10
-41.705988024
 20
53.9988047556
 30
0.0
 11
-41.705988024
 21
46.4988048748
 31
0.0
  0
LINE
  5
D8
100
AcDbEntity
  8
LAYER1
 62
         3
100
AcDbLine
 10
-29.7059861166
 20
33.9381124452
 30
0.0
 11
-29.7694874747
 21
34.2313148454
 31
0.0
  0
LINE
  5
D9
100
AcDbEntity
  8
LAYER1
 62
         3
100
AcDbLine
 10
-30.3152771933
 20
33.8061553911
 30
0.0
 11
-29.7059861166
 21
33.9381124452
 31
0.0
  0
LINE
  5
DA
100
AcDbEntity
  8
LAYER1
 62
         3
100
AcDbLine
 10
-31.2075482352
 20
33.612913318
 30
0.0
 11
-30.6871090872
 21
33.7256271318
 31
0.0
  0
ARC
  5
DB
100
AcDbEntity
  8
LAYER1
 62
         3
100
AcDbCircle
 10
-31.1525155051
 20
33.3588048891
 30
0.0
 40
0.26
210
-0.0
220
-0.0
230
1.0
100
AcDbArc
 50
102.2200272102
 51
334.2687968458
  0
LINE
  5
DC
100
AcDbEntity
  8
LAYER1
 62
         3
100
AcDbLine
 10
-30.5219365103
 20
34.0683538393
 30
0.0
 11
-30.3854428274
 21
34.3515712694
 31
0.0
  0
LINE
  5
DD
100
AcDbEntity
  8
LAYER1
 62
         3
100
AcDbLine
 10
-30.9182969076
 20
33.2459260896
 30
0.0
 11
-30.6871090872
 21
33.7256271318
 31
0.0
  0
LINE
  5
DE
100
AcDbEntity
  8
LAYER1
 62
         3
100
AcDbLine
 10
-30.1501046164
 20
34.1488830522
 30
0.0
 11
-29.7694874747
 21
34.2313148454
 31
0.0
  0
LINE
  5
DF
100
AcDbEntity
  8
LAYER1
 62
         3
100
AcDbLine
 10
-31.2710476858
 20
33.9061166719
 30
0.0
 11
-30.5219365103
 21
34.0683538393
 31
0.0
  0
ARC
  5
E0
100
AcDbEntity
  8
LAYER1
 62
         3
100
AcDbCircle
 10
-31.1525155051
 20
33.3588048891
 30
0.0
 40
0.56
210
-0.0
220
-0.0
230
1.0
100
AcDbArc
 50
102.2200272102
 51
334.2687968458
  0
LINE
  5
E1
100
AcDbEntity
  8
LAYER1
 62
         3
100
AcDbLine
 10
-39.7059861166
 20
38.9988052324
 30
0.0
 11
-39.2059861166
 21
38.9988052324
 31
0.0
  0
LINE
  5
E2
100
AcDbEntity
  8
LAYER1
 62
         3
100
AcDbLine
 10
-34.2059861166
 20
37.4988052324
 30
0.0
 11
-33.9059868796
 21
37.4988052324
 31
0.0
  0
ARC
  5
E3
100
AcDbEntity
  8
LAYER1
 62
         3
100
AcDbCircle
 10
-37.1926403982
 20
36.492443271
 30
0.0
 40
0.4
210
0.0
220
0.0
230
1.0
100
AcDbArc
 50
90.0000030704
 51
180.0
  0
ARC
  5
E4
100
AcDbEntity
  8
LAYER1
 62
         3
100
AcDbCircle
 10
-36.9059868796
 20
36.1924430803
 30
0.0
 40
0.7
210
0.0
220
-0.0
230
1.0
100
AcDbArc
 50
0.0
 51
90.0000030704
  0
LINE
  5
E5
100
AcDbEntity
  8
LAYER1
 62
         3
100
AcDbLine
 10
-37.1926403982
 20
36.8924428896
 30
0.0
 11
-36.9059868796
 21
36.8924428896
 31
0.0
  0
LINE
  5
E6
100
AcDbEntity
  8
LAYER1
 62
         3
100
AcDbLine
 10
-65.4508954031
 20
44.4988047556
 30
0.0
 11
-43.205988024
 21
44.4988047556
 31
0.0
  0
LINE
  5
E7
100
AcDbEntity
  8
LAYER1
 62
         3
100
AcDbLine
 10
-61.4580555899
 20
46.4988048748
 30
0.0
 11
-43.205988024
 21
46.4988048748
 31
0.0
  0
LINE
  5
E8
100
AcDbEntity
  8
LAYER1
 62
         3
100
AcDbLine
 10
-58.0098324759
 20
47.4988048748
 30
0.0
 11
-61.4659214957
 21
47.4988048748
 31
0.0
  0
LINE
  5
E9
100
AcDbEntity
  8
LAYER1
 62
         3
100
AcDbLine
 10
-60.0305615408
 20
50.9988047556
 30
0.0
 11
-58.0098324759
 21
47.4988048748
 31
0.0
  0
ARC
  5
EA
100
AcDbEntity
  8
LAYER1
 62
         3
100
AcDbCircle
 10
-58.9420529349
 20
61.9988052324
 30
0.0
 40
1.0
210
0.0
220
-0.0
230
1.0
100
AcDbArc
 50
26.5650520834
 51
90.0000030704
  0
ARC
  5
EB
100
AcDbEntity
  8
LAYER1
 62
         3
100
AcDbCircle
 10
-56.5664578421
 20
56.9988052324
 30
0.0
 40
3.0
210
0.0
220
0.0
230
1.0
100
AcDbArc
 50
218.4005592888
 51
269.9999969296
  0
ARC
  5
EC
100
AcDbEntity
  8
LAYER1
 62
         3
100
AcDbCircle
 10
-58.9420529349
 20
61.9988052324
 30
0.0
 40
2.0
210
0.0
220
-0.0
230
1.0
100
AcDbArc
 50
26.5650520834
 51
90.0000030704
  0
CIRCLE
  5
ED
100
AcDbEntity
  8
LAYER1
 62
         3
100
AcDbCircle
 10
-63.205988024
 20
56.4988052324
 30
0.0
 40
4.0
210
0.0
220
0.0
230
1.0
  0
CIRCLE
  5
EE
100
AcDbEntity
  8
LAYER1
 62
         3
100
AcDbCircle
 10
-63.205988024
 20
56.4988052324
 30
0.0
 40
4.5
210
0.0
220
0.0
230
1.0
  0
LINE
  5
EF
100
AcDbEntity
  8
LAYER1
 62
         3
100
AcDbLine
 10
-25.7059861166
 20
43.8316366152
 30
0.0
 11
-25.7059861166
 21
36.4988052324
 31
0.0
  0
LINE
  5
F0
100
AcDbEntity
  8
LAYER1
 62
         3
100
AcDbLine
 10
-32.2059861166
 20
35.8249580339
 30
0.0
 11
-32.2852459891
 21
36.1142990068
 31
0.0
  0
ARC
  5
F1
100
AcDbEntity
  8
LAYER1
 62
         3
100
AcDbCircle
 10
-72.705988024
 20
58.4988052324
 30
0.0
 40
5.5
210
-0.0
220
-0.0
230
1.0
100
AcDbArc
 50
90.0000030704
 51
277.6192916329
  0
ARC
  5
F2
100
AcDbEntity
  8
LAYER1
 62
         3
100
AcDbCircle
 10
-62.3319493277
 20
46.9849264101
 30
0.0
 40
1.0
210
-0.0
220
0.0
230
1.0
100
AcDbArc
 50
292.5800886442
 51
30.0000010234
  0
LINE
  5
F3
100
AcDbEntity
  8
LAYER1
 62
         3
100
AcDbLine
 10
-63.205988024
 20
41.9988047556
 30
0.0
 11
-63.205988024
 21
36.4988052324
 31
0.0
  0
LINE
  5
F4
100
AcDbEntity
  8
LAYER1
 62
         3
100
AcDbLine
 10
-64.205988024
 20
42.9988047556
 30
0.0
 11
-64.205988024
 21
36.4988052324
 31
0.0
  0
LINE
  5
F5
100
AcDbEntity
  8
LAYER1
 62
         3
100
AcDbLine
 10
-65.705988024
 20
43.8316366152
 30
0.0
 11
-65.705988024
 21
36.4988052324
 31
0.0
  0
LINE
  5
F6
100
AcDbEntity
  8
LAYER1
 62
         3
100
AcDbLine
 10
-61.947973345
 20
46.0615826324
 30
0.0
 11
-65.089960192
 21
44.754980512
 31
0.0
  0
LINE
  5
F7
100
AcDbEntity
  8
LAYER1
 62
         3
100
AcDbLine
 10
-63.205988024
 20
41.9988047556
 30
0.0
 11
-64.205988024
 21
42.9988047556
 31
0.0
  0
ARC
  5
F8
100
AcDbEntity
  8
LAYER1
 62
         3
100
AcDbCircle
 10
-64.705988024
 20
43.8316366152
 30
0.0
 40
1.0
210
0.0
220
0.0
230
1.0
100
AcDbArc
 50
112.5800947851
 51
180.0
  0
LINE
  5
F9
100
AcDbEntity
  8
LAYER1
 62
         3
100
AcDbLine
 10
-67.3216045213
 20
54.6789948893
 30
0.0
 11
-72.1093312247
 21
54.0385357813
 31
0.0
  0
LINE
  5
FA
100
AcDbEntity
  8
LAYER1
 62
         3
100
AcDbLine
 10
-31.3814125998
 20
50.9988047556
 30
0.0
 11
-33.4021397574
 21
47.4988048748
 31
0.0
  0
LINE
  5
FB
100
AcDbEntity
  8
LAYER1
 62
         3
100
AcDbLine
 10
-53.705988024
 20
60.9988052324
 30
0.0
 11
-45.705988024
 21
60.9988052324
 31
0.0
  0
LINE
  5
FC
100
AcDbEntity
  8
LAYER1
 62
         3
100
AcDbLine
 10
-54.7059881432
 20
61.9988052324
 30
0.0
 11
-45.705988024
 21
61.9988052324
 31
0.0
  0
LINE
  5
FD
100
AcDbEntity
  8
LAYER1
 62
         3
100
AcDbLine
 10
-58.0476284964
 20
62.4460184053
 30
0.0
 11
-56.6268063528
 21
59.6043779329
 31
0.0
  0
ARC
  5
FE
100
AcDbEntity
  8
LAYER1
 62
         3
100
AcDbCircle
 10
-55.0879536612
 20
60.9988052324
 30
0.0
 40
1.0
210
0.0
220
0.0
230
1.0
100
AcDbArc
 50
206.5650459425
 51
269.9999969296
  0
LINE
  5
FF
100
AcDbEntity
  8
LAYER1
 62
         3
100
AcDbLine
 10
-53.705988024
 20
55.9988052324
 30
0.0
 11
-53.705988024
 21
60.9988052324
 31
0.0
  0
LINE
  5
100
100
AcDbEntity
  8
LAYER1
 62
         3
100
AcDbLine
 10
-54.7059881432
 20
54.8988048509
 30
0.0
 11
-54.7059881432
 21
61.9988052324
 31
0.0
  0
ARC
  5
101
100
AcDbEntity
  8
LAYER1
 62
         3
100
AcDbCircle
 10
-54.8379536612
 20
60.4988052324
 30
0.0
 40
2.0
210
0.0
220
0.0
230
1.0
100
AcDbArc
 50
206.5650459425
 51
269.9999969296
  0
ARC
  5
102
100
AcDbEntity
  8
LAYER1
 62
         3
100
AcDbCircle
 10
-36.5740204794
 20
60.4988052324
 30
0.0
 40
2.0
210
0.0
220
0.0
230
1.0
100
AcDbArc
 50
269.9999969296
 51
333.4349479166
  0
LINE
  5
103
100
AcDbEntity
  8
LAYER1
 62
         3
100
AcDbLine
 10
-43.205988024
 20
46.4988048748
 30
0.0
 11
-41.705988024
 21
46.4988048748
 31
0.0
  0
LINE
  5
104
100
AcDbEntity
  8
LAYER1
 62
         3
100
AcDbLine
 10
-49.705988024
 20
53.9988047556
 30
0.0
 11
-49.705988024
 21
46.4988048748
 31
0.0
  0
LINE
  5
105
100
AcDbEntity
  8
LAYER1
 62
         3
100
AcDbLine
 10
-50.205988024
 20
41.9988047556
 30
0.0
 11
-49.205988024
 21
42.9988047556
 31
0.0
  0
LINE
  5
106
100
AcDbEntity
  8
LAYER1
 62
         3
100
AcDbLine
 10
-53.705988024
 20
55.9988052324
 30
0.0
 11
-45.705988024
 21
55.9988052324
 31
0.0
  0
LINE
  5
107
100
AcDbEntity
  8
LAYER1
 62
         3
100
AcDbLine
 10
-54.7059881432
 20
54.8988048509
 30
0.0
 11
-45.705988024
 21
54.8988048509
 31
0.0
  0
ARC
  5
108
100
AcDbEntity
  8
LAYER1
 62
         3
100
AcDbCircle
 10
-32.4699192984
 20
61.9988052324
 30
0.0
 40
2.0
210
0.0
220
0.0
230
1.0
100
AcDbArc
 50
90.0000030704
 51
153.4349540575
  0
ARC
  5
109
100
AcDbEntity
  8
LAYER1
 62
         3
100
AcDbCircle
 10
-36.3240204794
 20
60.9988052324
 30
0.0
 40
1.0
210
0.0
220
0.0
230
1.0
100
AcDbArc
 50
269.9999969296
 51
333.4349479166
  0
ARC
  5
10A
100
AcDbEntity
  8
LAYER1
 62
         3
100
AcDbCircle
 10
-29.0800248129
 20
46.9849264101
 30
0.0
 40
1.0
210
0.0
220
0.0
230
1.0
100
AcDbArc
 50
150.0000051174
 51
247.4199052149
  0
LINE
  5
10B
100
AcDbEntity
  8
LAYER1
 62
         3
100
AcDbLine
 10
-33.9059868796
 20
35.6703264192
 30
0.0
 11
-32.2852459891
 21
36.1142990068
 31
0.0
  0
LINE
  5
10C
100
AcDbEntity
  8
LAYER1
 62
         3
100
AcDbLine
 10
-28.2059861166
 20
41.9988047556
 30
0.0
 11
-41.205988024
 21
41.9988047556
 31
0.0
  0
LINE
  5
10D
100
AcDbEntity
  8
LAYER1
 62
         3
100
AcDbLine
 10
-42.205988024
 20
42.9988047556
 30
0.0
 11
-27.2059861166
 21
42.9988047556
 31
0.0
  0
LINE
  5
10E
100
AcDbEntity
  8
LAYER1
 62
         3
100
AcDbLine
 10
-43.205988024
 20
44.4988047556
 30
0.0
 11
-25.9610787375
 21
44.4988047556
 31
0.0
  0
LINE
  5
10F
100
AcDbEntity
  8
LAYER1
 62
         3
100
AcDbLine
 10
-41.705988024
 20
46.4988048748
 30
0.0
 11
-29.9539166434
 21
46.4988048748
 31
0.0
  0
LINE
  5
110
100
AcDbEntity
  8
LAYER1
 62
         3
100
AcDbLine
 10
-37.5926400168
 20
36.492443271
 30
0.0
 11
-38.2059861166
 21
36.492443271
 31
0.0
  0
LINE
  5
111
100
AcDbEntity
  8
LAYER1
 62
         3
100
AcDbLine
 10
-38.2059861166
 20
38.9988052324
 30
0.0
 11
-35.9455128653
 21
38.9988052324
 31
0.0
  0
LINE
  5
112
100
AcDbEntity
  8
LAYER1
 62
         3
100
AcDbLine
 10
-38.2059861166
 20
38.9988052324
 30
0.0
 11
-38.2059861166
 21
36.492443271
 31
0.0
  0
LINE
  5
113
100
AcDbEntity
  8
LAYER1
 62
         3
100
AcDbLine
 10
-41.205988024
 20
41.9988047556
 30
0.0
 11
-42.205988024
 21
42.9988047556
 31
0.0
  0
LINE
  5
114
100
AcDbEntity
  8
LAYER1
 62
         3
100
AcDbLine
 10
-36.7059879048
 20
61.9988052324
 30
0.0
 11
-45.705988024
 21
61.9988052324
 31
0.0
  0
LINE
  5
115
100
AcDbEntity
  8
LAYER1
 62
         3
100
AcDbLine
 10
-37.705988024
 20
60.9988052324
 30
0.0
 11
-45.705988024
 21
60.9988052324
 31
0.0
  0
LINE
  5
116
100
AcDbEntity
  8
LAYER1
 62
         3
100
AcDbLine
 10
-36.7059879048
 20
54.8988048509
 30
0.0
 11
-45.705988024
 21
54.8988048509
 31
0.0
  0
LINE
  5
117
100
AcDbEntity
  8
LAYER1
 62
         3
100
AcDbLine
 10
-37.705988024
 20
55.9988052324
 30
0.0
 11
-45.705988024
 21
55.9988052324
 31
0.0
  0
ARC
  5
118
100
AcDbEntity
  8
LAYER1
 62
         3
100
AcDbCircle
 10
-36.7059861166
 20
36.3924428896
 30
0.0
 40
1.0
210
0.0
220
-0.0
230
1.0
100
AcDbArc
 50
0.0
 51
90.0000030704
  0
ARC
  5
119
100
AcDbEntity
  8
LAYER1
 62
         3
100
AcDbCircle
 10
-37.3059864981
 20
36.992443271
 30
0.0
 40
0.4
210
0.0
220
0.0
230
1.0
100
AcDbArc
 50
90.0000030704
 51
180.0
  0
LINE
  5
11A
100
AcDbEntity
  8
LAYER1
 62
         3
100
AcDbLine
 10
-37.3059864981
 20
37.3924428896
 30
0.0
 11
-36.7059861166
 21
37.3924428896
 31
0.0
  0
LINE
  5
11B
100
AcDbEntity
  8
LAYER1
 62
         3
100
AcDbLine
 10
-35.9455128653
 20
38.4988052324
 30
0.0
 11
-35.9455128653
 21
38.9988052324
 31
0.0
  0
LINE
  5
11C
100
AcDbEntity
  8
LAYER1
 62
         3
100
AcDbLine
 10
-37.7059861166
 20
38.4988052324
 30
0.0
 11
-37.7059861166
 21
36.992443271
 31
0.0
  0
LINE
  5
11D
100
AcDbEntity
  8
LAYER1
 62
         3
100
AcDbLine
 10
-35.9455128653
 20
38.4988052324
 30
0.0
 11
-37.7059861166
 21
38.4988052324
 31
0.0
  0
POINT
  5
11E
100
AcDbEntity
  8
LAYER1
 62
         5
100
AcDbPoint
 10
-36.2970944388
 20
36.2777397112
 30
0.0
  0
LINE
  5
11F
100
AcDbEntity
  8
LAYER1
 62
         3
100
AcDbLine
 10
-28.2059861166
 20
41.9988047556
 30
0.0
 11
-28.2059861166
 21
36.4988052324
 31
0.0
  0
LINE
  5
120
100
AcDbEntity
  8
LAYER1
 62
         3
100
AcDbLine
 10
-27.2059861166
 20
42.9988047556
 30
0.0
 11
-27.2059861166
 21
36.4988052324
 31
0.0
  0
LINE
  5
121
100
AcDbEntity
  8
LAYER1
 62
         3
100
AcDbLine
 10
-36.7059879048
 20
54.8988048509
 30
0.0
 11
-36.7059879048
 21
61.9988052324
 31
0.0
  0
LINE
  5
122
100
AcDbEntity
  8
LAYER1
 62
         3
100
AcDbLine
 10
-37.705988024
 20
55.9988052324
 30
0.0
 11
-37.705988024
 21
60.9988052324
 31
0.0
  0
LINE
  5
123
100
AcDbEntity
  8
LAYER1
 62
         3
100
AcDbLine
 10
-32.9981366141
 20
35.6079637483
 30
0.0
 11
-32.2059861166
 21
35.8249580339
 31
0.0
  0
LINE
  5
124
100
AcDbEntity
  8
LAYER1
 62
         3
100
AcDbLine
 10
-28.2059861166
 20
41.9988047556
 30
0.0
 11
-27.2059861166
 21
42.9988047556
 31
0.0
  0
ARC
  5
125
100
AcDbEntity
  8
LAYER1
 62
         3
100
AcDbCircle
 10
-26.7059861166
 20
43.8316366152
 30
0.0
 40
1.0
210
0.0
220
0.0
230
1.0
100
AcDbArc
 50
0.0
 51
67.4199113558
  0
LINE
  5
126
100
AcDbEntity
  8
LAYER1
 62
         3
100
AcDbLine
 10
-29.4639988882
 20
46.0615826324
 30
0.0
 11
-26.3220120413
 21
44.754980512
 31
0.0
  0
ARC
  5
127
100
AcDbEntity
  8
LAYER1
 62
         3
100
AcDbCircle
 10
-34.8455143912
 20
56.9988052324
 30
0.0
 40
3.0
210
0.0
220
0.0
230
1.0
100
AcDbArc
 50
269.9999969296
 51
321.5993927148
  0
LINE
  5
128
100
AcDbEntity
  8
LAYER1
 62
         3
100
AcDbLine
 10
-34.8455143912
 20
53.9988047556
 30
0.0
 11
-41.705988024
 21
53.9988047556
 31
0.0
  0
LINE
  5
129
100
AcDbEntity
  8
LAYER1
 62
         3
100
AcDbLine
 10
-31.3814125998
 20
50.9988047556
 30
0.0
 11
-27.9173108084
 21
50.9988047556
 31
0.0
  0
LINE
  5
12A
100
AcDbEntity
  8
LAYER1
 62
         3
100
AcDbLine
 10
-27.2849615617
 20
52.094067582
 30
0.0
 11
-29.9460507376
 21
47.4849263803
 31
0.0
  0
LINE
  5
12B
100
AcDbEntity
  8
LAYER1
 62
         3
100
AcDbLine
 10
-33.4021397574
 20
47.4988048748
 30
0.0
 11
-29.9460507376
 21
47.4988048748
 31
0.0
  0
LINE
  5
12C
100
AcDbEntity
  8
LAYER3
 62
         4
100
AcDbLine
 10
-15.5876373252
 20
-1.9117807132
 30
0.0
 11
-24.5864128388
 21
-5.7927650283
 31
0.0
  0
LINE
  5
12D
100
AcDbEntity
  8
LAYER3
 62
         4
100
AcDbLine
 10
-29.1776248356
 20
-7.7728590667
 30
0.0
 11
-24.5864128388
 21
-5.7927650283
 31
0.0
  0
LINE
  5
12E
100
AcDbEntity
  8
LAYER3
 62
         4
100
AcDbLine
 10
-4.8647031876
 20
-32.9011976048
 30
0.0
 11
-5.4884382601
 21
-29.9667548026
 31
0.0
  0
LINE
  5
12F
100
AcDbEntity
  8
LAYER3
 62
         4
100
AcDbLine
 10
-4.8647031876
 20
-32.9011976048
 30
0.0
 11
-4.2409681152
 21
-29.9667548026
 31
0.0
  0
LINE
  5
130
100
AcDbEntity
  8
LAYER3
 62
         4
100
AcDbLine
 10
-44.705988024
 20
-32.9011976048
 30
0.0
 11
-3.8647031876
 21
-32.9011976048
 31
0.0
  0
LINE
  5
131
100
AcDbEntity
  8
LAYER3
 62
         4
100
AcDbLine
 10
-29.1776248356
 20
-7.7728590667
 30
0.0
 11
-31.6251438154
 21
-9.5076935959
 31
0.0
  0
LINE
  5
132
100
AcDbEntity
  8
LAYER1
 62
         3
100
AcDbLine
 10
-36.7059879048
 20
59.9988052324
 30
0.0
 11
-36.3240223868
 21
59.9988052324
 31
0.0
  0
LINE
  5
133
100
AcDbEntity
  8
LAYER1
 62
         3
100
AcDbLine
 10
-57.1532002432
 20
62.8932325319
 30
0.0
 11
-55.9823780997
 21
60.5515911058
 31
0.0
  0
LINE
  5
134
100
AcDbEntity
  8
LAYER1
 62
         3
100
AcDbLine
 10
-54.7059881432
 20
59.9988052324
 30
0.0
 11
-55.0879536612
 21
59.9988052324
 31
0.0
  0
LINE
  5
135
100
AcDbEntity
  8
LAYER1
 62
         3
100
AcDbLine
 10
-48.205988024
 20
63.5988038257
 30
0.0
 11
-43.205988024
 21
63.5988038257
 31
0.0
  0
LINE
  5
136
100
AcDbEntity
  8
LAYER1
 62
         3
100
AcDbLine
 10
-43.705988024
 20
64.0988038257
 30
0.0
 11
-47.705988024
 21
64.0988038257
 31
0.0
  0
LINE
  5
137
100
AcDbEntity
  8
LAYER1
 62
         3
100
AcDbLine
 10
-48.205988024
 20
61.9988052324
 30
0.0
 11
-48.205988024
 21
63.5988038257
 31
0.0
  0
LINE
  5
138
100
AcDbEntity
  8
LAYER1
 62
         3
100
AcDbLine
 10
-47.705988024
 20
64.0988038257
 30
0.0
 11
-48.205988024
 21
63.5988038257
 31
0.0
  0
LINE
  5
139
100
AcDbEntity
  8
LAYER1
 62
         3
100
AcDbLine
 10
-43.205988024
 20
63.5988038257
 30
0.0
 11
-43.705988024
 21
64.0988038257
 31
0.0
  0
LINE
  5
13A
100
AcDbEntity
  8
LAYER1
 62
         3
100
AcDbLine
 10
-43.205988024
 20
61.9988052324
 30
0.0
 11
-43.205988024
 21
63.5988038257
 31
0.0
  0
LINE
  5
13B
100
AcDbEntity
  8
LAYER1
 62
         3
100
AcDbLine
 10
-33.3643456442
 20
62.4460184053
 30
0.0
 11
-34.7851658804
 21
59.6043779329
 31
0.0
  0
LINE
  5
13C
100
AcDbEntity
  8
LAYER1
 62
         3
100
AcDbLine
 10
-34.2587738974
 20
62.8932325319
 30
0.0
 11
-35.4295941336
 21
60.5515911058
 31
0.0
  0
ARC
  5
13D
100
AcDbEntity
  8
LAYER1
 62
         3
100
AcDbCircle
 10
-32.4699192984
 20
61.9988052324
 30
0.0
 40
1.0
210
0.0
220
0.0
230
1.0
100
AcDbArc
 50
90.0000030704
 51
153.4349540575
  0
ARC
  5
13E
100
AcDbEntity
  8
LAYER1
 62
         3
100
AcDbCircle
 10
-18.7059870703
 20
58.4988052324
 30
0.0
 40
4.5
210
0.0
220
0.0
230
1.0
100
AcDbArc
 50
262.3807022261
 51
90.0000030704
  0
ARC
  5
13F
100
AcDbEntity
  8
LAYER1
 62
         3
100
AcDbCircle
 10
-18.7059870703
 20
58.4988052324
 30
0.0
 40
5.5
210
0.0
220
0.0
230
1.0
100
AcDbArc
 50
262.3807022261
 51
90.0000030704
  0
LINE
  5
140
100
AcDbEntity
  8
LAYER1
 62
         3
100
AcDbLine
 10
-24.0903728319
 20
54.6789948893
 30
0.0
 11
-19.3026429159
 21
54.0385357813
 31
0.0
  0
LINE
  5
141
100
AcDbEntity
  8
LAYER1
 62
         3
100
AcDbLine
 10
-24.6472881151
 20
53.7445886088
 30
0.0
 11
-19.4352322562
 21
53.0473648981
 31
0.0
  0
LINE
  5
142
100
AcDbEntity
  8
LAYER1
 62
         3
100
AcDbLine
 10
-42.205988024
 20
42.9988047556
 30
0.0
 11
-42.205988024
 21
29.9988052324
 31
0.0
  0
LINE
  5
143
100
AcDbEntity
  8
LAYER1
 62
         3
100
AcDbLine
 10
-41.205988024
 20
41.9988047556
 30
0.0
 11
-41.205988024
 21
30.9988052324
 31
0.0
  0
LINE
  5
144
100
AcDbEntity
  8
LAYER1
 62
         3
100
AcDbLine
 10
-41.205988024
 20
30.9988052324
 30
0.0
 11
-42.205988024
 21
29.9988052324
 31
0.0
  0
LINE
  5
145
100
AcDbEntity
  8
LAYER0
 62
         3
100
AcDbLine
 10
95.0
 20
-125.5
 30
0.0
 11
-40.0
 21
-125.5
 31
0.0
  0
LINE
  5
146
100
AcDbEntity
  8
LAYER0
 62
         3
100
AcDbLine
 10
95.0
 20
-130.5
 30
0.0
 11
-40.0
 21
-130.5
 31
0.0
  0
LINE
  5
147
100
AcDbEntity
  8
LAYER0
 62
         3
100
AcDbLine
 10
95.0
 20
-138.5
 30
0.0
 11
-40.0
 21
-138.5
 31
0.0
  0
MTEXT
  5
148
100
AcDbEntity
  8
LAYER3
100
AcDbMText
 10
-0.4631612703
 20
9.4488037391
 30
0.0
 40
2.1473683357
 41
3.8469689941
 71
         1
 72
         1
  1
\W0.8;102
 11
-0.0000000268
 21
1.0
 31
0.0
  0
LINE
  5
149
100
AcDbEntity
  8
LAYER3
 62
         4
100
AcDbLine
 10
-17.7059870703
 20
63.9988052324
 30
0.0
 11
4.3244974211
 21
63.9988052324
 31
0.0
  0
LINE
  5
14A
100
AcDbEntity
  8
LAYER3
 62
         4
100
AcDbLine
 10
-44.705988024
 20
-37.9011976048
 30
0.0
 11
4.3244974211
 21
-37.9011976048
 31
0.0
  0
ARC
  5
14B
100
AcDbEntity
  8
LAYER1
 62
         3
100
AcDbCircle
 10
-45.705988024
 20
-14.9011976048
 30
0.0
 40
18.0
210
0.0
220
-0.0
230
1.0
100
AcDbArc
 50
105.4770364609
 51
71.5385441438
  0
ARC
  5
14C
100
AcDbEntity
  8
LAYER1
 62
         3
100
AcDbCircle
 10
-45.705988024
 20
-14.9011976048
 30
0.0
 40
23.0
210
0.0
220
-0.0
230
1.0
100
AcDbArc
 50
105.4770364609
 51
66.9770847382
  0
MTEXT
  5
14D
100
AcDbEntity
  8
LAYER3
100
AcDbMText
 10
-22.413427338
 20
-0.7307010006
 30
0.0
 40
2.1473683357
 41
3.8469689941
 71
         1
 72
         1
  1
\W0.8;φ5
 11
0.9182423966
 21
0.396018814
 31
0.0
  0
LINE
  5
14E
100
AcDbEntity
  8
LAYER3
 62
         4
100
AcDbLine
 10
-4.8647031876
 20
51.9988052324
 30
0.0
 11
-4.8647031876
 21
-32.9011976048
 31
0.0
  0
LINE
  5
14F
100
AcDbEntity
  8
LAYER3
 62
         4
100
AcDbLine
 10
3.3244974211
 20
63.9988052324
 30
0.0
 11
3.3244974211
 21
-37.9011976048
 31
0.0
  0
LINE
  5
150
100
AcDbEntity
  8
LAYER1
 62
         3
100
AcDbLine
 10
40.7944076814
 20
10.0210579113
 30
0.0
 11
50.9246948518
 21
-20.1170331761
 31
0.0
  0
LINE
  5
151
100
AcDbEntity
  8
LAYER1
 62
         3
100
AcDbLine
 10
55.9246948518
 20
-35.4011976048
 30
0.0
 11
55.9246948518
 21
28.4988038257
 31
0.0
  0
LINE
  5
152
100
AcDbEntity
  8
LAYER1
 62
         3
100
AcDbLine
 10
50.9246948518
 20
-35.4011976048
 30
0.0
 11
50.9246948518
 21
28.4988038257
 31
0.0
  0
LINE
  5
153
100
AcDbEntity
  8
LAYER1
 62
         3
100
AcDbLine
 10
36.0549820222
 20
8.4279993252
 30
0.0
 11
51.0549820222
 21
-36.1977254673
 31
0.0
  0
MTEXT
  5
154
100
AcDbEntity
  8
LAYER0
100
AcDbMText
 10
-13.9221737419
 20
-132.5157576176
 30
0.0
 40
3.0922104359
 41
7.3861805462
 71
         1
 72
         1
  1
\W0.8;S-42
  0
MTEXT
  5
155
100
AcDbEntity
  8
LAYER0
100
AcDbMText
 10
-35.7051459079
 20
-126.6461242782
 30
0.0
 40
2.1473683357
 41
6.4116149902
 71
         1
 72
         1
  1
\W0.8;Ｎｏ.
  0
LINE
  5
156
100
AcDbEntity
  8
LAYER0
 62
         3
100
AcDbLine
 10
-25.0
 20
-125.5
 30
0.0
 11
-25.0
 21
-138.5
 31
0.0
  0
MTEXT
  5
157
100
AcDbEntity
  8
LAYER0
100
AcDbMText
 10
-10.6564309049
 20
-126.7970201517
 30
0.0
 40
2.1473683357
 41
7.6538653946
 71
         1
 72
         1
  1
\W0.8;品　番
  0
LINE
  5
158
100
AcDbEntity
  8
LAYER0
 62
         3
100
AcDbLine
 10
-40.0
 20
-138.5
 30
0.0
 11
-40.0
 21
-125.5
 31
0.0
  0
INSERT
  5
15A
100
AcDbEntity
  8
0
100
AcDbBlockReference
  2
CLUMP0
 10
0.0
 20
0.0
 30
0.0
  0
LINE
  5
165
100
AcDbEntity
  8
LAYER3
 62
         4
100
AcDbLine
 10
-29.1776248356
 20
-7.7728590667
 30
0.0
 11
-32.1191654547
 21
-8.3622136169
 31
0.0
  0
LINE
  5
166
100
AcDbEntity
  8
LAYER3
 62
         4
100
AcDbLine
 10
-33.7688368324
 20
-9.7529531051
 30
0.0
 11
-29.1776248356
 21
-7.7728590667
 31
0.0
  0
LINE
  5
167
100
AcDbEntity
  8
LAYER3
 62
         4
100
AcDbLine
 10
-24.5864128388
 20
-5.7927650283
 30
0.0
 11
-22.1388938591
 21
-4.0579304991
 31
0.0
  0
LINE
  5
168
100
AcDbEntity
  8
LAYER3
 62
         4
100
AcDbLine
 10
-24.5864128388
 20
-5.7927650283
 30
0.0
 11
-21.6448722197
 21
-5.2034104781
 31
0.0
  0
ENDSEC
  0
SECTION
  2
OBJECTS
  0
DICTIONARY
  5
19
100
AcDbDictionary
280
         0
281
         1
  3
ACAD_GROUP
350
1A
  3
ACAD_MLINESTYLE
350
1B
  3
ACAD_LAYOUT
350
1E
  3
ACAD_PLOTSETTINGS
350
22
  3
ACAD_PLOTSTYLENAME
350
1F
  3
ACAD_WIPEOUT_VARS
350
23
  0
DICTIONARY
  5
1A
102
{ACAD_REACTORS
330
19
102
}
100
AcDbDictionary
280
         0
281
         1
  0
DICTIONARY
  5
1B
102
{ACAD_REACTORS
330
19
102
}
100
AcDbDictionary
280
         0
281
         1
  3
Standard
350
1C
  0
MLINESTYLE
  5
1C
102
{ACAD_REACTORS
330
1B
102
}
100
AcDbMlineStyle
  2
Standard
 70
         0
  3

 62
         0
 51
90.0
 52
90.0
 71
         2
 49
0.5
 62
       256
  6
BYLAYER
 49
-0.5
 62
       256
  6
BYLAYER
  0
ACDBDICTIONARYWDFLT
  5
1F
102
{ACAD_REACTORS
330
19
102
}
100
AcDbDictionary
281
         1
  3
Normal
350
1D
100
AcDbDictionaryWithDefault
340
1D
  0
ACDBPLACEHOLDER
  5
1D
102
{ACAD_REACTORS
330
1F
102
}
  0
LAYOUT
  5
20
102
{ACAD_REACTORS
330
1E
102
}
100
AcDbPlotSettings
  1

  2

  4

  6

 40
0.0
 41
0.0
 42
0.0
 43
0.0
 44
0.0
 45
0.0
 46
0.0
 47
0.0
 48
0.0
 49
0.0
140
0.0
141
0.0
142
1.0
143
1.0
 70
         0
 72
         0
 73
         0
 74
         0
  7

 75
         0
147
1.0
148
0.0
149
0.0
100
AcDbLayout
  1
Model
 70
         0
 71
         0
 10
0.0
 20
0.0
 11
0.0
 21
0.0
 12
0.0
 22
0.0
 32
0.0
 14
0.0
 24
0.0
 34
0.0
 15
0.0
 25
0.0
 35
0.0
146
0.0
 13
0.0
 23
0.0
 33
0.0
 16
0.0
 26
0.0
 36
0.0
 17
0.0
 27
0.0
 37
0.0
 76
         0
330
A
331
0
345
0
346
0
  0
LAYOUT
  5
21
102
{ACAD_REACTORS
330
1E
102
}
100
AcDbPlotSettings
  1

  2

  4

  6

 40
0.0
 41
0.0
 42
0.0
 43
0.0
 44
0.0
 45
0.0
 46
0.0
 47
0.0
 48
0.0
 49
0.0
140
0.0
141
0.0
142
1.0
143
1.0
 70
         0
 72
         0
 73
         0
 74
         0
  7

 75
         0
147
1.0
148
0.0
149
0.0
100
AcDbLayout
  1
Layout1
 70
         0
 71
         0
 10
0.0
 20
0.0
 11
0.0
 21
0.0
 12
0.0
 22
0.0
 32
0.0
 14
0.0
 24
0.0
 34
0.0
 15
0.0
 25
0.0
 35
0.0
146
0.0
 13
0.0
 23
0.0
 33
0.0
 16
0.0
 26
0.0
 36
0.0
 17
0.0
 27
0.0
 37
0.0
 76
         0
330
B
331
0
345
0
346
0
  0
DICTIONARY
  5
1E
102
{ACAD_REACTORS
330
19
102
}
100
AcDbDictionary
280
         0
281
         1
  3
Layout1
350
21
  3
Model
350
20
  0
DICTIONARY
  5
22
102
{ACAD_REACTORS
330
19
102
}
100
AcDbDictionary
280
         0
281
         1
  0
WIPEOUTVARIABLES
  5
23
100
AcDbWipeoutVariables
 70
         1
  0
ENDSEC
  0
EOF
