  0
SECTION
  2
HEADER
  9
$ACADVER
  1
AC1015
  9
$ACADMAINTVER
 70
         6
  9
$DWGCODEPAGE
  3
ANSI_932
  9
$INSBASE
 10
0.0
 20
0.0
 30
0.0
  9
$EXTMIN
 10
1.0000000000E+20
 20
1.0000000000E+20
 30
1.0000000000E+20
  9
$EXTMAX
 10
-1.0000000000E+20
 20
-1.0000000000E+20
 30
-1.0000000000E+20
  9
$LIMMIN
 10
0.0
 20
0.0
  9
$LIMMAX
 10
0.0
 20
0.0
  9
$ORTHOMODE
 70
         0
  9
$REGENMODE
 70
         1
  9
$FILLMODE
 70
         1
  9
$QTEXTMODE
 70
         0
  9
$MIRRTEXT
 70
         1
  9
$LTSCALE
 40
1.0
  9
$ATTMODE
 70
         1
  9
$TEXTSIZE
 40
0.2
  9
$TRACEWID
 40
0.05
  9
$TEXTSTYLE
  7
Standard
  9
$CLAYER
  8
0
  9
$CELTYPE
  6
Continuous
  9
$CECOLOR
 62
       256
  9
$CELTSCALE
 40
1.0
  9
$DISPSILH
 70
         0
  9
$DIMSCALE
 40
1.0
  9
$DIMASZ
 40
0.18
  9
$DIMEXO
 40
0.0625
  9
$DIMDLI
 40
0.38
  9
$DIMRND
 40
0.0
  9
$DIMDLE
 40
0.0
  9
$DIMEXE
 40
0.18
  9
$DIMTP
 40
0.0
  9
$DIMTM
 40
0.0
  9
$DIMTXT
 40
0.18
  9
$DIMCEN
 40
0.09
  9
$DIMTSZ
 40
0.0
  9
$DIMTOL
 70
         0
  9
$DIMLIM
 70
         0
  9
$DIMTIH
 70
         1
  9
$DIMTOH
 70
         1
  9
$DIMSE1
 70
         0
  9
$DIMSE2
 70
         0
  9
$DIMTAD
 70
         0
  9
$DIMZIN
 70
         0
  9
$DIMBLK
  1

  9
$DIMASO
 70
         1
  9
$DIMSHO
 70
         1
  9
$DIMPOST
  1

  9
$DIMAPOST
  1

  9
$DIMALT
 70
         0
  9
$DIMALTD
 70
         2
  9
$DIMALTF
 40
25.4
  9
$DIMLFAC
 40
1.0
  9
$DIMTOFL
 70
         0
  9
$DIMTVP
 40
0.0
  9
$DIMTIX
 70
         0
  9
$DIMSOXD
 70
         0
  9
$DIMSAH
 70
         0
  9
$DIMBLK1
  1

  9
$DIMBLK2
  1

  9
$DIMSTYLE
  2
Standard
  9
$DIMCLRD
 70
         0
  9
$DIMCLRE
 70
         0
  9
$DIMCLRT
 70
         0
  9
$DIMTFAC
 40
1.0
  9
$DIMGAP
 40
0.09
  9
$DIMJUST
 70
         0
  9
$DIMSD1
 70
         0
  9
$DIMSD2
 70
         0
  9
$DIMTOLJ
 70
         1
  9
$DIMTZIN
 70
         0
  9
$DIMALTZ
 70
         0
  9
$DIMALTTZ
 70
         0
  9
$DIMUPT
 70
         0
  9
$DIMDEC
 70
         4
  9
$DIMTDEC
 70
         4
  9
$DIMALTU
 70
         2
  9
$DIMALTTD
 70
         2
  9
$DIMTXSTY
  7
Standard
  9
$DIMAUNIT
 70
         0
  9
$DIMADEC
 70
         0
  9
$DIMALTRND
 40
0.0
  9
$DIMAZIN
 70
         0
  9
$DIMDSEP
 70
         0
  9
$DIMATFIT
 70
         3
  9
$DIMFRAC
 70
         0
  9
$DIMLDRBLK
  1

  9
$DIMLUNIT
 70
         2
  9
$DIMLWD
 70
         0
  9
$DIMLWE
 70
         0
  9
$DIMTMOVE
 70
         0
  9
$LUNITS
 70
         2
  9
$LUPREC
 70
         4
  9
$SKETCHINC
 40
0.1
  9
$FILLETRAD
 40
0.0
  9
$AUNITS
 70
         0
  9
$AUPREC
 70
         0
  9
$MENU
  1
acad
  9
$ELEVATION
 40
0.0
  9
$PELEVATION
 40
0.0
  9
$THICKNESS
 40
0.0
  9
$LIMCHECK
 70
         0
  9
$CHAMFERA
 40
0.0
  9
$CHAMFERB
 40
0.0
  9
$CHAMFERC
 40
0.0
  9
$CHAMFERD
 40
0.0
  9
$SKPOLY
 70
         0
  9
$TDCREATE
 40
0.000000000
  9
$TDUCREATE
 40
0.000000000
  9
$TDUPDATE
 40
0.000000000
  9
$TDUUPDATE
 40
0.000000000
  9
$TDINDWG
 40
0.0000000000
  9
$TDUSRTIMER
 40
0.0000000000
  9
$USRTIMER
 70
         1
  9
$ANGBASE
 50
0.0
  9
$ANGDIR
 70
         0
  9
$PDMODE
 70
         3
  9
$PDSIZE
 40
-1.0
  9
$PLINEWID
 40
0.0
  9
$SPLFRAME
 70
         0
  9
$SPLINETYPE
 70
         6
  9
$SPLINESEGS
 70
         8
  9
$HANDSEED
  5
5C9
  9
$SURFTAB1
 70
         6
  9
$SURFTAB2
 70
         6
  9
$SURFTYPE
 70
         6
  9
$SURFU
 70
         6
  9
$SURFV
 70
         6
  9
$UCSBASE
  2

  9
$UCSNAME
  2

  9
$UCSORG
 10
0.0
 20
0.0
 30
0.0
  9
$UCSXDIR
 10
1.0
 20
0.0
 30
0.0
  9
$UCSYDIR
 10
0.0
 20
1.0
 30
0.0
  9
$UCSORTHOREF
  2

  9
$UCSORTHOVIEW
 70
         0
  9
$UCSORGTOP
 10
0.0
 20
0.0
 30
0.0
  9
$UCSORGBOTTOM
 10
0.0
 20
0.0
 30
0.0
  9
$UCSORGLEFT
 10
0.0
 20
0.0
 30
0.0
  9
$UCSORGRIGHT
 10
0.0
 20
0.0
 30
0.0
  9
$UCSORGFRONT
 10
0.0
 20
0.0
 30
0.0
  9
$UCSORGBACK
 10
0.0
 20
0.0
 30
0.0
  9
$PUCSBASE
  2

  9
$PUCSNAME
  2

  9
$PUCSORG
 10
0.0
 20
0.0
 30
0.0
  9
$PUCSXDIR
 10
1.0
 20
0.0
 30
0.0
  9
$PUCSYDIR
 10
0.0
 20
1.0
 30
0.0
  9
$PUCSORTHOREF
  2

  9
$PUCSORTHOVIEW
 70
         0
  9
$PUCSORGTOP
 10
0.0
 20
0.0
 30
0.0
  9
$PUCSORGBOTTOM
 10
0.0
 20
0.0
 30
0.0
  9
$PUCSORGLEFT
 10
0.0
 20
0.0
 30
0.0
  9
$PUCSORGRIGHT
 10
0.0
 20
0.0
 30
0.0
  9
$PUCSORGFRONT
 10
0.0
 20
0.0
 30
0.0
  9
$PUCSORGBACK
 10
0.0
 20
0.0
 30
0.0
  9
$USERI1
 70
         0
  9
$USERI2
 70
         0
  9
$USERI3
 70
         0
  9
$USERI4
 70
         0
  9
$USERI5
 70
         0
  9
$USERR1
 40
0.0
  9
$USERR2
 40
0.0
  9
$USERR3
 40
0.0
  9
$USERR4
 40
0.0
  9
$USERR5
 40
0.0
  9
$WORLDVIEW
 70
         1
  9
$SHADEDGE
 70
         3
  9
$SHADEDIF
 70
        70
  9
$TILEMODE
 70
         1
  9
$MAXACTVP
 70
        16
  9
$PINSBASE
 10
0.0
 20
0.0
 30
0.0
  9
$PLIMCHECK
 70
         0
  9
$PEXTMIN
 10
1.0000000000E+20
 20
1.0000000000E+20
 30
1.0000000000E+20
  9
$PEXTMAX
 10
-1.0000000000E+20
 20
-1.0000000000E+20
 30
-1.0000000000E+20
  9
$PLIMMIN
 10
0.0
 20
0.0
  9
$PLIMMAX
 10
12.0
 20
9.0
  9
$UNITMODE
 70
         0
  9
$VISRETAIN
 70
         0
  9
$PLINEGEN
 70
         1
  9
$PSLTSCALE
 70
         0
  9
$TREEDEPTH
 70
      3020
  9
$CMLSTYLE
  2
Standard
  9
$CMLJUST
 70
         0
  9
$CMLSCALE
 40
1.0
  9
$PROXYGRAPHICS
 70
         0
  9
$MEASUREMENT
 70
         0
  9
$CELWEIGHT
370
         0
  9
$ENDCAPS
280
         0
  9
$JOINSTYLE
280
         0
  9
$LWDISPLAY
290
         0
  9
$INSUNITS
 70
         0
  9
$HYPERLINKBASE
  1

  9
$XEDIT
290
         1
  9
$CEPSNTYPE
380
         0
  9
$PSTYLEMODE
290
         0
  9
$FINGERPRINTGUID
  2

  9
$VERSIONGUID
  2

  9
$EXTNAMES
290
         1
  9
$PSVPSCALE
 40
0.0
  0
ENDSEC
  0
SECTION
  2
CLASSES
  0
CLASS
  1
LWPOLYLINE
  2
AcDbPolyline
  3
"AutoCAD"
 90
        0
280
         0
281
         1
  0
CLASS
  1
IMAGE
  2
AcDbRasterImage
  3
ISM
 90
      127
280
         0
281
         1
  0
CLASS
  1
OLE2FRAME
  2
AcDbOle2Frame
  3
""
 90
        0
280
         0
281
         1
  0
CLASS
  1
HATCH
  2
AcDbHatch
  3
"ACAD_SEDONA"
 90
        0
280
         0
281
         1
  0
CLASS
  1
DICTIONARYVAR
  2
AcDbDictionaryVar
  3
"AutoCAD"
 90
        0
280
         0
281
         0
  0
CLASS
  1
RASTERVARIABLES
  2
AcDbRasterVariables
  3
ISM
 90
        0
280
         0
281
         0
  0
CLASS
  1
IMAGEDEF
  2
AcDbRasterImageDef
  3
ISM
 90
        0
280
         0
281
         0
  0
CLASS
  1
IMAGEDEF_REACTOR
  2
AcDbRasterImageDefReactor
  3
ISM
 90
        1
280
         0
281
         0
  0
CLASS
  1
IDBUFFER
  2
AcDbIdBuffer
  3
"Acad"
 90
        0
280
         0
281
         0
  0
CLASS
  1
SPATIAL_FILTER
  2
AcDbSpatialFilter
  3
"Acad"
 90
        0
280
         0
281
         0
  0
CLASS
  1
XRECORD
  2
AcDbXrecord
  3
"<Built In>"
 90
        0
280
         0
281
         0
  0
CLASS
  1
SORTENTSTABLE
  2
AcDbSortentsTable
  3
"AutoCAD"
 90
        0
280
         0
281
         0
  0
CLASS
  1
LAYER_INDEX
  2
AcDbLayerIndex
  3
"Acad"
 90
        0
280
         0
281
         0
  0
CLASS
  1
SPATIAL_INDEX
  2
AcDbSpatialIndex
  3
"Acad"
 90
        0
280
         0
281
         0
  0
CLASS
  1
OBJECT_PTR
  2
CAseDLPNTableRecord
  3
"ASE-LPNTableRecord"
 90
        1
280
         0
281
         0
  0
CLASS
  1
LAYOUT
  2
AcDbLayout
  3
"AutoCAD 2000"
 90
        1
280
         0
281
         0
  0
CLASS
  1
PLOTSETTINGS
  2
AcDbPlotSettings
  3
"AutoCAD 2000"
 90
        1
280
         0
281
         0
  0
CLASS
  1
ACDBDICTIONARYWDFLT
  2
AcDbDictionaryWithDefault
  3
"AutoCAD 2000"
 90
        1
280
         0
281
         0
  0
CLASS
  1
ACDBPLACEHOLDER
  2
AcDbPlaceHolder
  3
"AutoCAD 2000"
 90
        1
280
         0
281
         0
  0
CLASS
  1
VBA_PROJECT
  2
AcDbVbaProject
  3
"acadvba"
 90
        1
280
         0
281
         0
  0
CLASS
  1
WIPEOUT
  2
AcDbWipeout
  3
WipeOut|AutoCAD Express Tool|expresstools@autodesk.com
 90
      127
280
         0
281
         1
  0
CLASS
  1
WIPEOUTVARIABLES
  2
AcDbWipeoutVariables
  3
WipeOut|AutoCAD Express Tool|expresstools@autodesk.com
 90
        0
280
         0
281
         0
  0
CLASS
  1
RTEXT
  2
RText
  3
RText|AutoCAD Express Tool|expresstools@autodesk.com
 90
        0
280
         0
281
         1
  0
CLASS
  1
ARCALIGNEDTEXT
  2
AcDbArcAlignedText
  3
ATEXT|AutoCAD Express Tool|expresstools@autodesk.com
 90
        0
280
         0
281
         1
  0
ENDSEC
  0
SECTION
  2
TABLES
  0
TABLE
  2
VPORT
  5
7
100
AcDbSymbolTable
 70
         1
  0
VPORT
  5
15
100
AcDbSymbolTableRecord
100
AcDbViewportTableRecord
  2
*ACTIVE
 70
         0
 10
0.0
 20
0.0
 11
1.0
 21
1.0
 12
6.591288
 22
4.579184
 13
0.0
 23
0.0
 14
1.0
 24
1.0
 15
0.0
 25
0.0
 16
0.0
 26
0.0
 36
1.0
 17
0.0
 27
0.0
 37
0.0
 40
9.158369
 41
0.688564
 42
50.0
 43
0.0
 44
0.0
 50
0.0
 51
0.0
 71
         0
 72
       100
 73
         1
 74
         1
 75
         0
 76
         0
 77
         0
 78
         0
281
         0
 65
         0
110
0.0
120
0.0
130
0.0
111
1.0
121
0.0
131
0.0
112
0.0
122
1.0
132
0.0
345
0
346
0
 79
         0
146
0.0
  0
ENDTAB
  0
TABLE
  2
LTYPE
  5
4
100
AcDbSymbolTable
 70
        13
  0
LTYPE
  5
11
100
AcDbSymbolTableRecord
100
AcDbLinetypeTableRecord
  2
ByBlock
 70
        64
  3

 72
        65
 73
         0
 40
0.0
  0
LTYPE
  5
12
100
AcDbSymbolTableRecord
100
AcDbLinetypeTableRecord
  2
ByLayer
 70
        64
  3

 72
        65
 73
         0
 40
0.0
  0
LTYPE
  5
13
100
AcDbSymbolTableRecord
100
AcDbLinetypeTableRecord
  2
Continuous
 70
        64
  3
Solid line
 72
        65
 73
         0
 40
0.0
  0
LTYPE
  5
24
100
AcDbSymbolTableRecord
100
AcDbLinetypeTableRecord
  2
DOT
 70
        64
  3
. . . . . . . . 
 72
        65
 73
         2
 40
1.0
 49
0.0
 74
         0
 49
-1.0
 74
         0
  0
LTYPE
  5
25
100
AcDbSymbolTableRecord
100
AcDbLinetypeTableRecord
  2
DASHED
 70
        64
  3
___  ___  ___  ___  
 72
        65
 73
         2
 40
4.0
 49
3.0
 74
         0
 49
-1.0
 74
         0
  0
LTYPE
  5
26
100
AcDbSymbolTableRecord
100
AcDbLinetypeTableRecord
  2
HIDDEN
 70
        64
  3
__ __ __ __ 
 72
        65
 73
         2
 40
3.0
 49
2.0
 74
         0
 49
-1.0
 74
         0
  0
LTYPE
  5
27
100
AcDbSymbolTableRecord
100
AcDbLinetypeTableRecord
  2
STITCH
 70
        64
  3
_ _ _ _ 
 72
        65
 73
         2
 40
2.0
 49
1.0
 74
         0
 49
-1.0
 74
         0
  0
LTYPE
  5
28
100
AcDbSymbolTableRecord
100
AcDbLinetypeTableRecord
  2
CENTER
 70
        64
  3
______  __  ______  __  
 72
        65
 73
         4
 40
43.0
 49
40.0
 74
         0
 49
-1.0
 74
         0
 49
1.0
 74
         0
 49
-1.0
 74
         0
  0
LTYPE
  5
29
100
AcDbSymbolTableRecord
100
AcDbLinetypeTableRecord
  2
DASHDOT
 70
        64
  3
____ . ____ . 
 72
        65
 73
         4
 40
32.0
 49
30.0
 74
         0
 49
-1.0
 74
         0
 49
0.0
 74
         0
 49
-1.0
 74
         0
  0
LTYPE
  5
2A
100
AcDbSymbolTableRecord
100
AcDbLinetypeTableRecord
  2
BORDER
 70
        64
  3
__ . __ . 
 72
        65
 73
         4
 40
22.0
 49
20.0
 74
         0
 49
-1.0
 74
         0
 49
0.0
 74
         0
 49
-1.0
 74
         0
  0
LTYPE
  5
2B
100
AcDbSymbolTableRecord
100
AcDbLinetypeTableRecord
  2
CUTTING
 70
        64
  3
________   ___   ___   
 72
        65
 73
         6
 40
45.0
 49
40.0
 74
         0
 49
-1.0
 74
         0
 49
1.0
 74
         0
 49
-1.0
 74
         0
 49
1.0
 74
         0
 49
-1.0
 74
         0
  0
LTYPE
  5
2C
100
AcDbSymbolTableRecord
100
AcDbLinetypeTableRecord
  2
PHANTOM
 70
        64
  3
______  __  __  
 72
        65
 73
         6
 40
35.0
 49
30.0
 74
         0
 49
-1.0
 74
         0
 49
1.0
 74
         0
 49
-1.0
 74
         0
 49
1.0
 74
         0
 49
-1.0
 74
         0
  0
LTYPE
  5
2D
100
AcDbSymbolTableRecord
100
AcDbLinetypeTableRecord
  2
DIVIDE
 70
        64
  3
____ . . ____ . . 
 72
        65
 73
         6
 40
23.0
 49
20.0
 74
         0
 49
-1.0
 74
         0
 49
0.0
 74
         0
 49
-1.0
 74
         0
 49
0.0
 74
         0
 49
-1.0
 74
         0
  0
ENDTAB
  0
TABLE
  2
LAYER
  5
2
100
AcDbSymbolTable
 70
         3
  0
LAYER
  5
14
100
AcDbSymbolTableRecord
100
AcDbLayerTableRecord
  2
0
 70
         0
 62
         7
  6
Continuous
290
         1
370
        -3
390
1D
  0
LAYER
  5
2E
100
AcDbSymbolTableRecord
100
AcDbLayerTableRecord
  2
LAYER0
 70
         0
 62
         7
  6
Continuous
290
         1
370
        -3
390
1F
  0
LAYER
  5
30
100
AcDbSymbolTableRecord
100
AcDbLayerTableRecord
  2
LAYER3
 70
         0
 62
         7
  6
Continuous
290
         1
370
        -3
390
1F
  0
ENDTAB
  0
TABLE
  2
STYLE
  5
3
100
AcDbSymbolTable
 70
         1
  0
STYLE
  5
17
100
AcDbSymbolTableRecord
100
AcDbTextStyleTableRecord
  2
Standard
 70
         0
 40
0.0
 41
1.0
 50
0.0
 71
         0
 42
0.0
  3
txt
  4
extfont
  0
ENDTAB
  0
TABLE
  2
VIEW
  5
5
100
AcDbSymbolTable
 70
         0
  0
ENDTAB
  0
TABLE
  2
UCS
  5
6
100
AcDbSymbolTable
 70
         0
  0
ENDTAB
  0
TABLE
  2
APPID
  5
8
100
AcDbSymbolTable
 70
         1
  0
APPID
  5
16
100
AcDbSymbolTableRecord
100
AcDbRegAppTableRecord
  2
ACAD
 70
         0
  0
ENDTAB
  0
TABLE
  2
DIMSTYLE
  5
9
100
AcDbSymbolTable
 70
         1
100
AcDbDimStyleTable
 71
         0
  0
DIMSTYLE
105
18
100
AcDbSymbolTableRecord
100
AcDbDimStyleTableRecord
  2
Standard
 70
         0
  3

  4

 40
1.0
 41
0.18
 42
0.0625
 43
0.38
 44
0.18
 45
0.0
 46
0.0
 47
0.0
 48
0.0
 71
         0
 72
         0
 73
         1
 74
         1
 75
         0
 76
         0
 77
         0
 78
         0
 79
         0
140
0.18
141
0.09
142
0.0
143
25.4
144
1.0
145
0.0
146
1.0
147
0.09
148
0.0
170
         0
171
         2
172
         0
173
         0
174
         0
175
         0
176
         0
177
         0
178
         0
179
         0
271
         4
272
         4
273
         2
274
         2
275
         0
276
         0
277
         2
278
        46
279
         0
280
         0
281
         0
282
         0
283
         1
284
         0
285
         0
286
         0
288
         0
340
17
341
0
342
0
343
0
344
0
371
        -2
372
        -2
  0
ENDTAB
  0
TABLE
  2
BLOCK_RECORD
  5
1
100
AcDbSymbolTable
 70
       100
  0
BLOCK_RECORD
  5
A
100
AcDbSymbolTableRecord
100
AcDbBlockTableRecord
  2
*MODEL_SPACE
340
20
  0
BLOCK_RECORD
  5
B
100
AcDbSymbolTableRecord
100
AcDbBlockTableRecord
  2
*PAPER_SPACE
340
21
  0
BLOCK_RECORD
  5
4B
100
AcDbSymbolTableRecord
100
AcDbBlockTableRecord
  2
CLUMP0
340
0
  0
BLOCK_RECORD
  5
4E
100
AcDbSymbolTableRecord
100
AcDbBlockTableRecord
  2
CLUMP1
340
0
  0
BLOCK_RECORD
  5
64
100
AcDbSymbolTableRecord
100
AcDbBlockTableRecord
  2
CLUMP2
340
0
  0
BLOCK_RECORD
  5
67
100
AcDbSymbolTableRecord
100
AcDbBlockTableRecord
  2
CLUMP3
340
0
  0
BLOCK_RECORD
  5
7E
100
AcDbSymbolTableRecord
100
AcDbBlockTableRecord
  2
CLUMP4
340
0
  0
BLOCK_RECORD
  5
81
100
AcDbSymbolTableRecord
100
AcDbBlockTableRecord
  2
CLUMP5
340
0
  0
BLOCK_RECORD
  5
93
100
AcDbSymbolTableRecord
100
AcDbBlockTableRecord
  2
CLUMP6
340
0
  0
BLOCK_RECORD
  5
96
100
AcDbSymbolTableRecord
100
AcDbBlockTableRecord
  2
CLUMP7
340
0
  0
BLOCK_RECORD
  5
9D
100
AcDbSymbolTableRecord
100
AcDbBlockTableRecord
  2
CLUMP8
340
0
  0
BLOCK_RECORD
  5
A0
100
AcDbSymbolTableRecord
100
AcDbBlockTableRecord
  2
CLUMP9
340
0
  0
BLOCK_RECORD
  5
AC
100
AcDbSymbolTableRecord
100
AcDbBlockTableRecord
  2
CLUMP10
340
0
  0
BLOCK_RECORD
  5
AF
100
AcDbSymbolTableRecord
100
AcDbBlockTableRecord
  2
CLUMP11
340
0
  0
BLOCK_RECORD
  5
B6
100
AcDbSymbolTableRecord
100
AcDbBlockTableRecord
  2
CLUMP12
340
0
  0
BLOCK_RECORD
  5
B9
100
AcDbSymbolTableRecord
100
AcDbBlockTableRecord
  2
CLUMP13
340
0
  0
BLOCK_RECORD
  5
C2
100
AcDbSymbolTableRecord
100
AcDbBlockTableRecord
  2
CLUMP14
340
0
  0
BLOCK_RECORD
  5
C5
100
AcDbSymbolTableRecord
100
AcDbBlockTableRecord
  2
CLUMP15
340
0
  0
BLOCK_RECORD
  5
DC
100
AcDbSymbolTableRecord
100
AcDbBlockTableRecord
  2
CLUMP16
340
0
  0
BLOCK_RECORD
  5
DF
100
AcDbSymbolTableRecord
100
AcDbBlockTableRecord
  2
CLUMP17
340
0
  0
BLOCK_RECORD
  5
F4
100
AcDbSymbolTableRecord
100
AcDbBlockTableRecord
  2
CLUMP18
340
0
  0
BLOCK_RECORD
  5
F7
100
AcDbSymbolTableRecord
100
AcDbBlockTableRecord
  2
CLUMP19
340
0
  0
BLOCK_RECORD
  5
10C
100
AcDbSymbolTableRecord
100
AcDbBlockTableRecord
  2
CLUMP20
340
0
  0
BLOCK_RECORD
  5
10F
100
AcDbSymbolTableRecord
100
AcDbBlockTableRecord
  2
CLUMP21
340
0
  0
BLOCK_RECORD
  5
126
100
AcDbSymbolTableRecord
100
AcDbBlockTableRecord
  2
CLUMP22
340
0
  0
BLOCK_RECORD
  5
129
100
AcDbSymbolTableRecord
100
AcDbBlockTableRecord
  2
CLUMP23
340
0
  0
BLOCK_RECORD
  5
135
100
AcDbSymbolTableRecord
100
AcDbBlockTableRecord
  2
CLUMP24
340
0
  0
BLOCK_RECORD
  5
138
100
AcDbSymbolTableRecord
100
AcDbBlockTableRecord
  2
CLUMP25
340
0
  0
BLOCK_RECORD
  5
142
100
AcDbSymbolTableRecord
100
AcDbBlockTableRecord
  2
CLUMP26
340
0
  0
BLOCK_RECORD
  5
145
100
AcDbSymbolTableRecord
100
AcDbBlockTableRecord
  2
CLUMP27
340
0
  0
BLOCK_RECORD
  5
151
100
AcDbSymbolTableRecord
100
AcDbBlockTableRecord
  2
CLUMP28
340
0
  0
BLOCK_RECORD
  5
154
100
AcDbSymbolTableRecord
100
AcDbBlockTableRecord
  2
CLUMP29
340
0
  0
BLOCK_RECORD
  5
15E
100
AcDbSymbolTableRecord
100
AcDbBlockTableRecord
  2
CLUMP30
340
0
  0
BLOCK_RECORD
  5
161
100
AcDbSymbolTableRecord
100
AcDbBlockTableRecord
  2
CLUMP31
340
0
  0
BLOCK_RECORD
  5
172
100
AcDbSymbolTableRecord
100
AcDbBlockTableRecord
  2
CLUMP32
340
0
  0
BLOCK_RECORD
  5
175
100
AcDbSymbolTableRecord
100
AcDbBlockTableRecord
  2
CLUMP33
340
0
  0
BLOCK_RECORD
  5
186
100
AcDbSymbolTableRecord
100
AcDbBlockTableRecord
  2
CLUMP34
340
0
  0
BLOCK_RECORD
  5
189
100
AcDbSymbolTableRecord
100
AcDbBlockTableRecord
  2
CLUMP35
340
0
  0
BLOCK_RECORD
  5
19C
100
AcDbSymbolTableRecord
100
AcDbBlockTableRecord
  2
CLUMP36
340
0
  0
BLOCK_RECORD
  5
19F
100
AcDbSymbolTableRecord
100
AcDbBlockTableRecord
  2
CLUMP37
340
0
  0
BLOCK_RECORD
  5
1B8
100
AcDbSymbolTableRecord
100
AcDbBlockTableRecord
  2
CLUMP38
340
0
  0
BLOCK_RECORD
  5
1BB
100
AcDbSymbolTableRecord
100
AcDbBlockTableRecord
  2
CLUMP39
340
0
  0
BLOCK_RECORD
  5
1CF
100
AcDbSymbolTableRecord
100
AcDbBlockTableRecord
  2
CLUMP40
340
0
  0
BLOCK_RECORD
  5
1D2
100
AcDbSymbolTableRecord
100
AcDbBlockTableRecord
  2
CLUMP41
340
0
  0
BLOCK_RECORD
  5
1E4
100
AcDbSymbolTableRecord
100
AcDbBlockTableRecord
  2
CLUMP42
340
0
  0
BLOCK_RECORD
  5
1E7
100
AcDbSymbolTableRecord
100
AcDbBlockTableRecord
  2
CLUMP43
340
0
  0
BLOCK_RECORD
  5
1F0
100
AcDbSymbolTableRecord
100
AcDbBlockTableRecord
  2
CLUMP44
340
0
  0
BLOCK_RECORD
  5
1F3
100
AcDbSymbolTableRecord
100
AcDbBlockTableRecord
  2
CLUMP45
340
0
  0
BLOCK_RECORD
  5
1FC
100
AcDbSymbolTableRecord
100
AcDbBlockTableRecord
  2
CLUMP46
340
0
  0
BLOCK_RECORD
  5
1FF
100
AcDbSymbolTableRecord
100
AcDbBlockTableRecord
  2
CLUMP47
340
0
  0
BLOCK_RECORD
  5
219
100
AcDbSymbolTableRecord
100
AcDbBlockTableRecord
  2
CLUMP48
340
0
  0
BLOCK_RECORD
  5
21C
100
AcDbSymbolTableRecord
100
AcDbBlockTableRecord
  2
CLUMP49
340
0
  0
BLOCK_RECORD
  5
236
100
AcDbSymbolTableRecord
100
AcDbBlockTableRecord
  2
CLUMP50
340
0
  0
BLOCK_RECORD
  5
239
100
AcDbSymbolTableRecord
100
AcDbBlockTableRecord
  2
CLUMP51
340
0
  0
BLOCK_RECORD
  5
24D
100
AcDbSymbolTableRecord
100
AcDbBlockTableRecord
  2
CLUMP52
340
0
  0
BLOCK_RECORD
  5
250
100
AcDbSymbolTableRecord
100
AcDbBlockTableRecord
  2
CLUMP53
340
0
  0
BLOCK_RECORD
  5
264
100
AcDbSymbolTableRecord
100
AcDbBlockTableRecord
  2
CLUMP54
340
0
  0
BLOCK_RECORD
  5
267
100
AcDbSymbolTableRecord
100
AcDbBlockTableRecord
  2
CLUMP55
340
0
  0
BLOCK_RECORD
  5
276
100
AcDbSymbolTableRecord
100
AcDbBlockTableRecord
  2
CLUMP56
340
0
  0
BLOCK_RECORD
  5
279
100
AcDbSymbolTableRecord
100
AcDbBlockTableRecord
  2
CLUMP57
340
0
  0
BLOCK_RECORD
  5
288
100
AcDbSymbolTableRecord
100
AcDbBlockTableRecord
  2
CLUMP58
340
0
  0
BLOCK_RECORD
  5
28B
100
AcDbSymbolTableRecord
100
AcDbBlockTableRecord
  2
CLUMP59
340
0
  0
BLOCK_RECORD
  5
299
100
AcDbSymbolTableRecord
100
AcDbBlockTableRecord
  2
CLUMP60
340
0
  0
BLOCK_RECORD
  5
29C
100
AcDbSymbolTableRecord
100
AcDbBlockTableRecord
  2
CLUMP61
340
0
  0
BLOCK_RECORD
  5
2A8
100
AcDbSymbolTableRecord
100
AcDbBlockTableRecord
  2
CLUMP62
340
0
  0
BLOCK_RECORD
  5
2AB
100
AcDbSymbolTableRecord
100
AcDbBlockTableRecord
  2
CLUMP63
340
0
  0
BLOCK_RECORD
  5
2B9
100
AcDbSymbolTableRecord
100
AcDbBlockTableRecord
  2
CLUMP64
340
0
  0
BLOCK_RECORD
  5
2BC
100
AcDbSymbolTableRecord
100
AcDbBlockTableRecord
  2
CLUMP65
340
0
  0
BLOCK_RECORD
  5
2C8
100
AcDbSymbolTableRecord
100
AcDbBlockTableRecord
  2
CLUMP66
340
0
  0
BLOCK_RECORD
  5
2CB
100
AcDbSymbolTableRecord
100
AcDbBlockTableRecord
  2
CLUMP67
340
0
  0
BLOCK_RECORD
  5
2DF
100
AcDbSymbolTableRecord
100
AcDbBlockTableRecord
  2
CLUMP68
340
0
  0
BLOCK_RECORD
  5
2E2
100
AcDbSymbolTableRecord
100
AcDbBlockTableRecord
  2
CLUMP69
340
0
  0
BLOCK_RECORD
  5
2F6
100
AcDbSymbolTableRecord
100
AcDbBlockTableRecord
  2
CLUMP70
340
0
  0
BLOCK_RECORD
  5
2F9
100
AcDbSymbolTableRecord
100
AcDbBlockTableRecord
  2
CLUMP71
340
0
  0
BLOCK_RECORD
  5
313
100
AcDbSymbolTableRecord
100
AcDbBlockTableRecord
  2
CLUMP72
340
0
  0
BLOCK_RECORD
  5
316
100
AcDbSymbolTableRecord
100
AcDbBlockTableRecord
  2
CLUMP73
340
0
  0
BLOCK_RECORD
  5
342
100
AcDbSymbolTableRecord
100
AcDbBlockTableRecord
  2
CLUMP74
340
0
  0
BLOCK_RECORD
  5
345
100
AcDbSymbolTableRecord
100
AcDbBlockTableRecord
  2
CLUMP75
340
0
  0
BLOCK_RECORD
  5
36A
100
AcDbSymbolTableRecord
100
AcDbBlockTableRecord
  2
CLUMP76
340
0
  0
BLOCK_RECORD
  5
36D
100
AcDbSymbolTableRecord
100
AcDbBlockTableRecord
  2
CLUMP77
340
0
  0
BLOCK_RECORD
  5
376
100
AcDbSymbolTableRecord
100
AcDbBlockTableRecord
  2
CLUMP78
340
0
  0
BLOCK_RECORD
  5
379
100
AcDbSymbolTableRecord
100
AcDbBlockTableRecord
  2
CLUMP79
340
0
  0
BLOCK_RECORD
  5
380
100
AcDbSymbolTableRecord
100
AcDbBlockTableRecord
  2
CLUMP80
340
0
  0
BLOCK_RECORD
  5
383
100
AcDbSymbolTableRecord
100
AcDbBlockTableRecord
  2
CLUMP81
340
0
  0
BLOCK_RECORD
  5
38A
100
AcDbSymbolTableRecord
100
AcDbBlockTableRecord
  2
CLUMP82
340
0
  0
BLOCK_RECORD
  5
38D
100
AcDbSymbolTableRecord
100
AcDbBlockTableRecord
  2
CLUMP83
340
0
  0
BLOCK_RECORD
  5
3A3
100
AcDbSymbolTableRecord
100
AcDbBlockTableRecord
  2
CLUMP84
340
0
  0
BLOCK_RECORD
  5
3A6
100
AcDbSymbolTableRecord
100
AcDbBlockTableRecord
  2
CLUMP85
340
0
  0
BLOCK_RECORD
  5
3B6
100
AcDbSymbolTableRecord
100
AcDbBlockTableRecord
  2
CLUMP86
340
0
  0
BLOCK_RECORD
  5
3B9
100
AcDbSymbolTableRecord
100
AcDbBlockTableRecord
  2
CLUMP87
340
0
  0
BLOCK_RECORD
  5
3CB
100
AcDbSymbolTableRecord
100
AcDbBlockTableRecord
  2
CLUMP88
340
0
  0
BLOCK_RECORD
  5
3CE
100
AcDbSymbolTableRecord
100
AcDbBlockTableRecord
  2
CLUMP89
340
0
  0
BLOCK_RECORD
  5
3F2
100
AcDbSymbolTableRecord
100
AcDbBlockTableRecord
  2
CLUMP90
340
0
  0
BLOCK_RECORD
  5
3F5
100
AcDbSymbolTableRecord
100
AcDbBlockTableRecord
  2
CLUMP91
340
0
  0
BLOCK_RECORD
  5
40B
100
AcDbSymbolTableRecord
100
AcDbBlockTableRecord
  2
CLUMP92
340
0
  0
BLOCK_RECORD
  5
40E
100
AcDbSymbolTableRecord
100
AcDbBlockTableRecord
  2
CLUMP93
340
0
  0
BLOCK_RECORD
  5
428
100
AcDbSymbolTableRecord
100
AcDbBlockTableRecord
  2
CLUMP94
340
0
  0
BLOCK_RECORD
  5
42B
100
AcDbSymbolTableRecord
100
AcDbBlockTableRecord
  2
CLUMP95
340
0
  0
BLOCK_RECORD
  5
443
100
AcDbSymbolTableRecord
100
AcDbBlockTableRecord
  2
CLUMP96
340
0
  0
BLOCK_RECORD
  5
446
100
AcDbSymbolTableRecord
100
AcDbBlockTableRecord
  2
CLUMP97
340
0
  0
BLOCK_RECORD
  5
456
100
AcDbSymbolTableRecord
100
AcDbBlockTableRecord
  2
CLUMP98
340
0
  0
BLOCK_RECORD
  5
459
100
AcDbSymbolTableRecord
100
AcDbBlockTableRecord
  2
CLUMP99
340
0
  0
ENDTAB
  0
ENDSEC
  0
SECTION
  2
BLOCKS
  0
BLOCK
  5
D
100
AcDbEntity
  8
0
100
AcDbBlockBegin
  2
*MODEL_SPACE
 70
         0
 10
0.0
 20
0.0
 30
0.0
  3
*MODEL_SPACE
  1

  0
ENDBLK
  5
E
100
AcDbEntity
  8
0
100
AcDbBlockEnd
  0
BLOCK
  5
F
100
AcDbEntity
 67
         1
  8
0
100
AcDbBlockBegin
  2
*PAPER_SPACE
 70
         0
 10
0.0
 20
0.0
 30
0.0
  3
*PAPER_SPACE
  1

  0
ENDBLK
  5
10
100
AcDbEntity
 67
         1
  8
0
100
AcDbBlockEnd
  0
BLOCK
  5
4D
100
AcDbEntity
  8
0
100
AcDbBlockBegin
  2
CLUMP0
 70
         0
 10
0.0
 20
0.0
 30
0.0
  3

  1

  0
INSERT
  5
4F
100
AcDbEntity
  8
0
100
AcDbBlockReference
  2
CLUMP1
 10
0.0
 20
0.0
 30
0.0
  0
ENDBLK
  5
63
100
AcDbEntity
  8
0
100
AcDbBlockEnd
  0
BLOCK
  5
50
100
AcDbEntity
  8
0
100
AcDbBlockBegin
  2
CLUMP1
 70
         0
 10
0.0
 20
0.0
 30
0.0
  3

  1

  0
LINE
  5
51
100
AcDbEntity
  8
LAYER0
 62
         3
100
AcDbLine
 10
14.9573806957
 20
27.356483501
 30
0.0
 11
14.9872858904
 21
27.0338074273
 31
0.0
  0
LINE
  5
52
100
AcDbEntity
  8
LAYER0
 62
         3
100
AcDbLine
 10
14.9872858904
 20
27.0338074273
 30
0.0
 11
15.0443047569
 21
26.7206956563
 31
0.0
  0
LINE
  5
53
100
AcDbEntity
  8
LAYER0
 62
         3
100
AcDbLine
 10
15.0443047569
 20
26.7206956563
 30
0.0
 11
15.0909839088
 21
26.5698395762
 31
0.0
  0
LINE
  5
54
100
AcDbEntity
  8
LAYER0
 62
         3
100
AcDbLine
 10
15.0909839088
 20
26.5698395762
 30
0.0
 11
15.1500987553
 21
26.4248567715
 31
0.0
  0
LINE
  5
55
100
AcDbEntity
  8
LAYER0
 62
         3
100
AcDbLine
 10
15.1500987553
 20
26.4248567715
 30
0.0
 11
15.2203719216
 21
26.2867832552
 31
0.0
  0
LINE
  5
56
100
AcDbEntity
  8
LAYER0
 62
         3
100
AcDbLine
 10
15.2203719216
 20
26.2867832552
 30
0.0
 11
15.3005260326
 21
26.1566550401
 31
0.0
  0
LINE
  5
57
100
AcDbEntity
  8
LAYER0
 62
         3
100
AcDbLine
 10
15.3005260326
 20
26.1566550401
 30
0.0
 11
15.3913975298
 21
26.0329091457
 31
0.0
  0
LINE
  5
58
100
AcDbEntity
  8
LAYER0
 62
         3
100
AcDbLine
 10
15.3913975298
 20
26.0329091457
 30
0.0
 11
15.4907884753
 21
25.9187967933
 31
0.0
  0
LINE
  5
59
100
AcDbEntity
  8
LAYER0
 62
         3
100
AcDbLine
 10
15.4907884753
 20
25.9187967933
 30
0.0
 11
15.598246657
 21
25.8145859588
 31
0.0
  0
LINE
  5
5A
100
AcDbEntity
  8
LAYER0
 62
         3
100
AcDbLine
 10
15.598246657
 20
25.8145859588
 30
0.0
 11
15.7133198627
 21
25.7205446181
 31
0.0
  0
LINE
  5
5B
100
AcDbEntity
  8
LAYER0
 62
         3
100
AcDbLine
 10
15.7133198627
 20
25.7205446181
 30
0.0
 11
15.8425192187
 21
25.6326550335
 31
0.0
  0
LINE
  5
5C
100
AcDbEntity
  8
LAYER0
 62
         3
100
AcDbLine
 10
15.8425192187
 20
25.6326550335
 30
0.0
 11
15.9788196013
 21
25.5571117459
 31
0.0
  0
LINE
  5
5D
100
AcDbEntity
  8
LAYER0
 62
         3
100
AcDbLine
 10
15.9788196013
 20
25.5571117459
 30
0.0
 11
16.1213376454
 21
25.4946263972
 31
0.0
  0
LINE
  5
5E
100
AcDbEntity
  8
LAYER0
 62
         3
100
AcDbLine
 10
16.1213376454
 20
25.4946263972
 30
0.0
 11
16.2691899859
 21
25.4459106294
 31
0.0
  0
LINE
  5
5F
100
AcDbEntity
  8
LAYER0
 62
         3
100
AcDbLine
 10
16.2691899859
 20
25.4459106294
 30
0.0
 11
16.4260403055
 21
25.4101187528
 31
0.0
  0
LINE
  5
60
100
AcDbEntity
  8
LAYER0
 62
         3
100
AcDbLine
 10
16.4260403055
 20
25.4101187528
 30
0.0
 11
16.5864300847
 21
25.3858426012
 31
0.0
  0
LINE
  5
61
100
AcDbEntity
  8
LAYER0
 62
         3
100
AcDbLine
 10
16.5864300847
 20
25.3858426012
 30
0.0
 11
16.9131087423
 21
25.3564831731
 31
0.0
  0
ENDBLK
  5
62
100
AcDbEntity
  8
0
100
AcDbBlockEnd
  0
BLOCK
  5
66
100
AcDbEntity
  8
0
100
AcDbBlockBegin
  2
CLUMP2
 70
         0
 10
0.0
 20
0.0
 30
0.0
  3

  1

  0
INSERT
  5
68
100
AcDbEntity
  8
0
100
AcDbBlockReference
  2
CLUMP3
 10
0.0
 20
0.0
 30
0.0
  0
ENDBLK
  5
7D
100
AcDbEntity
  8
0
100
AcDbBlockEnd
  0
BLOCK
  5
69
100
AcDbEntity
  8
0
100
AcDbBlockBegin
  2
CLUMP3
 70
         0
 10
0.0
 20
0.0
 30
0.0
  3

  1

  0
LINE
  5
6A
100
AcDbEntity
  8
LAYER0
 62
         3
100
AcDbLine
 10
16.6679757931
 20
24.8564821599
 30
0.0
 11
16.2861367971
 21
24.8839748023
 31
0.0
  0
LINE
  5
6B
100
AcDbEntity
  8
LAYER0
 62
         3
100
AcDbLine
 10
16.2861367971
 20
24.8839748023
 30
0.0
 11
16.100164232
 21
24.9181234188
 31
0.0
  0
LINE
  5
6C
100
AcDbEntity
  8
LAYER0
 62
         3
100
AcDbLine
 10
16.100164232
 20
24.9181234188
 30
0.0
 11
15.9189260848
 21
24.9682669458
 31
0.0
  0
LINE
  5
6D
100
AcDbEntity
  8
LAYER0
 62
         3
100
AcDbLine
 10
15.9189260848
 20
24.9682669458
 30
0.0
 11
15.7454915748
 21
25.0320660915
 31
0.0
  0
LINE
  5
6E
100
AcDbEntity
  8
LAYER0
 62
         3
100
AcDbLine
 10
15.7454915748
 20
25.0320660915
 30
0.0
 11
15.5781849571
 21
25.110306677
 31
0.0
  0
LINE
  5
6F
100
AcDbEntity
  8
LAYER0
 62
         3
100
AcDbLine
 10
15.5781849571
 20
25.110306677
 30
0.0
 11
15.4180065565
 21
25.203423832
 31
0.0
  0
LINE
  5
70
100
AcDbEntity
  8
LAYER0
 62
         3
100
AcDbLine
 10
15.4180065565
 20
25.203423832
 30
0.0
 11
15.265953476
 21
25.3115598974
 31
0.0
  0
LINE
  5
71
100
AcDbEntity
  8
LAYER0
 62
         3
100
AcDbLine
 10
15.265953476
 20
25.3115598974
 30
0.0
 11
15.1293096158
 21
25.4287506518
 31
0.0
  0
LINE
  5
72
100
AcDbEntity
  8
LAYER0
 62
         3
100
AcDbLine
 10
15.1293096158
 20
25.4287506518
 30
0.0
 11
15.0017079249
 21
25.5590625969
 31
0.0
  0
LINE
  5
73
100
AcDbEntity
  8
LAYER0
 62
         3
100
AcDbLine
 10
15.0017079249
 20
25.5590625969
 30
0.0
 11
14.8838579956
 21
25.701864261
 31
0.0
  0
LINE
  5
74
100
AcDbEntity
  8
LAYER0
 62
         3
100
AcDbLine
 10
14.8838579956
 20
25.701864261
 30
0.0
 11
14.7765681431
 21
25.8566983906
 31
0.0
  0
LINE
  5
75
100
AcDbEntity
  8
LAYER0
 62
         3
100
AcDbLine
 10
14.7765681431
 20
25.8566983906
 30
0.0
 11
14.6825336154
 21
26.0194113302
 31
0.0
  0
LINE
  5
76
100
AcDbEntity
  8
LAYER0
 62
         3
100
AcDbLine
 10
14.6825336154
 20
26.0194113302
 30
0.0
 11
14.5999674969
 21
26.1919707922
 31
0.0
  0
LINE
  5
77
100
AcDbEntity
  8
LAYER0
 62
         3
100
AcDbLine
 10
14.5999674969
 20
26.1919707922
 30
0.0
 11
14.5292832154
 21
26.3731180971
 31
0.0
  0
LINE
  5
78
100
AcDbEntity
  8
LAYER0
 62
         3
100
AcDbLine
 10
14.5292832154
 20
26.3731180971
 30
0.0
 11
14.4705816456
 21
26.5617524204
 31
0.0
  0
LINE
  5
79
100
AcDbEntity
  8
LAYER0
 62
         3
100
AcDbLine
 10
14.4705816456
 20
26.5617524204
 30
0.0
 11
14.4246247928
 21
26.7550079943
 31
0.0
  0
LINE
  5
7A
100
AcDbEntity
  8
LAYER0
 62
         3
100
AcDbLine
 10
14.4246247928
 20
26.7550079943
 30
0.0
 11
14.3927500867
 21
26.9529339788
 31
0.0
  0
LINE
  5
7B
100
AcDbEntity
  8
LAYER0
 62
         3
100
AcDbLine
 10
14.3927500867
 20
26.9529339788
 30
0.0
 11
14.3663461604
 21
27.356483501
 31
0.0
  0
ENDBLK
  5
7C
100
AcDbEntity
  8
0
100
AcDbBlockEnd
  0
BLOCK
  5
80
100
AcDbEntity
  8
0
100
AcDbBlockBegin
  2
CLUMP4
 70
         0
 10
0.0
 20
0.0
 30
0.0
  3

  1

  0
INSERT
  5
82
100
AcDbEntity
  8
0
100
AcDbBlockReference
  2
CLUMP5
 10
0.0
 20
0.0
 30
0.0
  0
ENDBLK
  5
92
100
AcDbEntity
  8
0
100
AcDbBlockEnd
  0
BLOCK
  5
83
100
AcDbEntity
  8
0
100
AcDbBlockBegin
  2
CLUMP5
 70
         0
 10
0.0
 20
0.0
 30
0.0
  3

  1

  0
LINE
  5
84
100
AcDbEntity
  8
LAYER0
 62
         3
100
AcDbLine
 10
15.051853592
 20
-19.2460496979
 30
0.0
 11
15.0451859247
 21
-19.2356762828
 31
0.0
  0
LINE
  5
85
100
AcDbEntity
  8
LAYER0
 62
         3
100
AcDbLine
 10
15.0451859247
 20
-19.2356762828
 30
0.0
 11
15.0412316821
 21
-19.2295243606
 31
0.0
  0
LINE
  5
86
100
AcDbEntity
  8
LAYER0
 62
         3
100
AcDbLine
 10
15.0412316821
 20
-19.2295243606
 30
0.0
 11
15.0365329489
 21
-19.2222141809
 31
0.0
  0
LINE
  5
87
100
AcDbEntity
  8
LAYER0
 62
         3
100
AcDbLine
 10
15.0365329489
 20
-19.2222141809
 30
0.0
 11
15.0308415615
 21
-19.2133596578
 31
0.0
  0
LINE
  5
88
100
AcDbEntity
  8
LAYER0
 62
         3
100
AcDbLine
 10
15.0308415615
 20
-19.2133596578
 30
0.0
 11
15.0239093563
 21
-19.2025747056
 31
0.0
  0
LINE
  5
89
100
AcDbEntity
  8
LAYER0
 62
         3
100
AcDbLine
 10
15.0239093563
 20
-19.2025747056
 30
0.0
 11
15.0154881698
 21
-19.1894732383
 31
0.0
  0
LINE
  5
8A
100
AcDbEntity
  8
LAYER0
 62
         3
100
AcDbLine
 10
15.0154881698
 20
-19.1894732383
 30
0.0
 11
15.0106416575
 21
-19.1819331596
 31
0.0
  0
LINE
  5
8B
100
AcDbEntity
  8
LAYER0
 62
         3
100
AcDbLine
 10
15.0106416575
 20
-19.1819331596
 30
0.0
 11
15.0053298384
 21
-19.1736691701
 31
0.0
  0
LINE
  5
8C
100
AcDbEntity
  8
LAYER0
 62
         3
100
AcDbLine
 10
15.0053298384
 20
-19.1736691701
 30
0.0
 11
14.999097713
 21
-19.163973393
 31
0.0
  0
LINE
  5
8D
100
AcDbEntity
  8
LAYER0
 62
         3
100
AcDbLine
 10
14.999097713
 20
-19.163973393
 30
0.0
 11
14.9923658888
 21
-19.1535001987
 31
0.0
  0
LINE
  5
8E
100
AcDbEntity
  8
LAYER0
 62
         3
100
AcDbLine
 10
14.9923658888
 20
-19.1535001987
 30
0.0
 11
14.9776886861
 21
-19.1306657966
 31
0.0
  0
LINE
  5
8F
100
AcDbEntity
  8
LAYER0
 62
         3
100
AcDbLine
 10
14.9776886861
 20
-19.1306657966
 30
0.0
 11
14.9618693147
 21
-19.1060544406
 31
0.0
  0
LINE
  5
90
100
AcDbEntity
  8
LAYER0
 62
         3
100
AcDbLine
 10
14.9618693147
 20
-19.1060544406
 30
0.0
 11
14.9454788588
 21
-19.0805546077
 31
0.0
  0
ENDBLK
  5
91
100
AcDbEntity
  8
0
100
AcDbBlockEnd
  0
BLOCK
  5
95
100
AcDbEntity
  8
0
100
AcDbBlockBegin
  2
CLUMP6
 70
         0
 10
0.0
 20
0.0
 30
0.0
  3

  1

  0
INSERT
  5
97
100
AcDbEntity
  8
0
100
AcDbBlockReference
  2
CLUMP7
 10
0.0
 20
0.0
 30
0.0
  0
ENDBLK
  5
9C
100
AcDbEntity
  8
0
100
AcDbBlockEnd
  0
BLOCK
  5
98
100
AcDbEntity
  8
0
100
AcDbBlockBegin
  2
CLUMP7
 70
         0
 10
0.0
 20
0.0
 30
0.0
  3

  1

  0
LINE
  5
99
100
AcDbEntity
  8
LAYER0
 62
         3
100
AcDbLine
 10
15.3190512087
 20
42.3587318643
 30
0.0
 11
15.4351458268
 21
42.3564830089
 31
0.0
  0
LINE
  5
9A
100
AcDbEntity
  8
LAYER0
 62
         3
100
AcDbLine
 10
15.4351458268
 20
42.3564830089
 30
0.0
 11
15.3190512087
 21
42.3587318643
 31
0.0
  0
ENDBLK
  5
9B
100
AcDbEntity
  8
0
100
AcDbBlockEnd
  0
BLOCK
  5
9F
100
AcDbEntity
  8
0
100
AcDbBlockBegin
  2
CLUMP8
 70
         0
 10
0.0
 20
0.0
 30
0.0
  3

  1

  0
INSERT
  5
A1
100
AcDbEntity
  8
0
100
AcDbBlockReference
  2
CLUMP9
 10
0.0
 20
0.0
 30
0.0
  0
ENDBLK
  5
AB
100
AcDbEntity
  8
0
100
AcDbBlockEnd
  0
BLOCK
  5
A2
100
AcDbEntity
  8
0
100
AcDbBlockBegin
  2
CLUMP9
 70
         0
 10
0.0
 20
0.0
 30
0.0
  3

  1

  0
LINE
  5
A3
100
AcDbEntity
  8
LAYER0
 62
         3
100
AcDbLine
 10
14.3663461604
 20
43.3564823983
 30
0.0
 11
14.3705352493
 21
43.3536251006
 31
0.0
  0
LINE
  5
A4
100
AcDbEntity
  8
LAYER0
 62
         3
100
AcDbLine
 10
14.3705352493
 20
43.3536251006
 30
0.0
 11
14.4515634144
 21
43.2997177694
 31
0.0
  0
LINE
  5
A5
100
AcDbEntity
  8
LAYER0
 62
         3
100
AcDbLine
 10
14.4515634144
 20
43.2997177694
 30
0.0
 11
14.5370063371
 21
43.2458442616
 31
0.0
  0
LINE
  5
A6
100
AcDbEntity
  8
LAYER0
 62
         3
100
AcDbLine
 10
14.5370063371
 20
43.2458442616
 30
0.0
 11
14.6270888902
 21
43.1924665874
 31
0.0
  0
LINE
  5
A7
100
AcDbEntity
  8
LAYER0
 62
         3
100
AcDbLine
 10
14.6270888902
 20
43.1924665874
 30
0.0
 11
14.7220359467
 21
43.1400467572
 31
0.0
  0
LINE
  5
A8
100
AcDbEntity
  8
LAYER0
 62
         3
100
AcDbLine
 10
14.7220359467
 20
43.1400467572
 30
0.0
 11
14.8778137261
 21
43.0613765631
 31
0.0
  0
LINE
  5
A9
100
AcDbEntity
  8
LAYER0
 62
         3
100
AcDbLine
 10
14.8778137261
 20
43.0613765631
 30
0.0
 11
15.039677015
 21
42.9844041286
 31
0.0
  0
ENDBLK
  5
AA
100
AcDbEntity
  8
0
100
AcDbBlockEnd
  0
BLOCK
  5
AE
100
AcDbEntity
  8
0
100
AcDbBlockBegin
  2
CLUMP10
 70
         0
 10
0.0
 20
0.0
 30
0.0
  3

  1

  0
INSERT
  5
B0
100
AcDbEntity
  8
0
100
AcDbBlockReference
  2
CLUMP11
 10
0.0
 20
0.0
 30
0.0
  0
ENDBLK
  5
B5
100
AcDbEntity
  8
0
100
AcDbBlockEnd
  0
BLOCK
  5
B1
100
AcDbEntity
  8
0
100
AcDbBlockBegin
  2
CLUMP11
 70
         0
 10
0.0
 20
0.0
 30
0.0
  3

  1

  0
LINE
  5
B2
100
AcDbEntity
  8
LAYER0
 62
         3
100
AcDbLine
 10
15.5690512087
 20
42.8576074366
 30
0.0
 11
15.6851458268
 21
42.8564830089
 31
0.0
  0
LINE
  5
B3
100
AcDbEntity
  8
LAYER0
 62
         3
100
AcDbLine
 10
15.6851458268
 20
42.8564830089
 30
0.0
 11
15.5690512087
 21
42.8576074366
 31
0.0
  0
ENDBLK
  5
B4
100
AcDbEntity
  8
0
100
AcDbBlockEnd
  0
BLOCK
  5
B8
100
AcDbEntity
  8
0
100
AcDbBlockBegin
  2
CLUMP12
 70
         0
 10
0.0
 20
0.0
 30
0.0
  3

  1

  0
INSERT
  5
BA
100
AcDbEntity
  8
0
100
AcDbBlockReference
  2
CLUMP13
 10
0.0
 20
0.0
 30
0.0
  0
ENDBLK
  5
C1
100
AcDbEntity
  8
0
100
AcDbBlockEnd
  0
BLOCK
  5
BB
100
AcDbEntity
  8
0
100
AcDbBlockBegin
  2
CLUMP13
 70
         0
 10
0.0
 20
0.0
 30
0.0
  3

  1

  0
LINE
  5
BC
100
AcDbEntity
  8
LAYER0
 62
         3
100
AcDbLine
 10
15.039677015
 20
42.9844041286
 30
0.0
 11
15.1312443532
 21
42.9423607849
 31
0.0
  0
LINE
  5
BD
100
AcDbEntity
  8
LAYER0
 62
         3
100
AcDbLine
 10
15.1312443532
 20
42.9423607849
 30
0.0
 11
15.1772344088
 21
42.9233459366
 31
0.0
  0
LINE
  5
BE
100
AcDbEntity
  8
LAYER0
 62
         3
100
AcDbLine
 10
15.1772344088
 20
42.9233459366
 30
0.0
 11
15.2234721281
 21
42.9067392764
 31
0.0
  0
LINE
  5
BF
100
AcDbEntity
  8
LAYER0
 62
         3
100
AcDbLine
 10
15.2234721281
 20
42.9067392764
 30
0.0
 11
15.2825873629
 21
42.8892378626
 31
0.0
  0
ENDBLK
  5
C0
100
AcDbEntity
  8
0
100
AcDbBlockEnd
  0
BLOCK
  5
C4
100
AcDbEntity
  8
0
100
AcDbBlockBegin
  2
CLUMP14
 70
         0
 10
0.0
 20
0.0
 30
0.0
  3

  1

  0
INSERT
  5
C6
100
AcDbEntity
  8
0
100
AcDbBlockReference
  2
CLUMP15
 10
0.0
 20
0.0
 30
0.0
  0
ENDBLK
  5
DB
100
AcDbEntity
  8
0
100
AcDbBlockEnd
  0
BLOCK
  5
C7
100
AcDbEntity
  8
0
100
AcDbBlockBegin
  2
CLUMP15
 70
         0
 10
0.0
 20
0.0
 30
0.0
  3

  1

  0
LINE
  5
C8
100
AcDbEntity
  8
LAYER0
 62
         3
100
AcDbLine
 10
12.5511714541
 20
21.8564835308
 30
0.0
 11
12.5694539792
 21
21.6939601797
 31
0.0
  0
LINE
  5
C9
100
AcDbEntity
  8
LAYER0
 62
         3
100
AcDbLine
 10
12.5694539792
 20
21.6939601797
 30
0.0
 11
12.5836399764
 21
21.6141584218
 31
0.0
  0
LINE
  5
CA
100
AcDbEntity
  8
LAYER0
 62
         3
100
AcDbLine
 10
12.5836399764
 20
21.6141584218
 30
0.0
 11
12.6038796552
 21
21.5361085651
 31
0.0
  0
LINE
  5
CB
100
AcDbEntity
  8
LAYER0
 62
         3
100
AcDbLine
 10
12.6038796552
 20
21.5361085651
 30
0.0
 11
12.6316859462
 21
21.4604216958
 31
0.0
  0
LINE
  5
CC
100
AcDbEntity
  8
LAYER0
 62
         3
100
AcDbLine
 10
12.6316859462
 20
21.4604216958
 30
0.0
 11
12.6666642395
 21
21.3875284495
 31
0.0
  0
LINE
  5
CD
100
AcDbEntity
  8
LAYER0
 62
         3
100
AcDbLine
 10
12.6666642395
 20
21.3875284495
 30
0.0
 11
12.7079252656
 21
21.317889563
 31
0.0
  0
LINE
  5
CE
100
AcDbEntity
  8
LAYER0
 62
         3
100
AcDbLine
 10
12.7079252656
 20
21.317889563
 30
0.0
 11
12.754579755
 21
21.2519657729
 31
0.0
  0
LINE
  5
CF
100
AcDbEntity
  8
LAYER0
 62
         3
100
AcDbLine
 10
12.754579755
 20
21.2519657729
 30
0.0
 11
12.8068028893
 21
21.1891208923
 31
0.0
  0
LINE
  5
D0
100
AcDbEntity
  8
LAYER0
 62
         3
100
AcDbLine
 10
12.8068028893
 20
21.1891208923
 30
0.0
 11
12.8634156043
 21
21.1309149032
 31
0.0
  0
LINE
  5
D1
100
AcDbEntity
  8
LAYER0
 62
         3
100
AcDbLine
 10
12.8634156043
 20
21.1309149032
 30
0.0
 11
12.9241400603
 21
21.0776595369
 31
0.0
  0
LINE
  5
D2
100
AcDbEntity
  8
LAYER0
 62
         3
100
AcDbLine
 10
12.9241400603
 20
21.0776595369
 30
0.0
 11
12.9886984177
 21
21.0296665249
 31
0.0
  0
LINE
  5
D3
100
AcDbEntity
  8
LAYER0
 62
         3
100
AcDbLine
 10
12.9886984177
 20
21.0296665249
 30
0.0
 11
13.0596101148
 21
20.9856131167
 31
0.0
  0
LINE
  5
D4
100
AcDbEntity
  8
LAYER0
 62
         3
100
AcDbLine
 10
13.0596101148
 20
20.9856131167
 30
0.0
 11
13.1337950668
 21
20.9477570402
 31
0.0
  0
LINE
  5
D5
100
AcDbEntity
  8
LAYER0
 62
         3
100
AcDbLine
 10
13.1337950668
 20
20.9477570402
 30
0.0
 11
13.2106753405
 21
20.916258935
 31
0.0
  0
LINE
  5
D6
100
AcDbEntity
  8
LAYER0
 62
         3
100
AcDbLine
 10
13.2106753405
 20
20.916258935
 30
0.0
 11
13.2896730028
 21
20.8912794409
 31
0.0
  0
LINE
  5
D7
100
AcDbEntity
  8
LAYER0
 62
         3
100
AcDbLine
 10
13.2896730028
 20
20.8912794409
 30
0.0
 11
13.4155976409
 21
20.8656739027
 31
0.0
  0
LINE
  5
D8
100
AcDbEntity
  8
LAYER0
 62
         3
100
AcDbLine
 10
13.4155976409
 20
20.8656739027
 30
0.0
 11
13.5432181232
 21
20.8565150318
 31
0.0
  0
LINE
  5
D9
100
AcDbEntity
  8
LAYER0
 62
         3
100
AcDbLine
 10
13.5432181232
 20
20.8565150318
 30
0.0
 11
13.551171618
 21
20.8564833669
 31
0.0
  0
ENDBLK
  5
DA
100
AcDbEntity
  8
0
100
AcDbBlockEnd
  0
BLOCK
  5
DE
100
AcDbEntity
  8
0
100
AcDbBlockBegin
  2
CLUMP16
 70
         0
 10
0.0
 20
0.0
 30
0.0
  3

  1

  0
INSERT
  5
E0
100
AcDbEntity
  8
0
100
AcDbBlockReference
  2
CLUMP17
 10
0.0
 20
0.0
 30
0.0
  0
ENDBLK
  5
F3
100
AcDbEntity
  8
0
100
AcDbBlockEnd
  0
BLOCK
  5
E1
100
AcDbEntity
  8
0
100
AcDbBlockBegin
  2
CLUMP17
 70
         0
 10
0.0
 20
0.0
 30
0.0
  3

  1

  0
LINE
  5
E2
100
AcDbEntity
  8
LAYER0
 62
         3
100
AcDbLine
 10
28.1892337188
 20
25.3564831731
 30
0.0
 11
28.5658656903
 21
25.385437992
 31
0.0
  0
LINE
  5
E3
100
AcDbEntity
  8
LAYER0
 62
         3
100
AcDbLine
 10
28.5658656903
 20
25.385437992
 30
0.0
 11
28.7532077354
 21
25.4231605434
 31
0.0
  0
LINE
  5
E4
100
AcDbEntity
  8
LAYER0
 62
         3
100
AcDbLine
 10
28.7532077354
 20
25.4231605434
 30
0.0
 11
28.9346689642
 21
25.4792314885
 31
0.0
  0
LINE
  5
E5
100
AcDbEntity
  8
LAYER0
 62
         3
100
AcDbLine
 10
28.9346689642
 20
25.4792314885
 30
0.0
 11
29.1009511907
 21
25.5484632452
 31
0.0
  0
LINE
  5
E6
100
AcDbEntity
  8
LAYER0
 62
         3
100
AcDbLine
 10
29.1009511907
 20
25.5484632452
 30
0.0
 11
29.2594192833
 21
25.6335851667
 31
0.0
  0
LINE
  5
E7
100
AcDbEntity
  8
LAYER0
 62
         3
100
AcDbLine
 10
29.2594192833
 20
25.6335851667
 30
0.0
 11
29.4137220851
 21
25.7391370888
 31
0.0
  0
LINE
  5
E8
100
AcDbEntity
  8
LAYER0
 62
         3
100
AcDbLine
 10
29.4137220851
 20
25.7391370888
 30
0.0
 11
29.5565782398
 21
25.8620758472
 31
0.0
  0
LINE
  5
E9
100
AcDbEntity
  8
LAYER0
 62
         3
100
AcDbLine
 10
29.5565782398
 20
25.8620758472
 30
0.0
 11
29.6677413367
 21
25.9795751934
 31
0.0
  0
LINE
  5
EA
100
AcDbEntity
  8
LAYER0
 62
         3
100
AcDbLine
 10
29.6677413367
 20
25.9795751934
 30
0.0
 11
29.7686632075
 21
26.1084404705
 31
0.0
  0
LINE
  5
EB
100
AcDbEntity
  8
LAYER0
 62
         3
100
AcDbLine
 10
29.7686632075
 20
26.1084404705
 30
0.0
 11
29.8614942095
 21
26.2529486927
 31
0.0
  0
LINE
  5
EC
100
AcDbEntity
  8
LAYER0
 62
         3
100
AcDbLine
 10
29.8614942095
 20
26.2529486927
 30
0.0
 11
29.9423306533
 21
26.4079985139
 31
0.0
  0
LINE
  5
ED
100
AcDbEntity
  8
LAYER0
 62
         3
100
AcDbLine
 10
29.9423306533
 20
26.4079985139
 30
0.0
 11
30.0046076665
 21
26.5556961231
 31
0.0
  0
LINE
  5
EE
100
AcDbEntity
  8
LAYER0
 62
         3
100
AcDbLine
 10
30.0046076665
 20
26.5556961231
 30
0.0
 11
30.0561241952
 21
26.7098319676
 31
0.0
  0
LINE
  5
EF
100
AcDbEntity
  8
LAYER0
 62
         3
100
AcDbLine
 10
30.0561241952
 20
26.7098319676
 30
0.0
 11
30.0958771254
 21
26.8689861493
 31
0.0
  0
LINE
  5
F0
100
AcDbEntity
  8
LAYER0
 62
         3
100
AcDbLine
 10
30.0958771254
 20
26.8689861493
 30
0.0
 11
30.1228633434
 21
27.0317387698
 31
0.0
  0
LINE
  5
F1
100
AcDbEntity
  8
LAYER0
 62
         3
100
AcDbLine
 10
30.1228633434
 20
27.0317387698
 30
0.0
 11
30.1449617654
 21
27.356483501
 31
0.0
  0
ENDBLK
  5
F2
100
AcDbEntity
  8
0
100
AcDbBlockEnd
  0
BLOCK
  5
F6
100
AcDbEntity
  8
0
100
AcDbBlockBegin
  2
CLUMP18
 70
         0
 10
0.0
 20
0.0
 30
0.0
  3

  1

  0
INSERT
  5
F8
100
AcDbEntity
  8
0
100
AcDbBlockReference
  2
CLUMP19
 10
0.0
 20
0.0
 30
0.0
  0
ENDBLK
  5
10B
100
AcDbEntity
  8
0
100
AcDbBlockEnd
  0
BLOCK
  5
F9
100
AcDbEntity
  8
0
100
AcDbBlockBegin
  2
CLUMP19
 70
         0
 10
0.0
 20
0.0
 30
0.0
  3

  1

  0
LINE
  5
FA
100
AcDbEntity
  8
LAYER0
 62
         3
100
AcDbLine
 10
30.7359963008
 20
27.356483501
 30
0.0
 11
30.7094750278
 21
26.9505535183
 31
0.0
  0
LINE
  5
FB
100
AcDbEntity
  8
LAYER0
 62
         3
100
AcDbLine
 10
30.7094750278
 20
26.9505535183
 30
0.0
 11
30.6760144454
 21
26.7467038846
 31
0.0
  0
LINE
  5
FC
100
AcDbEntity
  8
LAYER0
 62
         3
100
AcDbLine
 10
30.6760144454
 20
26.7467038846
 30
0.0
 11
30.6276974552
 21
26.5478049336
 31
0.0
  0
LINE
  5
FD
100
AcDbEntity
  8
LAYER0
 62
         3
100
AcDbLine
 10
30.6276974552
 20
26.5478049336
 30
0.0
 11
30.5667832316
 21
26.3553307499
 31
0.0
  0
LINE
  5
FE
100
AcDbEntity
  8
LAYER0
 62
         3
100
AcDbLine
 10
30.5667832316
 20
26.3553307499
 30
0.0
 11
30.4933532425
 21
26.1708744732
 31
0.0
  0
LINE
  5
FF
100
AcDbEntity
  8
LAYER0
 62
         3
100
AcDbLine
 10
30.4933532425
 20
26.1708744732
 30
0.0
 11
30.3987576677
 21
25.9804996185
 31
0.0
  0
LINE
  5
100
100
AcDbEntity
  8
LAYER0
 62
         3
100
AcDbLine
 10
30.3987576677
 20
25.9804996185
 30
0.0
 11
30.2900539063
 21
25.8025959996
 31
0.0
  0
LINE
  5
101
100
AcDbEntity
  8
LAYER0
 62
         3
100
AcDbLine
 10
30.2900539063
 20
25.8025959996
 30
0.0
 11
30.1683983949
 21
25.6381765805
 31
0.0
  0
LINE
  5
102
100
AcDbEntity
  8
LAYER0
 62
         3
100
AcDbLine
 10
30.1683983949
 20
25.6381765805
 30
0.0
 11
30.0345334508
 21
25.4884739337
 31
0.0
  0
LINE
  5
103
100
AcDbEntity
  8
LAYER0
 62
         3
100
AcDbLine
 10
30.0345334508
 20
25.4884739337
 30
0.0
 11
29.8692220661
 21
25.3380364831
 31
0.0
  0
LINE
  5
104
100
AcDbEntity
  8
LAYER0
 62
         3
100
AcDbLine
 10
29.8692220661
 20
25.3380364831
 30
0.0
 11
29.6909429416
 21
25.2081663278
 31
0.0
  0
LINE
  5
105
100
AcDbEntity
  8
LAYER0
 62
         3
100
AcDbLine
 10
29.6909429416
 20
25.2081663278
 30
0.0
 11
29.5013941073
 21
25.0988943311
 31
0.0
  0
LINE
  5
106
100
AcDbEntity
  8
LAYER0
 62
         3
100
AcDbLine
 10
29.5013941073
 20
25.0988943311
 30
0.0
 11
29.3021963261
 21
25.0099194167
 31
0.0
  0
LINE
  5
107
100
AcDbEntity
  8
LAYER0
 62
         3
100
AcDbLine
 10
29.3021963261
 20
25.0099194167
 30
0.0
 11
29.0941789367
 21
24.9410111013
 31
0.0
  0
LINE
  5
108
100
AcDbEntity
  8
LAYER0
 62
         3
100
AcDbLine
 10
29.0941789367
 20
24.9410111013
 30
0.0
 11
28.8790610902
 21
24.894180235
 31
0.0
  0
LINE
  5
109
100
AcDbEntity
  8
LAYER0
 62
         3
100
AcDbLine
 10
28.8790610902
 20
24.894180235
 30
0.0
 11
28.4343666681
 21
24.8564821599
 31
0.0
  0
ENDBLK
  5
10A
100
AcDbEntity
  8
0
100
AcDbBlockEnd
  0
BLOCK
  5
10E
100
AcDbEntity
  8
0
100
AcDbBlockBegin
  2
CLUMP20
 70
         0
 10
0.0
 20
0.0
 30
0.0
  3

  1

  0
INSERT
  5
110
100
AcDbEntity
  8
0
100
AcDbBlockReference
  2
CLUMP21
 10
0.0
 20
0.0
 30
0.0
  0
ENDBLK
  5
125
100
AcDbEntity
  8
0
100
AcDbBlockEnd
  0
BLOCK
  5
111
100
AcDbEntity
  8
0
100
AcDbBlockBegin
  2
CLUMP21
 70
         0
 10
0.0
 20
0.0
 30
0.0
  3

  1

  0
LINE
  5
112
100
AcDbEntity
  8
LAYER0
 62
         3
100
AcDbLine
 10
31.5511708431
 20
20.8564833669
 30
0.0
 11
31.5591243379
 21
20.8565150318
 31
0.0
  0
LINE
  5
113
100
AcDbEntity
  8
LAYER0
 62
         3
100
AcDbLine
 10
31.5591243379
 20
20.8565150318
 30
0.0
 11
31.6867448202
 21
20.8656739027
 31
0.0
  0
LINE
  5
114
100
AcDbEntity
  8
LAYER0
 62
         3
100
AcDbLine
 10
31.6867448202
 20
20.8656739027
 30
0.0
 11
31.8126694583
 21
20.8912794409
 31
0.0
  0
LINE
  5
115
100
AcDbEntity
  8
LAYER0
 62
         3
100
AcDbLine
 10
31.8126694583
 20
20.8912794409
 30
0.0
 11
31.8916671207
 21
20.916258935
 31
0.0
  0
LINE
  5
116
100
AcDbEntity
  8
LAYER0
 62
         3
100
AcDbLine
 10
31.8916671207
 20
20.916258935
 30
0.0
 11
31.9685473944
 21
20.9477570402
 31
0.0
  0
LINE
  5
117
100
AcDbEntity
  8
LAYER0
 62
         3
100
AcDbLine
 10
31.9685473944
 20
20.9477570402
 30
0.0
 11
32.0427323463
 21
20.9856131167
 31
0.0
  0
LINE
  5
118
100
AcDbEntity
  8
LAYER0
 62
         3
100
AcDbLine
 10
32.0427323463
 20
20.9856131167
 30
0.0
 11
32.1136440434
 21
21.0296665249
 31
0.0
  0
LINE
  5
119
100
AcDbEntity
  8
LAYER0
 62
         3
100
AcDbLine
 10
32.1136440434
 20
21.0296665249
 30
0.0
 11
32.1782024009
 21
21.0776595369
 31
0.0
  0
LINE
  5
11A
100
AcDbEntity
  8
LAYER0
 62
         3
100
AcDbLine
 10
32.1782024009
 20
21.0776595369
 30
0.0
 11
32.2389268569
 21
21.1309149032
 31
0.0
  0
LINE
  5
11B
100
AcDbEntity
  8
LAYER0
 62
         3
100
AcDbLine
 10
32.2389268569
 20
21.1309149032
 30
0.0
 11
32.2955395718
 21
21.1891208923
 31
0.0
  0
LINE
  5
11C
100
AcDbEntity
  8
LAYER0
 62
         3
100
AcDbLine
 10
32.2955395718
 20
21.1891208923
 30
0.0
 11
32.3477627062
 21
21.2519657729
 31
0.0
  0
LINE
  5
11D
100
AcDbEntity
  8
LAYER0
 62
         3
100
AcDbLine
 10
32.3477627062
 20
21.2519657729
 30
0.0
 11
32.3944171955
 21
21.317889563
 31
0.0
  0
LINE
  5
11E
100
AcDbEntity
  8
LAYER0
 62
         3
100
AcDbLine
 10
32.3944171955
 20
21.317889563
 30
0.0
 11
32.4356782216
 21
21.3875284495
 31
0.0
  0
LINE
  5
11F
100
AcDbEntity
  8
LAYER0
 62
         3
100
AcDbLine
 10
32.4356782216
 20
21.3875284495
 30
0.0
 11
32.470656515
 21
21.4604216958
 31
0.0
  0
LINE
  5
120
100
AcDbEntity
  8
LAYER0
 62
         3
100
AcDbLine
 10
32.470656515
 20
21.4604216958
 30
0.0
 11
32.4984628059
 21
21.5361085651
 31
0.0
  0
LINE
  5
121
100
AcDbEntity
  8
LAYER0
 62
         3
100
AcDbLine
 10
32.4984628059
 20
21.5361085651
 30
0.0
 11
32.5187024847
 21
21.6141584218
 31
0.0
  0
LINE
  5
122
100
AcDbEntity
  8
LAYER0
 62
         3
100
AcDbLine
 10
32.5187024847
 20
21.6141584218
 30
0.0
 11
32.5328884819
 21
21.6939601797
 31
0.0
  0
LINE
  5
123
100
AcDbEntity
  8
LAYER0
 62
         3
100
AcDbLine
 10
32.5328884819
 20
21.6939601797
 30
0.0
 11
32.551171007
 21
21.8564835308
 31
0.0
  0
ENDBLK
  5
124
100
AcDbEntity
  8
0
100
AcDbBlockEnd
  0
BLOCK
  5
128
100
AcDbEntity
  8
0
100
AcDbBlockBegin
  2
CLUMP22
 70
         0
 10
0.0
 20
0.0
 30
0.0
  3

  1

  0
INSERT
  5
12A
100
AcDbEntity
  8
0
100
AcDbBlockReference
  2
CLUMP23
 10
0.0
 20
0.0
 30
0.0
  0
ENDBLK
  5
134
100
AcDbEntity
  8
0
100
AcDbBlockEnd
  0
BLOCK
  5
12B
100
AcDbEntity
  8
0
100
AcDbBlockBegin
  2
CLUMP23
 70
         0
 10
0.0
 20
0.0
 30
0.0
  3

  1

  0
LINE
  5
12C
100
AcDbEntity
  8
LAYER0
 62
         3
100
AcDbLine
 10
14.7675263979
 20
42.6123295841
 30
0.0
 11
14.6639413256
 21
42.7665712574
 31
0.0
  0
LINE
  5
12D
100
AcDbEntity
  8
LAYER0
 62
         3
100
AcDbLine
 10
14.6639413256
 20
42.7665712574
 30
0.0
 11
14.5670685269
 21
42.9236111162
 31
0.0
  0
LINE
  5
12E
100
AcDbEntity
  8
LAYER0
 62
         3
100
AcDbLine
 10
14.5670685269
 20
42.9236111162
 30
0.0
 11
14.5102077861
 21
43.0287943
 31
0.0
  0
LINE
  5
12F
100
AcDbEntity
  8
LAYER0
 62
         3
100
AcDbLine
 10
14.5102077861
 20
43.0287943
 30
0.0
 11
14.4585288159
 21
43.1355772079
 31
0.0
  0
LINE
  5
130
100
AcDbEntity
  8
LAYER0
 62
         3
100
AcDbLine
 10
14.4585288159
 20
43.1355772079
 30
0.0
 11
14.4114834676
 21
43.2431708983
 31
0.0
  0
LINE
  5
131
100
AcDbEntity
  8
LAYER0
 62
         3
100
AcDbLine
 10
14.4114834676
 20
43.2431708983
 30
0.0
 11
14.3685235925
 21
43.3507864294
 31
0.0
  0
LINE
  5
132
100
AcDbEntity
  8
LAYER0
 62
         3
100
AcDbLine
 10
14.3685235925
 20
43.3507864294
 30
0.0
 11
14.3663461604
 21
43.3564823983
 31
0.0
  0
ENDBLK
  5
133
100
AcDbEntity
  8
0
100
AcDbBlockEnd
  0
BLOCK
  5
137
100
AcDbEntity
  8
0
100
AcDbBlockBegin
  2
CLUMP24
 70
         0
 10
0.0
 20
0.0
 30
0.0
  3

  1

  0
INSERT
  5
139
100
AcDbEntity
  8
0
100
AcDbBlockReference
  2
CLUMP25
 10
0.0
 20
0.0
 30
0.0
  0
ENDBLK
  5
141
100
AcDbEntity
  8
0
100
AcDbBlockEnd
  0
BLOCK
  5
13A
100
AcDbEntity
  8
0
100
AcDbBlockBegin
  2
CLUMP25
 70
         0
 10
0.0
 20
0.0
 30
0.0
  3

  1

  0
LINE
  5
13B
100
AcDbEntity
  8
LAYER0
 62
         3
100
AcDbLine
 10
14.9573806957
 20
42.4219970522
 30
0.0
 11
14.9128844314
 21
42.4569961546
 31
0.0
  0
LINE
  5
13C
100
AcDbEntity
  8
LAYER0
 62
         3
100
AcDbLine
 10
14.9128844314
 20
42.4569961546
 30
0.0
 11
14.8749404469
 21
42.4918438045
 31
0.0
  0
LINE
  5
13D
100
AcDbEntity
  8
LAYER0
 62
         3
100
AcDbLine
 10
14.8749404469
 20
42.4918438045
 30
0.0
 11
14.8383717277
 21
42.5301077752
 31
0.0
  0
LINE
  5
13E
100
AcDbEntity
  8
LAYER0
 62
         3
100
AcDbLine
 10
14.8383717277
 20
42.5301077752
 30
0.0
 11
14.8027198519
 21
42.5706492929
 31
0.0
  0
LINE
  5
13F
100
AcDbEntity
  8
LAYER0
 62
         3
100
AcDbLine
 10
14.8027198519
 20
42.5706492929
 30
0.0
 11
14.7675263979
 21
42.6123295841
 31
0.0
  0
ENDBLK
  5
140
100
AcDbEntity
  8
0
100
AcDbBlockEnd
  0
BLOCK
  5
144
100
AcDbEntity
  8
0
100
AcDbBlockBegin
  2
CLUMP26
 70
         0
 10
0.0
 20
0.0
 30
0.0
  3

  1

  0
INSERT
  5
146
100
AcDbEntity
  8
0
100
AcDbBlockReference
  2
CLUMP27
 10
0.0
 20
0.0
 30
0.0
  0
ENDBLK
  5
150
100
AcDbEntity
  8
0
100
AcDbBlockEnd
  0
BLOCK
  5
147
100
AcDbEntity
  8
0
100
AcDbBlockBegin
  2
CLUMP27
 70
         0
 10
0.0
 20
0.0
 30
0.0
  3

  1

  0
LINE
  5
148
100
AcDbEntity
  8
LAYER0
 62
         3
100
AcDbLine
 10
30.7359963008
 20
43.3564823983
 30
0.0
 11
30.7338188686
 21
43.3507864294
 31
0.0
  0
LINE
  5
149
100
AcDbEntity
  8
LAYER0
 62
         3
100
AcDbLine
 10
30.7338188686
 20
43.3507864294
 30
0.0
 11
30.6908589935
 21
43.2431708983
 31
0.0
  0
LINE
  5
14A
100
AcDbEntity
  8
LAYER0
 62
         3
100
AcDbLine
 10
30.6908589935
 20
43.2431708983
 30
0.0
 11
30.6438136452
 21
43.1355772079
 31
0.0
  0
LINE
  5
14B
100
AcDbEntity
  8
LAYER0
 62
         3
100
AcDbLine
 10
30.6438136452
 20
43.1355772079
 30
0.0
 11
30.592134675
 21
43.0287943
 31
0.0
  0
LINE
  5
14C
100
AcDbEntity
  8
LAYER0
 62
         3
100
AcDbLine
 10
30.592134675
 20
43.0287943
 30
0.0
 11
30.5352739342
 21
42.9236111162
 31
0.0
  0
LINE
  5
14D
100
AcDbEntity
  8
LAYER0
 62
         3
100
AcDbLine
 10
30.5352739342
 20
42.9236111162
 30
0.0
 11
30.4384011355
 21
42.7665712574
 31
0.0
  0
LINE
  5
14E
100
AcDbEntity
  8
LAYER0
 62
         3
100
AcDbLine
 10
30.4384011355
 20
42.7665712574
 30
0.0
 11
30.3348160632
 21
42.6123295841
 31
0.0
  0
ENDBLK
  5
14F
100
AcDbEntity
  8
0
100
AcDbBlockEnd
  0
BLOCK
  5
153
100
AcDbEntity
  8
0
100
AcDbBlockBegin
  2
CLUMP28
 70
         0
 10
0.0
 20
0.0
 30
0.0
  3

  1

  0
INSERT
  5
155
100
AcDbEntity
  8
0
100
AcDbBlockReference
  2
CLUMP29
 10
0.0
 20
0.0
 30
0.0
  0
ENDBLK
  5
15D
100
AcDbEntity
  8
0
100
AcDbBlockEnd
  0
BLOCK
  5
156
100
AcDbEntity
  8
0
100
AcDbBlockBegin
  2
CLUMP29
 70
         0
 10
0.0
 20
0.0
 30
0.0
  3

  1

  0
LINE
  5
157
100
AcDbEntity
  8
LAYER0
 62
         3
100
AcDbLine
 10
30.3348160632
 20
42.6123295841
 30
0.0
 11
30.2996226092
 21
42.5706492929
 31
0.0
  0
LINE
  5
158
100
AcDbEntity
  8
LAYER0
 62
         3
100
AcDbLine
 10
30.2996226092
 20
42.5706492929
 30
0.0
 11
30.2639707335
 21
42.5301077752
 31
0.0
  0
LINE
  5
159
100
AcDbEntity
  8
LAYER0
 62
         3
100
AcDbLine
 10
30.2639707335
 20
42.5301077752
 30
0.0
 11
30.2274020142
 21
42.4918438045
 31
0.0
  0
LINE
  5
15A
100
AcDbEntity
  8
LAYER0
 62
         3
100
AcDbLine
 10
30.2274020142
 20
42.4918438045
 30
0.0
 11
30.1894580298
 21
42.4569961546
 31
0.0
  0
LINE
  5
15B
100
AcDbEntity
  8
LAYER0
 62
         3
100
AcDbLine
 10
30.1894580298
 20
42.4569961546
 30
0.0
 11
30.1449617654
 21
42.4219970522
 31
0.0
  0
ENDBLK
  5
15C
100
AcDbEntity
  8
0
100
AcDbBlockEnd
  0
BLOCK
  5
160
100
AcDbEntity
  8
0
100
AcDbBlockBegin
  2
CLUMP30
 70
         0
 10
0.0
 20
0.0
 30
0.0
  3

  1

  0
INSERT
  5
162
100
AcDbEntity
  8
0
100
AcDbBlockReference
  2
CLUMP31
 10
0.0
 20
0.0
 30
0.0
  0
ENDBLK
  5
171
100
AcDbEntity
  8
0
100
AcDbBlockEnd
  0
BLOCK
  5
163
100
AcDbEntity
  8
0
100
AcDbBlockBegin
  2
CLUMP31
 70
         0
 10
0.0
 20
0.0
 30
0.0
  3

  1

  0
LINE
  5
164
100
AcDbEntity
  8
LAYER0
 62
         3
100
AcDbLine
 10
12.5511714541
 20
44.2791324971
 30
0.0
 11
12.5710660471
 21
44.4481163548
 31
0.0
  0
LINE
  5
165
100
AcDbEntity
  8
LAYER0
 62
         3
100
AcDbLine
 10
12.5710660471
 20
44.4481163548
 30
0.0
 11
12.5863209181
 21
44.5307904377
 31
0.0
  0
LINE
  5
166
100
AcDbEntity
  8
LAYER0
 62
         3
100
AcDbLine
 10
12.5863209181
 20
44.5307904377
 30
0.0
 11
12.6079448782
 21
44.6112831054
 31
0.0
  0
LINE
  5
167
100
AcDbEntity
  8
LAYER0
 62
         3
100
AcDbLine
 10
12.6079448782
 20
44.6112831054
 30
0.0
 11
12.6374957293
 21
44.6888056056
 31
0.0
  0
LINE
  5
168
100
AcDbEntity
  8
LAYER0
 62
         3
100
AcDbLine
 10
12.6374957293
 20
44.6888056056
 30
0.0
 11
12.6745698708
 21
44.7630646799
 31
0.0
  0
LINE
  5
169
100
AcDbEntity
  8
LAYER0
 62
         3
100
AcDbLine
 10
12.6745698708
 20
44.7630646799
 30
0.0
 11
12.7182256498
 21
44.8336961481
 31
0.0
  0
LINE
  5
16A
100
AcDbEntity
  8
LAYER0
 62
         3
100
AcDbLine
 10
12.7182256498
 20
44.8336961481
 30
0.0
 11
12.7675214135
 21
44.9003358302
 31
0.0
  0
LINE
  5
16B
100
AcDbEntity
  8
LAYER0
 62
         3
100
AcDbLine
 10
12.7675214135
 20
44.9003358302
 30
0.0
 11
12.8288926493
 21
44.9702759963
 31
0.0
  0
LINE
  5
16C
100
AcDbEntity
  8
LAYER0
 62
         3
100
AcDbLine
 10
12.8288926493
 20
44.9702759963
 30
0.0
 11
12.8958241706
 21
45.0341262297
 31
0.0
  0
LINE
  5
16D
100
AcDbEntity
  8
LAYER0
 62
         3
100
AcDbLine
 10
12.8958241706
 20
45.0341262297
 30
0.0
 11
12.9678944801
 21
45.0913424906
 31
0.0
  0
LINE
  5
16E
100
AcDbEntity
  8
LAYER0
 62
         3
100
AcDbLine
 10
12.9678944801
 20
45.0913424906
 30
0.0
 11
13.0446820803
 21
45.141380739
 31
0.0
  0
LINE
  5
16F
100
AcDbEntity
  8
LAYER0
 62
         3
100
AcDbLine
 10
13.0446820803
 20
45.141380739
 30
0.0
 11
13.051171536
 21
45.1451581833
 31
0.0
  0
ENDBLK
  5
170
100
AcDbEntity
  8
0
100
AcDbBlockEnd
  0
BLOCK
  5
174
100
AcDbEntity
  8
0
100
AcDbBlockBegin
  2
CLUMP32
 70
         0
 10
0.0
 20
0.0
 30
0.0
  3

  1

  0
INSERT
  5
176
100
AcDbEntity
  8
0
100
AcDbBlockReference
  2
CLUMP33
 10
0.0
 20
0.0
 30
0.0
  0
ENDBLK
  5
185
100
AcDbEntity
  8
0
100
AcDbBlockEnd
  0
BLOCK
  5
177
100
AcDbEntity
  8
0
100
AcDbBlockBegin
  2
CLUMP33
 70
         0
 10
0.0
 20
0.0
 30
0.0
  3

  1

  0
LINE
  5
178
100
AcDbEntity
  8
LAYER0
 62
         3
100
AcDbLine
 10
32.0511709251
 20
45.1451581833
 30
0.0
 11
32.0576603808
 21
45.141380739
 31
0.0
  0
LINE
  5
179
100
AcDbEntity
  8
LAYER0
 62
         3
100
AcDbLine
 10
32.0576603808
 20
45.141380739
 30
0.0
 11
32.1344479811
 21
45.0913424906
 31
0.0
  0
LINE
  5
17A
100
AcDbEntity
  8
LAYER0
 62
         3
100
AcDbLine
 10
32.1344479811
 20
45.0913424906
 30
0.0
 11
32.2065182905
 21
45.0341262297
 31
0.0
  0
LINE
  5
17B
100
AcDbEntity
  8
LAYER0
 62
         3
100
AcDbLine
 10
32.2065182905
 20
45.0341262297
 30
0.0
 11
32.2734498118
 21
44.9702759963
 31
0.0
  0
LINE
  5
17C
100
AcDbEntity
  8
LAYER0
 62
         3
100
AcDbLine
 10
32.2734498118
 20
44.9702759963
 30
0.0
 11
32.3348210477
 21
44.9003358302
 31
0.0
  0
LINE
  5
17D
100
AcDbEntity
  8
LAYER0
 62
         3
100
AcDbLine
 10
32.3348210477
 20
44.9003358302
 30
0.0
 11
32.3841168113
 21
44.8336961481
 31
0.0
  0
LINE
  5
17E
100
AcDbEntity
  8
LAYER0
 62
         3
100
AcDbLine
 10
32.3841168113
 20
44.8336961481
 30
0.0
 11
32.4277725903
 21
44.7630646799
 31
0.0
  0
LINE
  5
17F
100
AcDbEntity
  8
LAYER0
 62
         3
100
AcDbLine
 10
32.4277725903
 20
44.7630646799
 30
0.0
 11
32.4648467318
 21
44.6888056056
 31
0.0
  0
LINE
  5
180
100
AcDbEntity
  8
LAYER0
 62
         3
100
AcDbLine
 10
32.4648467318
 20
44.6888056056
 30
0.0
 11
32.4943975829
 21
44.6112831054
 31
0.0
  0
LINE
  5
181
100
AcDbEntity
  8
LAYER0
 62
         3
100
AcDbLine
 10
32.4943975829
 20
44.6112831054
 30
0.0
 11
32.5160215431
 21
44.5307904377
 31
0.0
  0
LINE
  5
182
100
AcDbEntity
  8
LAYER0
 62
         3
100
AcDbLine
 10
32.5160215431
 20
44.5307904377
 30
0.0
 11
32.531276414
 21
44.4481163548
 31
0.0
  0
LINE
  5
183
100
AcDbEntity
  8
LAYER0
 62
         3
100
AcDbLine
 10
32.531276414
 20
44.4481163548
 30
0.0
 11
32.551171007
 21
44.2791324971
 31
0.0
  0
ENDBLK
  5
184
100
AcDbEntity
  8
0
100
AcDbBlockEnd
  0
BLOCK
  5
188
100
AcDbEntity
  8
0
100
AcDbBlockBegin
  2
CLUMP34
 70
         0
 10
0.0
 20
0.0
 30
0.0
  3

  1

  0
INSERT
  5
18A
100
AcDbEntity
  8
0
100
AcDbBlockReference
  2
CLUMP35
 10
0.0
 20
0.0
 30
0.0
  0
ENDBLK
  5
194
100
AcDbEntity
  8
0
100
AcDbBlockEnd
  0
BLOCK
  5
18B
100
AcDbEntity
  8
0
100
AcDbBlockBegin
  2
CLUMP35
 70
         0
 10
0.0
 20
0.0
 30
0.0
  3

  1

  0
LINE
  5
18C
100
AcDbEntity
  8
LAYER0
 62
         3
100
AcDbLine
 10
30.0626654461
 20
42.9844041286
 30
0.0
 11
30.224528735
 21
43.0613765631
 31
0.0
  0
LINE
  5
18D
100
AcDbEntity
  8
LAYER0
 62
         3
100
AcDbLine
 10
30.224528735
 20
43.0613765631
 30
0.0
 11
30.3803065144
 21
43.1400467572
 31
0.0
  0
LINE
  5
18E
100
AcDbEntity
  8
LAYER0
 62
         3
100
AcDbLine
 10
30.3803065144
 20
43.1400467572
 30
0.0
 11
30.4752535709
 21
43.1924665874
 31
0.0
  0
LINE
  5
18F
100
AcDbEntity
  8
LAYER0
 62
         3
100
AcDbLine
 10
30.4752535709
 20
43.1924665874
 30
0.0
 11
30.5653361241
 21
43.2458442616
 31
0.0
  0
LINE
  5
190
100
AcDbEntity
  8
LAYER0
 62
         3
100
AcDbLine
 10
30.5653361241
 20
43.2458442616
 30
0.0
 11
30.6507790467
 21
43.2997177694
 31
0.0
  0
LINE
  5
191
100
AcDbEntity
  8
LAYER0
 62
         3
100
AcDbLine
 10
30.6507790467
 20
43.2997177694
 30
0.0
 11
30.7318072118
 21
43.3536251006
 31
0.0
  0
LINE
  5
192
100
AcDbEntity
  8
LAYER0
 62
         3
100
AcDbLine
 10
30.7318072118
 20
43.3536251006
 30
0.0
 11
30.7359963008
 21
43.3564823983
 31
0.0
  0
ENDBLK
  5
193
100
AcDbEntity
  8
0
100
AcDbBlockEnd
  0
BLOCK
  5
19E
100
AcDbEntity
  8
0
100
AcDbBlockBegin
  2
CLUMP36
 70
         0
 10
0.0
 20
0.0
 30
0.0
  3

  1

  0
INSERT
  5
1A0
100
AcDbEntity
  8
0
100
AcDbBlockReference
  2
CLUMP37
 10
0.0
 20
0.0
 30
0.0
  0
ENDBLK
  5
1B7
100
AcDbEntity
  8
0
100
AcDbBlockEnd
  0
BLOCK
  5
1A1
100
AcDbEntity
  8
0
100
AcDbBlockBegin
  2
CLUMP37
 70
         0
 10
0.0
 20
0.0
 30
0.0
  3

  1

  0
LINE
  5
1A2
100
AcDbEntity
  8
LAYER0
 62
         3
100
AcDbLine
 10
-27.4032620828
 20
1.8488911091
 30
0.0
 11
-27.4158265549
 21
1.8423762885
 31
0.0
  0
LINE
  5
1A3
100
AcDbEntity
  8
LAYER0
 62
         3
100
AcDbLine
 10
-27.4158265549
 20
1.8423762885
 30
0.0
 11
-27.4315603192
 21
1.8251200317
 31
0.0
  0
LINE
  5
1A4
100
AcDbEntity
  8
LAYER0
 62
         3
100
AcDbLine
 10
-27.4315603192
 20
1.8251200317
 30
0.0
 11
-27.4445071898
 21
1.8041228295
 31
0.0
  0
LINE
  5
1A5
100
AcDbEntity
  8
LAYER0
 62
         3
100
AcDbLine
 10
-27.4445071898
 20
1.8041228295
 30
0.0
 11
-27.4593840741
 21
1.7753765509
 31
0.0
  0
LINE
  5
1A6
100
AcDbEntity
  8
LAYER0
 62
         3
100
AcDbLine
 10
-27.4593840741
 20
1.7753765509
 30
0.0
 11
-27.4922629933
 21
1.6988373472
 31
0.0
  0
LINE
  5
1A7
100
AcDbEntity
  8
LAYER0
 62
         3
100
AcDbLine
 10
-27.4922629933
 20
1.6988373472
 30
0.0
 11
-27.5274040766
 21
1.5955758195
 31
0.0
  0
LINE
  5
1A8
100
AcDbEntity
  8
LAYER0
 62
         3
100
AcDbLine
 10
-27.5274040766
 20
1.5955758195
 30
0.0
 11
-27.5589366092
 21
1.4718237443
 31
0.0
  0
LINE
  5
1A9
100
AcDbEntity
  8
LAYER0
 62
         3
100
AcDbLine
 10
-27.5589366092
 20
1.4718237443
 30
0.0
 11
-27.5837597534
 21
1.3274434916
 31
0.0
  0
LINE
  5
1AA
100
AcDbEntity
  8
LAYER0
 62
         3
100
AcDbLine
 10
-27.5837597534
 20
1.3274434916
 30
0.0
 11
-27.5982984922
 21
1.1678251548
 31
0.0
  0
LINE
  5
1AB
100
AcDbEntity
  8
LAYER0
 62
         3
100
AcDbLine
 10
-27.5982984922
 20
1.1678251548
 30
0.0
 11
-27.6002814584
 21
1.0107574815
 31
0.0
  0
LINE
  5
1AC
100
AcDbEntity
  8
LAYER0
 62
         3
100
AcDbLine
 10
-27.6002814584
 20
1.0107574815
 30
0.0
 11
-27.5912150855
 21
0.8500290214
 31
0.0
  0
LINE
  5
1AD
100
AcDbEntity
  8
LAYER0
 62
         3
100
AcDbLine
 10
-27.5912150855
 20
0.8500290214
 30
0.0
 11
-27.572984541
 21
0.6965646938
 31
0.0
  0
LINE
  5
1AE
100
AcDbEntity
  8
LAYER0
 62
         3
100
AcDbLine
 10
-27.572984541
 20
0.6965646938
 30
0.0
 11
-27.5476317502
 21
0.5477841123
 31
0.0
  0
LINE
  5
1AF
100
AcDbEntity
  8
LAYER0
 62
         3
100
AcDbLine
 10
-27.5476317502
 20
0.5477841123
 30
0.0
 11
-27.5159389976
 21
0.3991865894
 31
0.0
  0
LINE
  5
1B0
100
AcDbEntity
  8
LAYER0
 62
         3
100
AcDbLine
 10
-27.5159389976
 20
0.3991865894
 30
0.0
 11
-27.4825262486
 21
0.262717448
 31
0.0
  0
LINE
  5
1B1
100
AcDbEntity
  8
LAYER0
 62
         3
100
AcDbLine
 10
-27.4825262486
 20
0.262717448
 30
0.0
 11
-27.4488025671
 21
0.1340955572
 31
0.0
  0
LINE
  5
1B2
100
AcDbEntity
  8
LAYER0
 62
         3
100
AcDbLine
 10
-27.4488025671
 20
0.1340955572
 30
0.0
 11
-27.4204964398
 21
0.0259556918
 31
0.0
  0
LINE
  5
1B3
100
AcDbEntity
  8
LAYER0
 62
         3
100
AcDbLine
 10
-27.4204964398
 20
0.0259556918
 30
0.0
 11
-27.4011892084
 21
-0.0567797607
 31
0.0
  0
LINE
  5
1B4
100
AcDbEntity
  8
LAYER0
 62
         3
100
AcDbLine
 10
-27.4011892084
 20
-0.0567797607
 30
0.0
 11
-27.3925872634
 21
-0.112647459
 31
0.0
  0
LINE
  5
1B5
100
AcDbEntity
  8
LAYER0
 62
         3
100
AcDbLine
 10
-27.3925872634
 20
-0.112647459
 30
0.0
 11
-27.3922231163
 21
-0.1222857164
 31
0.0
  0
ENDBLK
  5
1B6
100
AcDbEntity
  8
0
100
AcDbBlockEnd
  0
BLOCK
  5
1BA
100
AcDbEntity
  8
0
100
AcDbBlockBegin
  2
CLUMP38
 70
         0
 10
0.0
 20
0.0
 30
0.0
  3

  1

  0
INSERT
  5
1BC
100
AcDbEntity
  8
0
100
AcDbBlockReference
  2
CLUMP39
 10
0.0
 20
0.0
 30
0.0
  0
ENDBLK
  5
1CE
100
AcDbEntity
  8
0
100
AcDbBlockEnd
  0
BLOCK
  5
1BD
100
AcDbEntity
  8
0
100
AcDbBlockBegin
  2
CLUMP39
 70
         0
 10
0.0
 20
0.0
 30
0.0
  3

  1

  0
LINE
  5
1BE
100
AcDbEntity
  8
LAYER0
 62
         3
100
AcDbLine
 10
-32.3864543925
 20
3.7881328835
 30
0.0
 11
-32.3901028487
 21
3.8121628685
 31
0.0
  0
LINE
  5
1BF
100
AcDbEntity
  8
LAYER0
 62
         3
100
AcDbLine
 10
-32.3901028487
 20
3.8121628685
 30
0.0
 11
-32.3887874226
 21
3.8279609203
 31
0.0
  0
LINE
  5
1C0
100
AcDbEntity
  8
LAYER0
 62
         3
100
AcDbLine
 10
-32.3887874226
 20
3.8279609203
 30
0.0
 11
-32.3831309852
 21
3.8401788498
 31
0.0
  0
LINE
  5
1C1
100
AcDbEntity
  8
LAYER0
 62
         3
100
AcDbLine
 10
-32.3831309852
 20
3.8401788498
 30
0.0
 11
-32.3602275624
 21
3.8549546312
 31
0.0
  0
LINE
  5
1C2
100
AcDbEntity
  8
LAYER0
 62
         3
100
AcDbLine
 10
-32.3602275624
 20
3.8549546312
 30
0.0
 11
-32.3242575533
 21
3.8586507914
 31
0.0
  0
LINE
  5
1C3
100
AcDbEntity
  8
LAYER0
 62
         3
100
AcDbLine
 10
-32.3242575533
 20
3.8586507914
 30
0.0
 11
-32.2780859305
 21
3.8534279092
 31
0.0
  0
LINE
  5
1C4
100
AcDbEntity
  8
LAYER0
 62
         3
100
AcDbLine
 10
-32.2780859305
 20
3.8534279092
 30
0.0
 11
-32.2232551636
 21
3.8408797112
 31
0.0
  0
LINE
  5
1C5
100
AcDbEntity
  8
LAYER0
 62
         3
100
AcDbLine
 10
-32.2232551636
 20
3.8408797112
 30
0.0
 11
-32.160838836
 21
3.8215107094
 31
0.0
  0
LINE
  5
1C6
100
AcDbEntity
  8
LAYER0
 62
         3
100
AcDbLine
 10
-32.160838836
 20
3.8215107094
 30
0.0
 11
-32.0908030018
 21
3.7954565961
 31
0.0
  0
LINE
  5
1C7
100
AcDbEntity
  8
LAYER0
 62
         3
100
AcDbLine
 10
-32.0908030018
 20
3.7954565961
 30
0.0
 11
-32.013113715
 21
3.7628530635
 31
0.0
  0
LINE
  5
1C8
100
AcDbEntity
  8
LAYER0
 62
         3
100
AcDbLine
 10
-32.013113715
 20
3.7628530635
 30
0.0
 11
-31.8886248624
 21
3.7052742725
 31
0.0
  0
LINE
  5
1C9
100
AcDbEntity
  8
LAYER0
 62
         3
100
AcDbLine
 10
-31.8886248624
 20
3.7052742725
 30
0.0
 11
-31.7507824975
 21
3.637145005
 31
0.0
  0
LINE
  5
1CA
100
AcDbEntity
  8
LAYER0
 62
         3
100
AcDbLine
 10
-31.7507824975
 20
3.637145005
 30
0.0
 11
-31.5969886009
 21
3.5587428609
 31
0.0
  0
LINE
  5
1CB
100
AcDbEntity
  8
LAYER0
 62
         3
100
AcDbLine
 10
-31.5969886009
 20
3.5587428609
 30
0.0
 11
-31.4304169615
 21
3.4742678626
 31
0.0
  0
LINE
  5
1CC
100
AcDbEntity
  8
LAYER0
 62
         3
100
AcDbLine
 10
-31.4304169615
 20
3.4742678626
 30
0.0
 11
-31.1422230325
 21
3.3328111394
 31
0.0
  0
ENDBLK
  5
1CD
100
AcDbEntity
  8
0
100
AcDbBlockEnd
  0
BLOCK
  5
1D1
100
AcDbEntity
  8
0
100
AcDbBlockBegin
  2
CLUMP40
 70
         0
 10
0.0
 20
0.0
 30
0.0
  3

  1

  0
INSERT
  5
1D3
100
AcDbEntity
  8
0
100
AcDbBlockReference
  2
CLUMP41
 10
0.0
 20
0.0
 30
0.0
  0
ENDBLK
  5
1E3
100
AcDbEntity
  8
0
100
AcDbBlockEnd
  0
BLOCK
  5
1D4
100
AcDbEntity
  8
0
100
AcDbBlockBegin
  2
CLUMP41
 70
         0
 10
0.0
 20
0.0
 30
0.0
  3

  1

  0
LINE
  5
1D5
100
AcDbEntity
  8
LAYER0
 62
         3
100
AcDbLine
 10
-28.6422230883
 20
3.3328111394
 30
0.0
 11
-28.4753963498
 21
3.4144592276
 31
0.0
  0
LINE
  5
1D6
100
AcDbEntity
  8
LAYER0
 62
         3
100
AcDbLine
 10
-28.4753963498
 20
3.4144592276
 30
0.0
 11
-28.3145153544
 21
3.4942950232
 31
0.0
  0
LINE
  5
1D7
100
AcDbEntity
  8
LAYER0
 62
         3
100
AcDbLine
 10
-28.3145153544
 20
3.4942950232
 30
0.0
 11
-28.1509709324
 21
3.5773636832
 31
0.0
  0
LINE
  5
1D8
100
AcDbEntity
  8
LAYER0
 62
         3
100
AcDbLine
 10
-28.1509709324
 20
3.5773636832
 30
0.0
 11
-28.0004278638
 21
3.6537858768
 31
0.0
  0
LINE
  5
1D9
100
AcDbEntity
  8
LAYER0
 62
         3
100
AcDbLine
 10
-28.0004278638
 20
3.6537858768
 30
0.0
 11
-27.8584870838
 21
3.7230122136
 31
0.0
  0
LINE
  5
1DA
100
AcDbEntity
  8
LAYER0
 62
         3
100
AcDbLine
 10
-27.8584870838
 20
3.7230122136
 30
0.0
 11
-27.7316359452
 21
3.7800732179
 31
0.0
  0
LINE
  5
1DB
100
AcDbEntity
  8
LAYER0
 62
         3
100
AcDbLine
 10
-27.7316359452
 20
3.7800732179
 30
0.0
 11
-27.6509485772
 21
3.8122471022
 31
0.0
  0
LINE
  5
1DC
100
AcDbEntity
  8
LAYER0
 62
         3
100
AcDbLine
 10
-27.6509485772
 20
3.8122471022
 30
0.0
 11
-27.5793931096
 21
3.8365039154
 31
0.0
  0
LINE
  5
1DD
100
AcDbEntity
  8
LAYER0
 62
         3
100
AcDbLine
 10
-27.5793931096
 20
3.8365039154
 30
0.0
 11
-27.5160800764
 21
3.8524210715
 31
0.0
  0
LINE
  5
1DE
100
AcDbEntity
  8
LAYER0
 62
         3
100
AcDbLine
 10
-27.5160800764
 20
3.8524210715
 30
0.0
 11
-27.4662930633
 21
3.8564640208
 31
0.0
  0
LINE
  5
1DF
100
AcDbEntity
  8
LAYER0
 62
         3
100
AcDbLine
 10
-27.4662930633
 20
3.8564640208
 30
0.0
 11
-27.4375923238
 21
3.8493886789
 31
0.0
  0
LINE
  5
1E0
100
AcDbEntity
  8
LAYER0
 62
         3
100
AcDbLine
 10
-27.4375923238
 20
3.8493886789
 30
0.0
 11
-27.4176200867
 21
3.8347341731
 31
0.0
  0
LINE
  5
1E1
100
AcDbEntity
  8
LAYER0
 62
         3
100
AcDbLine
 10
-27.4176200867
 20
3.8347341731
 30
0.0
 11
-27.3922231163
 21
3.7927932216
 31
0.0
  0
ENDBLK
  5
1E2
100
AcDbEntity
  8
0
100
AcDbBlockEnd
  0
BLOCK
  5
1E6
100
AcDbEntity
  8
0
100
AcDbBlockBegin
  2
CLUMP42
 70
         0
 10
0.0
 20
0.0
 30
0.0
  3

  1

  0
INSERT
  5
1E8
100
AcDbEntity
  8
0
100
AcDbBlockReference
  2
CLUMP43
 10
0.0
 20
0.0
 30
0.0
  0
ENDBLK
  5
1EF
100
AcDbEntity
  8
0
100
AcDbBlockEnd
  0
BLOCK
  5
1E9
100
AcDbEntity
  8
0
100
AcDbBlockBegin
  2
CLUMP43
 70
         0
 10
0.0
 20
0.0
 30
0.0
  3

  1

  0
LINE
  5
1EA
100
AcDbEntity
  8
LAYER0
 62
         3
100
AcDbLine
 10
-28.6922230604
 20
0.1499190781
 30
0.0
 11
-29.0732052713
 21
0.5580829094
 31
0.0
  0
LINE
  5
1EB
100
AcDbEntity
  8
LAYER0
 62
         3
100
AcDbLine
 10
-29.0732052713
 20
0.5580829094
 30
0.0
 11
-29.476944705
 21
0.974538119
 31
0.0
  0
LINE
  5
1EC
100
AcDbEntity
  8
LAYER0
 62
         3
100
AcDbLine
 10
-29.476944705
 20
0.974538119
 30
0.0
 11
-29.8922230604
 21
1.387713085
 31
0.0
  0
LINE
  5
1ED
100
AcDbEntity
  8
LAYER0
 62
         3
100
AcDbLine
 10
-29.8922230604
 20
1.387713085
 30
0.0
 11
-28.6922230604
 21
0.1499190781
 31
0.0
  0
ENDBLK
  5
1EE
100
AcDbEntity
  8
0
100
AcDbBlockEnd
  0
BLOCK
  5
1F2
100
AcDbEntity
  8
0
100
AcDbBlockBegin
  2
CLUMP44
 70
         0
 10
0.0
 20
0.0
 30
0.0
  3

  1

  0
INSERT
  5
1F4
100
AcDbEntity
  8
0
100
AcDbBlockReference
  2
CLUMP45
 10
0.0
 20
0.0
 30
0.0
  0
ENDBLK
  5
1FB
100
AcDbEntity
  8
0
100
AcDbBlockEnd
  0
BLOCK
  5
1F5
100
AcDbEntity
  8
0
100
AcDbBlockBegin
  2
CLUMP45
 70
         0
 10
0.0
 20
0.0
 30
0.0
  3

  1

  0
LINE
  5
1F6
100
AcDbEntity
  8
LAYER0
 62
         3
100
AcDbLine
 10
-29.8922230604
 20
1.387713085
 30
0.0
 11
-30.3075014158
 21
0.974538119
 31
0.0
  0
LINE
  5
1F7
100
AcDbEntity
  8
LAYER0
 62
         3
100
AcDbLine
 10
-30.3075014158
 20
0.974538119
 30
0.0
 11
-30.7112408495
 21
0.5580829094
 31
0.0
  0
LINE
  5
1F8
100
AcDbEntity
  8
LAYER0
 62
         3
100
AcDbLine
 10
-30.7112408495
 20
0.5580829094
 30
0.0
 11
-31.0922230604
 21
0.1499190781
 31
0.0
  0
LINE
  5
1F9
100
AcDbEntity
  8
LAYER0
 62
         3
100
AcDbLine
 10
-31.0922230604
 20
0.1499190781
 30
0.0
 11
-29.8922230604
 21
1.387713085
 31
0.0
  0
ENDBLK
  5
1FA
100
AcDbEntity
  8
0
100
AcDbBlockEnd
  0
BLOCK
  5
1FE
100
AcDbEntity
  8
0
100
AcDbBlockBegin
  2
CLUMP46
 70
         0
 10
0.0
 20
0.0
 30
0.0
  3

  1

  0
INSERT
  5
200
100
AcDbEntity
  8
0
100
AcDbBlockReference
  2
CLUMP47
 10
0.0
 20
0.0
 30
0.0
  0
ENDBLK
  5
218
100
AcDbEntity
  8
0
100
AcDbBlockEnd
  0
BLOCK
  5
201
100
AcDbEntity
  8
0
100
AcDbBlockBegin
  2
CLUMP47
 70
         0
 10
0.0
 20
0.0
 30
0.0
  3

  1

  0
LINE
  5
202
100
AcDbEntity
  8
LAYER0
 62
         3
100
AcDbLine
 10
-24.8721213408
 20
25.3582073802
 30
0.0
 11
-24.8826746226
 21
25.3567843193
 31
0.0
  0
LINE
  5
203
100
AcDbEntity
  8
LAYER0
 62
         3
100
AcDbLine
 10
-24.8826746226
 20
25.3567843193
 30
0.0
 11
-24.9273976033
 21
25.3602227111
 31
0.0
  0
LINE
  5
204
100
AcDbEntity
  8
LAYER0
 62
         3
100
AcDbLine
 10
-24.9273976033
 20
25.3602227111
 30
0.0
 11
-24.9827615314
 21
25.3745614046
 31
0.0
  0
LINE
  5
205
100
AcDbEntity
  8
LAYER0
 62
         3
100
AcDbLine
 10
-24.9827615314
 20
25.3745614046
 30
0.0
 11
-25.0384130626
 21
25.3945395487
 31
0.0
  0
LINE
  5
206
100
AcDbEntity
  8
LAYER0
 62
         3
100
AcDbLine
 10
-25.0384130626
 20
25.3945395487
 30
0.0
 11
-25.0994194627
 21
25.4231168384
 31
0.0
  0
LINE
  5
207
100
AcDbEntity
  8
LAYER0
 62
         3
100
AcDbLine
 10
-25.0994194627
 20
25.4231168384
 30
0.0
 11
-25.1626324167
 21
25.4603714729
 31
0.0
  0
LINE
  5
208
100
AcDbEntity
  8
LAYER0
 62
         3
100
AcDbLine
 10
-25.1626324167
 20
25.4603714729
 30
0.0
 11
-25.2300686531
 21
25.5080497319
 31
0.0
  0
LINE
  5
209
100
AcDbEntity
  8
LAYER0
 62
         3
100
AcDbLine
 10
-25.2300686531
 20
25.5080497319
 30
0.0
 11
-25.3037486819
 21
25.5693881548
 31
0.0
  0
LINE
  5
20A
100
AcDbEntity
  8
LAYER0
 62
         3
100
AcDbLine
 10
-25.3037486819
 20
25.5693881548
 30
0.0
 11
-25.3791310222
 21
25.6427841687
 31
0.0
  0
LINE
  5
20B
100
AcDbEntity
  8
LAYER0
 62
         3
100
AcDbLine
 10
-25.3791310222
 20
25.6427841687
 30
0.0
 11
-25.4547240251
 21
25.7283052941
 31
0.0
  0
LINE
  5
20C
100
AcDbEntity
  8
LAYER0
 62
         3
100
AcDbLine
 10
-25.4547240251
 20
25.7283052941
 30
0.0
 11
-25.5295438089
 21
25.8258561099
 31
0.0
  0
LINE
  5
20D
100
AcDbEntity
  8
LAYER0
 62
         3
100
AcDbLine
 10
-25.5295438089
 20
25.8258561099
 30
0.0
 11
-25.599337114
 21
25.9301634706
 31
0.0
  0
LINE
  5
20E
100
AcDbEntity
  8
LAYER0
 62
         3
100
AcDbLine
 10
-25.599337114
 20
25.9301634706
 30
0.0
 11
-25.6659965359
 21
26.0446032936
 31
0.0
  0
LINE
  5
20F
100
AcDbEntity
  8
LAYER0
 62
         3
100
AcDbLine
 10
-25.6659965359
 20
26.0446032936
 30
0.0
 11
-25.7285878925
 21
26.1691637073
 31
0.0
  0
LINE
  5
210
100
AcDbEntity
  8
LAYER0
 62
         3
100
AcDbLine
 10
-25.7285878925
 20
26.1691637073
 30
0.0
 11
-25.7860714898
 21
26.3025721962
 31
0.0
  0
LINE
  5
211
100
AcDbEntity
  8
LAYER0
 62
         3
100
AcDbLine
 10
-25.7860714898
 20
26.3025721962
 30
0.0
 11
-25.8366786285
 21
26.4408942043
 31
0.0
  0
LINE
  5
212
100
AcDbEntity
  8
LAYER0
 62
         3
100
AcDbLine
 10
-25.8366786285
 20
26.4408942043
 30
0.0
 11
-25.8805443861
 21
26.5858749354
 31
0.0
  0
LINE
  5
213
100
AcDbEntity
  8
LAYER0
 62
         3
100
AcDbLine
 10
-25.8805443861
 20
26.5858749354
 30
0.0
 11
-25.9459758506
 21
26.892004391
 31
0.0
  0
LINE
  5
214
100
AcDbEntity
  8
LAYER0
 62
         3
100
AcDbLine
 10
-25.9459758506
 20
26.892004391
 30
0.0
 11
-25.9678221443
 21
27.050005161
 31
0.0
  0
LINE
  5
215
100
AcDbEntity
  8
LAYER0
 62
         3
100
AcDbLine
 10
-25.9678221443
 20
27.050005161
 30
0.0
 11
-25.9787574739
 21
27.2102484906
 31
0.0
  0
LINE
  5
216
100
AcDbEntity
  8
LAYER0
 62
         3
100
AcDbLine
 10
-25.9787574739
 20
27.2102484906
 30
0.0
 11
-25.9780343019
 21
27.3564512336
 31
0.0
  0
ENDBLK
  5
217
100
AcDbEntity
  8
0
100
AcDbBlockEnd
  0
BLOCK
  5
21B
100
AcDbEntity
  8
0
100
AcDbBlockBegin
  2
CLUMP48
 70
         0
 10
0.0
 20
0.0
 30
0.0
  3

  1

  0
INSERT
  5
21D
100
AcDbEntity
  8
0
100
AcDbBlockReference
  2
CLUMP49
 10
0.0
 20
0.0
 30
0.0
  0
ENDBLK
  5
235
100
AcDbEntity
  8
0
100
AcDbBlockEnd
  0
BLOCK
  5
21E
100
AcDbEntity
  8
0
100
AcDbBlockBegin
  2
CLUMP49
 70
         0
 10
0.0
 20
0.0
 30
0.0
  3

  1

  0
LINE
  5
21F
100
AcDbEntity
  8
LAYER0
 62
         3
100
AcDbLine
 10
-33.8059709736
 20
27.3562910462
 30
0.0
 11
-33.8040273034
 21
27.2473635578
 31
0.0
  0
LINE
  5
220
100
AcDbEntity
  8
LAYER0
 62
         3
100
AcDbLine
 10
-33.8040273034
 20
27.2473635578
 30
0.0
 11
-33.8126213841
 21
27.0870770742
 31
0.0
  0
LINE
  5
221
100
AcDbEntity
  8
LAYER0
 62
         3
100
AcDbLine
 10
-33.8126213841
 20
27.0870770742
 30
0.0
 11
-33.8327902698
 21
26.9287134016
 31
0.0
  0
LINE
  5
222
100
AcDbEntity
  8
LAYER0
 62
         3
100
AcDbLine
 10
-33.8327902698
 20
26.9287134016
 30
0.0
 11
-33.893914833
 21
26.6242193485
 31
0.0
  0
LINE
  5
223
100
AcDbEntity
  8
LAYER0
 62
         3
100
AcDbLine
 10
-33.893914833
 20
26.6242193485
 30
0.0
 11
-33.9358308536
 21
26.4774584215
 31
0.0
  0
LINE
  5
224
100
AcDbEntity
  8
LAYER0
 62
         3
100
AcDbLine
 10
-33.9358308536
 20
26.4774584215
 30
0.0
 11
-33.984718784
 21
26.3371969068
 31
0.0
  0
LINE
  5
225
100
AcDbEntity
  8
LAYER0
 62
         3
100
AcDbLine
 10
-33.984718784
 20
26.3371969068
 30
0.0
 11
-34.0389606838
 21
26.2062017586
 31
0.0
  0
LINE
  5
226
100
AcDbEntity
  8
LAYER0
 62
         3
100
AcDbLine
 10
-34.0389606838
 20
26.2062017586
 30
0.0
 11
-34.0983056792
 21
26.0831507349
 31
0.0
  0
LINE
  5
227
100
AcDbEntity
  8
LAYER0
 62
         3
100
AcDbLine
 10
-34.0983056792
 20
26.0831507349
 30
0.0
 11
-34.1639949077
 21
25.9649895501
 31
0.0
  0
LINE
  5
228
100
AcDbEntity
  8
LAYER0
 62
         3
100
AcDbLine
 10
-34.1639949077
 20
25.9649895501
 30
0.0
 11
-34.2330056571
 21
25.8569324816
 31
0.0
  0
LINE
  5
229
100
AcDbEntity
  8
LAYER0
 62
         3
100
AcDbLine
 10
-34.2330056571
 20
25.8569324816
 30
0.0
 11
-34.303069138
 21
25.7613507189
 31
0.0
  0
LINE
  5
22A
100
AcDbEntity
  8
LAYER0
 62
         3
100
AcDbLine
 10
-34.303069138
 20
25.7613507189
 30
0.0
 11
-34.3743925311
 21
25.6764626557
 31
0.0
  0
LINE
  5
22B
100
AcDbEntity
  8
LAYER0
 62
         3
100
AcDbLine
 10
-34.3743925311
 20
25.6764626557
 30
0.0
 11
-34.4473322659
 21
25.6008789646
 31
0.0
  0
LINE
  5
22C
100
AcDbEntity
  8
LAYER0
 62
         3
100
AcDbLine
 10
-34.4473322659
 20
25.6008789646
 30
0.0
 11
-34.5191992216
 21
25.5363246852
 31
0.0
  0
LINE
  5
22D
100
AcDbEntity
  8
LAYER0
 62
         3
100
AcDbLine
 10
-34.5191992216
 20
25.5363246852
 30
0.0
 11
-34.5912082747
 21
25.4810116758
 31
0.0
  0
LINE
  5
22E
100
AcDbEntity
  8
LAYER0
 62
         3
100
AcDbLine
 10
-34.5912082747
 20
25.4810116758
 30
0.0
 11
-34.6590773531
 21
25.4374815578
 31
0.0
  0
LINE
  5
22F
100
AcDbEntity
  8
LAYER0
 62
         3
100
AcDbLine
 10
-34.6590773531
 20
25.4374815578
 30
0.0
 11
-34.7216083321
 21
25.4051304442
 31
0.0
  0
LINE
  5
230
100
AcDbEntity
  8
LAYER0
 62
         3
100
AcDbLine
 10
-34.7216083321
 20
25.4051304442
 30
0.0
 11
-34.7791611545
 21
25.3819076771
 31
0.0
  0
LINE
  5
231
100
AcDbEntity
  8
LAYER0
 62
         3
100
AcDbLine
 10
-34.7791611545
 20
25.3819076771
 30
0.0
 11
-34.8363444105
 21
25.3650514926
 31
0.0
  0
LINE
  5
232
100
AcDbEntity
  8
LAYER0
 62
         3
100
AcDbLine
 10
-34.8363444105
 20
25.3650514926
 30
0.0
 11
-34.8839023479
 21
25.3580658192
 31
0.0
  0
LINE
  5
233
100
AcDbEntity
  8
LAYER0
 62
         3
100
AcDbLine
 10
-34.8839023479
 20
25.3580658192
 30
0.0
 11
-34.9128851064
 21
25.3590958619
 31
0.0
  0
ENDBLK
  5
234
100
AcDbEntity
  8
0
100
AcDbBlockEnd
  0
BLOCK
  5
238
100
AcDbEntity
  8
0
100
AcDbBlockBegin
  2
CLUMP50
 70
         0
 10
0.0
 20
0.0
 30
0.0
  3

  1

  0
INSERT
  5
23A
100
AcDbEntity
  8
0
100
AcDbBlockReference
  2
CLUMP51
 10
0.0
 20
0.0
 30
0.0
  0
ENDBLK
  5
24C
100
AcDbEntity
  8
0
100
AcDbBlockEnd
  0
BLOCK
  5
23B
100
AcDbEntity
  8
0
100
AcDbBlockBegin
  2
CLUMP51
 70
         0
 10
0.0
 20
0.0
 30
0.0
  3

  1

  0
LINE
  5
23C
100
AcDbEntity
  8
LAYER0
 62
         3
100
AcDbLine
 10
-31.2167787322
 20
20.8564846272
 30
0.0
 11
-31.2192923718
 21
20.8565162921
 31
0.0
  0
LINE
  5
23D
100
AcDbEntity
  8
LAYER0
 62
         3
100
AcDbLine
 10
-31.2192923718
 20
20.8565162921
 30
0.0
 11
-31.2595016052
 21
20.865675163
 31
0.0
  0
LINE
  5
23E
100
AcDbEntity
  8
LAYER0
 62
         3
100
AcDbLine
 10
-31.2595016052
 20
20.865675163
 30
0.0
 11
-31.298938147
 21
20.8912807012
 31
0.0
  0
LINE
  5
23F
100
AcDbEntity
  8
LAYER0
 62
         3
100
AcDbLine
 10
-31.298938147
 20
20.8912807012
 30
0.0
 11
-31.3235517852
 21
20.9162601953
 31
0.0
  0
LINE
  5
240
100
AcDbEntity
  8
LAYER0
 62
         3
100
AcDbLine
 10
-31.3235517852
 20
20.9162601953
 30
0.0
 11
-31.3474144241
 21
20.9477583005
 31
0.0
  0
LINE
  5
241
100
AcDbEntity
  8
LAYER0
 62
         3
100
AcDbLine
 10
-31.3474144241
 20
20.9477583005
 30
0.0
 11
-31.3703580776
 21
20.985614377
 31
0.0
  0
LINE
  5
242
100
AcDbEntity
  8
LAYER0
 62
         3
100
AcDbLine
 10
-31.3703580776
 20
20.985614377
 30
0.0
 11
-31.3922147595
 21
21.0296677852
 31
0.0
  0
LINE
  5
243
100
AcDbEntity
  8
LAYER0
 62
         3
100
AcDbLine
 10
-31.3922147595
 20
21.0296677852
 30
0.0
 11
-31.4120494385
 21
21.0776607972
 31
0.0
  0
LINE
  5
244
100
AcDbEntity
  8
LAYER0
 62
         3
100
AcDbLine
 10
-31.4120494385
 20
21.0776607972
 30
0.0
 11
-31.4306509299
 21
21.1309161635
 31
0.0
  0
LINE
  5
245
100
AcDbEntity
  8
LAYER0
 62
         3
100
AcDbLine
 10
-31.4306509299
 20
21.1309161635
 30
0.0
 11
-31.4479448333
 21
21.1891221526
 31
0.0
  0
LINE
  5
246
100
AcDbEntity
  8
LAYER0
 62
         3
100
AcDbLine
 10
-31.4479448333
 20
21.1891221526
 30
0.0
 11
-31.4638567486
 21
21.2519670332
 31
0.0
  0
LINE
  5
247
100
AcDbEntity
  8
LAYER0
 62
         3
100
AcDbLine
 10
-31.4638567486
 20
21.2519670332
 30
0.0
 11
-31.4905564356
 21
21.3875297098
 31
0.0
  0
LINE
  5
248
100
AcDbEntity
  8
LAYER0
 62
         3
100
AcDbLine
 10
-31.4905564356
 20
21.3875297098
 30
0.0
 11
-31.5095614039
 21
21.5361098254
 31
0.0
  0
LINE
  5
249
100
AcDbEntity
  8
LAYER0
 62
         3
100
AcDbLine
 10
-31.5095614039
 20
21.5361098254
 30
0.0
 11
-31.519962251
 21
21.69396144
 31
0.0
  0
LINE
  5
24A
100
AcDbEntity
  8
LAYER0
 62
         3
100
AcDbLine
 10
-31.519962251
 20
21.69396144
 30
0.0
 11
-31.5254730501
 21
21.8564847911
 31
0.0
  0
ENDBLK
  5
24B
100
AcDbEntity
  8
0
100
AcDbBlockEnd
  0
BLOCK
  5
24F
100
AcDbEntity
  8
0
100
AcDbBlockBegin
  2
CLUMP52
 70
         0
 10
0.0
 20
0.0
 30
0.0
  3

  1

  0
INSERT
  5
251
100
AcDbEntity
  8
0
100
AcDbBlockReference
  2
CLUMP53
 10
0.0
 20
0.0
 30
0.0
  0
ENDBLK
  5
263
100
AcDbEntity
  8
0
100
AcDbBlockEnd
  0
BLOCK
  5
252
100
AcDbEntity
  8
0
100
AcDbBlockBegin
  2
CLUMP53
 70
         0
 10
0.0
 20
0.0
 30
0.0
  3

  1

  0
LINE
  5
253
100
AcDbEntity
  8
LAYER0
 62
         3
100
AcDbLine
 10
-28.5676675246
 20
20.8564846272
 30
0.0
 11
-28.5651534193
 21
20.8565162921
 31
0.0
  0
LINE
  5
254
100
AcDbEntity
  8
LAYER0
 62
         3
100
AcDbLine
 10
-28.5651534193
 20
20.8565162921
 30
0.0
 11
-28.5249424532
 21
20.8656751714
 31
0.0
  0
LINE
  5
255
100
AcDbEntity
  8
LAYER0
 62
         3
100
AcDbLine
 10
-28.5249424532
 20
20.8656751714
 30
0.0
 11
-28.4855085754
 21
20.8912807012
 31
0.0
  0
LINE
  5
256
100
AcDbEntity
  8
LAYER0
 62
         3
100
AcDbLine
 10
-28.4855085754
 20
20.8912807012
 30
0.0
 11
-28.4608957578
 21
20.9162601978
 31
0.0
  0
LINE
  5
257
100
AcDbEntity
  8
LAYER0
 62
         3
100
AcDbLine
 10
-28.4608957578
 20
20.9162601978
 30
0.0
 11
-28.4370330154
 21
20.9477582997
 31
0.0
  0
LINE
  5
258
100
AcDbEntity
  8
LAYER0
 62
         3
100
AcDbLine
 10
-28.4370330154
 20
20.9477582997
 30
0.0
 11
-28.4140887835
 21
20.9856143734
 31
0.0
  0
LINE
  5
259
100
AcDbEntity
  8
LAYER0
 62
         3
100
AcDbLine
 10
-28.4140887835
 20
20.9856143734
 30
0.0
 11
-28.3922314972
 21
21.0296677852
 31
0.0
  0
LINE
  5
25A
100
AcDbEntity
  8
LAYER0
 62
         3
100
AcDbLine
 10
-28.3922314972
 20
21.0296677852
 30
0.0
 11
-28.3723965501
 21
21.0776607924
 31
0.0
  0
LINE
  5
25B
100
AcDbEntity
  8
LAYER0
 62
         3
100
AcDbLine
 10
-28.3723965501
 20
21.0776607924
 30
0.0
 11
-28.3537950538
 21
21.1309161587
 31
0.0
  0
LINE
  5
25C
100
AcDbEntity
  8
LAYER0
 62
         3
100
AcDbLine
 10
-28.3537950538
 20
21.1309161587
 30
0.0
 11
-28.3365012819
 21
21.1891221502
 31
0.0
  0
LINE
  5
25D
100
AcDbEntity
  8
LAYER0
 62
         3
100
AcDbLine
 10
-28.3365012819
 20
21.1891221502
 30
0.0
 11
-28.3205895082
 21
21.2519670332
 31
0.0
  0
LINE
  5
25E
100
AcDbEntity
  8
LAYER0
 62
         3
100
AcDbLine
 10
-28.3205895082
 20
21.2519670332
 30
0.0
 11
-28.293889862
 21
21.3875297095
 31
0.0
  0
LINE
  5
25F
100
AcDbEntity
  8
LAYER0
 62
         3
100
AcDbLine
 10
-28.293889862
 20
21.3875297095
 30
0.0
 11
-28.2748848528
 21
21.5361098254
 31
0.0
  0
LINE
  5
260
100
AcDbEntity
  8
LAYER0
 62
         3
100
AcDbLine
 10
-28.2748848528
 20
21.5361098254
 30
0.0
 11
-28.2644841671
 21
21.6939614375
 31
0.0
  0
LINE
  5
261
100
AcDbEntity
  8
LAYER0
 62
         3
100
AcDbLine
 10
-28.2644841671
 20
21.6939614375
 30
0.0
 11
-28.2589736723
 21
21.8564847911
 31
0.0
  0
ENDBLK
  5
262
100
AcDbEntity
  8
0
100
AcDbBlockEnd
  0
BLOCK
  5
266
100
AcDbEntity
  8
0
100
AcDbBlockBegin
  2
CLUMP54
 70
         0
 10
0.0
 20
0.0
 30
0.0
  3

  1

  0
INSERT
  5
268
100
AcDbEntity
  8
0
100
AcDbBlockReference
  2
CLUMP55
 10
0.0
 20
0.0
 30
0.0
  0
ENDBLK
  5
275
100
AcDbEntity
  8
0
100
AcDbBlockEnd
  0
BLOCK
  5
269
100
AcDbEntity
  8
0
100
AcDbBlockBegin
  2
CLUMP55
 70
         0
 10
0.0
 20
0.0
 30
0.0
  3

  1

  0
LINE
  5
26A
100
AcDbEntity
  8
LAYER0
 62
         3
100
AcDbLine
 10
-34.0067315244
 20
42.8892391229
 30
0.0
 11
-34.0149157898
 21
42.8976658916
 31
0.0
  0
LINE
  5
26B
100
AcDbEntity
  8
LAYER0
 62
         3
100
AcDbLine
 10
-34.0149157898
 20
42.8976658916
 30
0.0
 11
-34.0187036198
 21
42.9020817374
 31
0.0
  0
LINE
  5
26C
100
AcDbEntity
  8
LAYER0
 62
         3
100
AcDbLine
 10
-34.0187036198
 20
42.9020817374
 30
0.0
 11
-34.0221262865
 21
42.9067405367
 31
0.0
  0
LINE
  5
26D
100
AcDbEntity
  8
LAYER0
 62
         3
100
AcDbLine
 10
-34.0221262865
 20
42.9067405367
 30
0.0
 11
-34.0265847613
 21
42.9146926727
 31
0.0
  0
LINE
  5
26E
100
AcDbEntity
  8
LAYER0
 62
         3
100
AcDbLine
 10
-34.0265847613
 20
42.9146926727
 30
0.0
 11
-34.0299875351
 21
42.9233471969
 31
0.0
  0
LINE
  5
26F
100
AcDbEntity
  8
LAYER0
 62
         3
100
AcDbLine
 10
-34.0299875351
 20
42.9233471969
 30
0.0
 11
-34.0324854223
 21
42.9326037681
 31
0.0
  0
LINE
  5
270
100
AcDbEntity
  8
LAYER0
 62
         3
100
AcDbLine
 10
-34.0324854223
 20
42.9326037681
 30
0.0
 11
-34.0342292373
 21
42.9423620452
 31
0.0
  0
LINE
  5
271
100
AcDbEntity
  8
LAYER0
 62
         3
100
AcDbLine
 10
-34.0342292373
 20
42.9423620452
 30
0.0
 11
-34.0353697946
 21
42.952521687
 31
0.0
  0
LINE
  5
272
100
AcDbEntity
  8
LAYER0
 62
         3
100
AcDbLine
 10
-34.0353697946
 20
42.952521687
 30
0.0
 11
-34.0360579086
 21
42.9629823523
 31
0.0
  0
LINE
  5
273
100
AcDbEntity
  8
LAYER0
 62
         3
100
AcDbLine
 10
-34.0360579086
 20
42.9629823523
 30
0.0
 11
-34.0366800644
 21
42.9844053889
 31
0.0
  0
ENDBLK
  5
274
100
AcDbEntity
  8
0
100
AcDbBlockEnd
  0
BLOCK
  5
278
100
AcDbEntity
  8
0
100
AcDbBlockBegin
  2
CLUMP56
 70
         0
 10
0.0
 20
0.0
 30
0.0
  3

  1

  0
INSERT
  5
27A
100
AcDbEntity
  8
0
100
AcDbBlockReference
  2
CLUMP57
 10
0.0
 20
0.0
 30
0.0
  0
ENDBLK
  5
287
100
AcDbEntity
  8
0
100
AcDbBlockEnd
  0
BLOCK
  5
27B
100
AcDbEntity
  8
0
100
AcDbBlockBegin
  2
CLUMP57
 70
         0
 10
0.0
 20
0.0
 30
0.0
  3

  1

  0
LINE
  5
27C
100
AcDbEntity
  8
LAYER0
 62
         3
100
AcDbLine
 10
-25.7477657267
 20
42.9844053889
 30
0.0
 11
-25.7483876396
 21
42.9629823366
 31
0.0
  0
LINE
  5
27D
100
AcDbEntity
  8
LAYER0
 62
         3
100
AcDbLine
 10
-25.7483876396
 20
42.9629823366
 30
0.0
 11
-25.7490756625
 21
42.9525216654
 31
0.0
  0
LINE
  5
27E
100
AcDbEntity
  8
LAYER0
 62
         3
100
AcDbLine
 10
-25.7490756625
 20
42.9525216654
 30
0.0
 11
-25.7502161652
 21
42.9423620201
 31
0.0
  0
LINE
  5
27F
100
AcDbEntity
  8
LAYER0
 62
         3
100
AcDbLine
 10
-25.7502161652
 20
42.9423620201
 30
0.0
 11
-25.7519599741
 21
42.9326037426
 31
0.0
  0
LINE
  5
280
100
AcDbEntity
  8
LAYER0
 62
         3
100
AcDbLine
 10
-25.7519599741
 20
42.9326037426
 30
0.0
 11
-25.7544579159
 21
42.9233471749
 31
0.0
  0
LINE
  5
281
100
AcDbEntity
  8
LAYER0
 62
         3
100
AcDbLine
 10
-25.7544579159
 20
42.9233471749
 30
0.0
 11
-25.7578608172
 21
42.914692659
 31
0.0
  0
LINE
  5
282
100
AcDbEntity
  8
LAYER0
 62
         3
100
AcDbLine
 10
-25.7578608172
 20
42.914692659
 30
0.0
 11
-25.7623195045
 21
42.9067405367
 31
0.0
  0
LINE
  5
283
100
AcDbEntity
  8
LAYER0
 62
         3
100
AcDbLine
 10
-25.7623195045
 20
42.9067405367
 30
0.0
 11
-25.7657423667
 21
42.9020817331
 31
0.0
  0
LINE
  5
284
100
AcDbEntity
  8
LAYER0
 62
         3
100
AcDbLine
 10
-25.7657423667
 20
42.9020817331
 30
0.0
 11
-25.7695304242
 21
42.8976658868
 31
0.0
  0
LINE
  5
285
100
AcDbEntity
  8
LAYER0
 62
         3
100
AcDbLine
 10
-25.7695304242
 20
42.8976658868
 30
0.0
 11
-25.777715198
 21
42.8892391229
 31
0.0
  0
ENDBLK
  5
286
100
AcDbEntity
  8
0
100
AcDbBlockEnd
  0
BLOCK
  5
28A
100
AcDbEntity
  8
0
100
AcDbBlockBegin
  2
CLUMP58
 70
         0
 10
0.0
 20
0.0
 30
0.0
  3

  1

  0
INSERT
  5
28C
100
AcDbEntity
  8
0
100
AcDbBlockReference
  2
CLUMP59
 10
0.0
 20
0.0
 30
0.0
  0
ENDBLK
  5
298
100
AcDbEntity
  8
0
100
AcDbBlockEnd
  0
BLOCK
  5
28D
100
AcDbEntity
  8
0
100
AcDbBlockBegin
  2
CLUMP59
 70
         0
 10
0.0
 20
0.0
 30
0.0
  3

  1

  0
LINE
  5
28E
100
AcDbEntity
  8
LAYER0
 62
         3
100
AcDbLine
 10
-34.0366800644
 20
42.9844053889
 30
0.0
 11
-33.9848116795
 21
43.0613778234
 31
0.0
  0
LINE
  5
28F
100
AcDbEntity
  8
LAYER0
 62
         3
100
AcDbLine
 10
-33.9848116795
 20
43.0613778234
 30
0.0
 11
-33.9552440218
 21
43.1003945905
 31
0.0
  0
LINE
  5
290
100
AcDbEntity
  8
LAYER0
 62
         3
100
AcDbLine
 10
-33.9552440218
 20
43.1003945905
 30
0.0
 11
-33.9213162058
 21
43.1400480175
 31
0.0
  0
LINE
  5
291
100
AcDbEntity
  8
LAYER0
 62
         3
100
AcDbLine
 10
-33.9213162058
 20
43.1400480175
 30
0.0
 11
-33.8964721838
 21
43.1661093265
 31
0.0
  0
LINE
  5
292
100
AcDbEntity
  8
LAYER0
 62
         3
100
AcDbLine
 10
-33.8964721838
 20
43.1661093265
 30
0.0
 11
-33.8694004909
 21
43.1924678477
 31
0.0
  0
LINE
  5
293
100
AcDbEntity
  8
LAYER0
 62
         3
100
AcDbLine
 10
-33.8694004909
 20
43.1924678477
 30
0.0
 11
-33.8093872658
 21
43.2458455219
 31
0.0
  0
LINE
  5
294
100
AcDbEntity
  8
LAYER0
 62
         3
100
AcDbLine
 10
-33.8093872658
 20
43.2458455219
 30
0.0
 11
-33.7429028781
 21
43.2997190297
 31
0.0
  0
LINE
  5
295
100
AcDbEntity
  8
LAYER0
 62
         3
100
AcDbLine
 10
-33.7429028781
 20
43.2997190297
 30
0.0
 11
-33.6715736755
 21
43.3536263609
 31
0.0
  0
LINE
  5
296
100
AcDbEntity
  8
LAYER0
 62
         3
100
AcDbLine
 10
-33.6715736755
 20
43.3536263609
 30
0.0
 11
-33.6676798158
 21
43.3564836586
 31
0.0
  0
ENDBLK
  5
297
100
AcDbEntity
  8
0
100
AcDbBlockEnd
  0
BLOCK
  5
29B
100
AcDbEntity
  8
0
100
AcDbBlockBegin
  2
CLUMP60
 70
         0
 10
0.0
 20
0.0
 30
0.0
  3

  1

  0
INSERT
  5
29D
100
AcDbEntity
  8
0
100
AcDbBlockReference
  2
CLUMP61
 10
0.0
 20
0.0
 30
0.0
  0
ENDBLK
  5
2A7
100
AcDbEntity
  8
0
100
AcDbBlockEnd
  0
BLOCK
  5
29E
100
AcDbEntity
  8
0
100
AcDbBlockBegin
  2
CLUMP61
 70
         0
 10
0.0
 20
0.0
 30
0.0
  3

  1

  0
LINE
  5
29F
100
AcDbEntity
  8
LAYER0
 62
         3
100
AcDbLine
 10
-33.6676798158
 20
43.3564836586
 30
0.0
 11
-33.6696989231
 21
43.3507876897
 31
0.0
  0
LINE
  5
2A0
100
AcDbEntity
  8
LAYER0
 62
         3
100
AcDbLine
 10
-33.6696989231
 20
43.3507876897
 30
0.0
 11
-33.7062237175
 21
43.2430910567
 31
0.0
  0
LINE
  5
2A1
100
AcDbEntity
  8
LAYER0
 62
         3
100
AcDbLine
 10
-33.7062237175
 20
43.2430910567
 30
0.0
 11
-33.7384396273
 21
43.1353658596
 31
0.0
  0
LINE
  5
2A2
100
AcDbEntity
  8
LAYER0
 62
         3
100
AcDbLine
 10
-33.7384396273
 20
43.1353658596
 30
0.0
 11
-33.7643466327
 21
43.0285577493
 31
0.0
  0
LINE
  5
2A3
100
AcDbEntity
  8
LAYER0
 62
         3
100
AcDbLine
 10
-33.7643466327
 20
43.0285577493
 30
0.0
 11
-33.7819447138
 21
42.9236123765
 31
0.0
  0
LINE
  5
2A4
100
AcDbEntity
  8
LAYER0
 62
         3
100
AcDbLine
 10
-33.7819447138
 20
42.9236123765
 30
0.0
 11
-33.7907221606
 21
42.8133139915
 31
0.0
  0
LINE
  5
2A5
100
AcDbEntity
  8
LAYER0
 62
         3
100
AcDbLine
 10
-33.7907221606
 20
42.8133139915
 30
0.0
 11
-33.7935238474
 21
42.704643538
 31
0.0
  0
ENDBLK
  5
2A6
100
AcDbEntity
  8
0
100
AcDbBlockEnd
  0
BLOCK
  5
2AA
100
AcDbEntity
  8
0
100
AcDbBlockBegin
  2
CLUMP62
 70
         0
 10
0.0
 20
0.0
 30
0.0
  3

  1

  0
INSERT
  5
2AC
100
AcDbEntity
  8
0
100
AcDbBlockReference
  2
CLUMP63
 10
0.0
 20
0.0
 30
0.0
  0
ENDBLK
  5
2B8
100
AcDbEntity
  8
0
100
AcDbBlockEnd
  0
BLOCK
  5
2AD
100
AcDbEntity
  8
0
100
AcDbBlockBegin
  2
CLUMP63
 70
         0
 10
0.0
 20
0.0
 30
0.0
  3

  1

  0
LINE
  5
2AE
100
AcDbEntity
  8
LAYER0
 62
         3
100
AcDbLine
 10
-26.1167664409
 20
43.3564836586
 30
0.0
 11
-26.1128725812
 21
43.3536263609
 31
0.0
  0
LINE
  5
2AF
100
AcDbEntity
  8
LAYER0
 62
         3
100
AcDbLine
 10
-26.1128725812
 20
43.3536263609
 30
0.0
 11
-26.0415433003
 21
43.2997190158
 31
0.0
  0
LINE
  5
2B0
100
AcDbEntity
  8
LAYER0
 62
         3
100
AcDbLine
 10
-26.0415433003
 20
43.2997190158
 30
0.0
 11
-25.9750587817
 21
43.2458455113
 31
0.0
  0
LINE
  5
2B1
100
AcDbEntity
  8
LAYER0
 62
         3
100
AcDbLine
 10
-25.9750587817
 20
43.2458455113
 30
0.0
 11
-25.9150454139
 21
43.1924678457
 31
0.0
  0
LINE
  5
2B2
100
AcDbEntity
  8
LAYER0
 62
         3
100
AcDbLine
 10
-25.9150454139
 20
43.1924678457
 30
0.0
 11
-25.8879736579
 21
43.1661093271
 31
0.0
  0
LINE
  5
2B3
100
AcDbEntity
  8
LAYER0
 62
         3
100
AcDbLine
 10
-25.8879736579
 20
43.1661093271
 30
0.0
 11
-25.8631295853
 21
43.1400480175
 31
0.0
  0
LINE
  5
2B4
100
AcDbEntity
  8
LAYER0
 62
         3
100
AcDbLine
 10
-25.8631295853
 20
43.1400480175
 30
0.0
 11
-25.8292017379
 21
43.100394601
 31
0.0
  0
LINE
  5
2B5
100
AcDbEntity
  8
LAYER0
 62
         3
100
AcDbLine
 10
-25.8292017379
 20
43.100394601
 30
0.0
 11
-25.7996340757
 21
43.0613778354
 31
0.0
  0
LINE
  5
2B6
100
AcDbEntity
  8
LAYER0
 62
         3
100
AcDbLine
 10
-25.7996340757
 20
43.0613778354
 30
0.0
 11
-25.7477657267
 21
42.9844053889
 31
0.0
  0
ENDBLK
  5
2B7
100
AcDbEntity
  8
0
100
AcDbBlockEnd
  0
BLOCK
  5
2BB
100
AcDbEntity
  8
0
100
AcDbBlockBegin
  2
CLUMP64
 70
         0
 10
0.0
 20
0.0
 30
0.0
  3

  1

  0
INSERT
  5
2BD
100
AcDbEntity
  8
0
100
AcDbBlockReference
  2
CLUMP65
 10
0.0
 20
0.0
 30
0.0
  0
ENDBLK
  5
2C7
100
AcDbEntity
  8
0
100
AcDbBlockEnd
  0
BLOCK
  5
2BE
100
AcDbEntity
  8
0
100
AcDbBlockBegin
  2
CLUMP65
 70
         0
 10
0.0
 20
0.0
 30
0.0
  3

  1

  0
LINE
  5
2BF
100
AcDbEntity
  8
LAYER0
 62
         3
100
AcDbLine
 10
-25.990922875
 20
42.704643538
 30
0.0
 11
-25.993724293
 21
42.813313993
 31
0.0
  0
LINE
  5
2C0
100
AcDbEntity
  8
LAYER0
 62
         3
100
AcDbLine
 10
-25.993724293
 20
42.813313993
 30
0.0
 11
-26.0025015429
 21
42.9236123765
 31
0.0
  0
LINE
  5
2C1
100
AcDbEntity
  8
LAYER0
 62
         3
100
AcDbLine
 10
-26.0025015429
 20
42.9236123765
 30
0.0
 11
-26.0200995528
 21
43.0285577519
 31
0.0
  0
LINE
  5
2C2
100
AcDbEntity
  8
LAYER0
 62
         3
100
AcDbLine
 10
-26.0200995528
 20
43.0285577519
 30
0.0
 11
-26.0460065657
 21
43.1353658619
 31
0.0
  0
LINE
  5
2C3
100
AcDbEntity
  8
LAYER0
 62
         3
100
AcDbLine
 10
-26.0460065657
 20
43.1353658619
 30
0.0
 11
-26.0782225149
 21
43.2430910575
 31
0.0
  0
LINE
  5
2C4
100
AcDbEntity
  8
LAYER0
 62
         3
100
AcDbLine
 10
-26.0782225149
 20
43.2430910575
 30
0.0
 11
-26.1147473336
 21
43.3507876897
 31
0.0
  0
LINE
  5
2C5
100
AcDbEntity
  8
LAYER0
 62
         3
100
AcDbLine
 10
-26.1147473336
 20
43.3507876897
 30
0.0
 11
-26.1167664409
 21
43.3564836586
 31
0.0
  0
ENDBLK
  5
2C6
100
AcDbEntity
  8
0
100
AcDbBlockEnd
  0
BLOCK
  5
2CA
100
AcDbEntity
  8
0
100
AcDbBlockBegin
  2
CLUMP66
 70
         0
 10
0.0
 20
0.0
 30
0.0
  3

  1

  0
INSERT
  5
2CC
100
AcDbEntity
  8
0
100
AcDbBlockReference
  2
CLUMP67
 10
0.0
 20
0.0
 30
0.0
  0
ENDBLK
  5
2DE
100
AcDbEntity
  8
0
100
AcDbBlockEnd
  0
BLOCK
  5
2CD
100
AcDbEntity
  8
0
100
AcDbBlockBegin
  2
CLUMP67
 70
         0
 10
0.0
 20
0.0
 30
0.0
  3

  1

  0
LINE
  5
2CE
100
AcDbEntity
  8
LAYER0
 62
         3
100
AcDbLine
 10
-33.9308659875
 20
42.8580435419
 30
0.0
 11
-33.9305132615
 21
42.8580193006
 31
0.0
  0
LINE
  5
2CF
100
AcDbEntity
  8
LAYER0
 62
         3
100
AcDbLine
 10
-33.9305132615
 20
42.8580193006
 30
0.0
 11
-33.9302043227
 21
42.8579396759
 31
0.0
  0
LINE
  5
2D0
100
AcDbEntity
  8
LAYER0
 62
         3
100
AcDbLine
 10
-33.9302043227
 20
42.8579396759
 30
0.0
 11
-33.9297362932
 21
42.8577790463
 31
0.0
  0
LINE
  5
2D1
100
AcDbEntity
  8
LAYER0
 62
         3
100
AcDbLine
 10
-33.9297362932
 20
42.8577790463
 30
0.0
 11
-33.9290234454
 21
42.8574981251
 31
0.0
  0
LINE
  5
2D2
100
AcDbEntity
  8
LAYER0
 62
         3
100
AcDbLine
 10
-33.9290234454
 20
42.8574981251
 30
0.0
 11
-33.9280887659
 21
42.8571042532
 31
0.0
  0
LINE
  5
2D3
100
AcDbEntity
  8
LAYER0
 62
         3
100
AcDbLine
 10
-33.9280887659
 20
42.8571042532
 30
0.0
 11
-33.9269470435
 21
42.8566049605
 31
0.0
  0
LINE
  5
2D4
100
AcDbEntity
  8
LAYER0
 62
         3
100
AcDbLine
 10
-33.9269470435
 20
42.8566049605
 30
0.0
 11
-33.925613067
 21
42.8560077771
 31
0.0
  0
LINE
  5
2D5
100
AcDbEntity
  8
LAYER0
 62
         3
100
AcDbLine
 10
-33.925613067
 20
42.8560077771
 30
0.0
 11
-33.9241016252
 21
42.8553202332
 31
0.0
  0
LINE
  5
2D6
100
AcDbEntity
  8
LAYER0
 62
         3
100
AcDbLine
 10
-33.9241016252
 20
42.8553202332
 30
0.0
 11
-33.9224275069
 21
42.8545498586
 31
0.0
  0
LINE
  5
2D7
100
AcDbEntity
  8
LAYER0
 62
         3
100
AcDbLine
 10
-33.9224275069
 20
42.8545498586
 30
0.0
 11
-33.9206055008
 21
42.8537041836
 31
0.0
  0
LINE
  5
2D8
100
AcDbEntity
  8
LAYER0
 62
         3
100
AcDbLine
 10
-33.9206055008
 20
42.8537041836
 30
0.0
 11
-33.9186503957
 21
42.8527907381
 31
0.0
  0
LINE
  5
2D9
100
AcDbEntity
  8
LAYER0
 62
         3
100
AcDbLine
 10
-33.9186503957
 20
42.8527907381
 30
0.0
 11
-33.9144000435
 21
42.8507906558
 31
0.0
  0
LINE
  5
2DA
100
AcDbEntity
  8
LAYER0
 62
         3
100
AcDbLine
 10
-33.9144000435
 20
42.8507906558
 30
0.0
 11
-33.9097947608
 21
42.8486098524
 31
0.0
  0
LINE
  5
2DB
100
AcDbEntity
  8
LAYER0
 62
         3
100
AcDbLine
 10
-33.9097947608
 20
42.8486098524
 30
0.0
 11
-33.9049528575
 21
42.8463085681
 31
0.0
  0
LINE
  5
2DC
100
AcDbEntity
  8
LAYER0
 62
         3
100
AcDbLine
 10
-33.9049528575
 20
42.8463085681
 30
0.0
 11
-33.8999926441
 21
42.8439470434
 31
0.0
  0
ENDBLK
  5
2DD
100
AcDbEntity
  8
0
100
AcDbBlockEnd
  0
BLOCK
  5
2E1
100
AcDbEntity
  8
0
100
AcDbBlockBegin
  2
CLUMP68
 70
         0
 10
0.0
 20
0.0
 30
0.0
  3

  1

  0
INSERT
  5
2E3
100
AcDbEntity
  8
0
100
AcDbBlockReference
  2
CLUMP69
 10
0.0
 20
0.0
 30
0.0
  0
ENDBLK
  5
2F5
100
AcDbEntity
  8
0
100
AcDbBlockEnd
  0
BLOCK
  5
2E4
100
AcDbEntity
  8
0
100
AcDbBlockBegin
  2
CLUMP69
 70
         0
 10
0.0
 20
0.0
 30
0.0
  3

  1

  0
LINE
  5
2E5
100
AcDbEntity
  8
LAYER0
 62
         3
100
AcDbLine
 10
-25.8808894411
 20
42.8459847772
 30
0.0
 11
-25.8729117789
 21
42.8496773801
 31
0.0
  0
LINE
  5
2E6
100
AcDbEntity
  8
LAYER0
 62
         3
100
AcDbLine
 10
-25.8729117789
 20
42.8496773801
 30
0.0
 11
-25.8691570968
 21
42.8514161251
 31
0.0
  0
LINE
  5
2E7
100
AcDbEntity
  8
LAYER0
 62
         3
100
AcDbLine
 10
-25.8691570968
 20
42.8514161251
 30
0.0
 11
-25.8656833935
 21
42.8530258025
 31
0.0
  0
LINE
  5
2E8
100
AcDbEntity
  8
LAYER0
 62
         3
100
AcDbLine
 10
-25.8656833935
 20
42.8530258025
 30
0.0
 11
-25.8625843285
 21
42.8544633898
 31
0.0
  0
LINE
  5
2E9
100
AcDbEntity
  8
LAYER0
 62
         3
100
AcDbLine
 10
-25.8625843285
 20
42.8544633898
 30
0.0
 11
-25.8612045541
 21
42.8551042051
 31
0.0
  0
LINE
  5
2EA
100
AcDbEntity
  8
LAYER0
 62
         3
100
AcDbLine
 10
-25.8612045541
 20
42.8551042051
 30
0.0
 11
-25.8599535616
 21
42.8556858643
 31
0.0
  0
LINE
  5
2EB
100
AcDbEntity
  8
LAYER0
 62
         3
100
AcDbLine
 10
-25.8599535616
 20
42.8556858643
 30
0.0
 11
-25.8588430586
 21
42.8562029898
 31
0.0
  0
LINE
  5
2EC
100
AcDbEntity
  8
LAYER0
 62
         3
100
AcDbLine
 10
-25.8588430586
 20
42.8562029898
 30
0.0
 11
-25.8578847523
 21
42.8566502036
 31
0.0
  0
LINE
  5
2ED
100
AcDbEntity
  8
LAYER0
 62
         3
100
AcDbLine
 10
-25.8578847523
 20
42.8566502036
 30
0.0
 11
-25.8570903504
 21
42.8570221279
 31
0.0
  0
LINE
  5
2EE
100
AcDbEntity
  8
LAYER0
 62
         3
100
AcDbLine
 10
-25.8570903504
 20
42.8570221279
 30
0.0
 11
-25.8564715602
 21
42.857313385
 31
0.0
  0
LINE
  5
2EF
100
AcDbEntity
  8
LAYER0
 62
         3
100
AcDbLine
 10
-25.8564715602
 20
42.857313385
 30
0.0
 11
-25.8560715871
 21
42.8575033944
 31
0.0
  0
LINE
  5
2F0
100
AcDbEntity
  8
LAYER0
 62
         3
100
AcDbLine
 10
-25.8560715871
 20
42.8575033944
 30
0.0
 11
-25.8558030116
 21
42.8576330462
 31
0.0
  0
LINE
  5
2F1
100
AcDbEntity
  8
LAYER0
 62
         3
100
AcDbLine
 10
-25.8558030116
 20
42.8576330462
 30
0.0
 11
-25.8555849692
 21
42.8577457673
 31
0.0
  0
LINE
  5
2F2
100
AcDbEntity
  8
LAYER0
 62
         3
100
AcDbLine
 10
-25.8555849692
 20
42.8577457673
 30
0.0
 11
-25.8556672643
 21
42.8577205284
 31
0.0
  0
LINE
  5
2F3
100
AcDbEntity
  8
LAYER0
 62
         3
100
AcDbLine
 10
-25.8556672643
 20
42.8577205284
 30
0.0
 11
-25.8558997282
 21
42.8576263094
 31
0.0
  0
ENDBLK
  5
2F4
100
AcDbEntity
  8
0
100
AcDbBlockEnd
  0
BLOCK
  5
2F8
100
AcDbEntity
  8
0
100
AcDbBlockBegin
  2
CLUMP70
 70
         0
 10
0.0
 20
0.0
 30
0.0
  3

  1

  0
INSERT
  5
2FA
100
AcDbEntity
  8
0
100
AcDbBlockReference
  2
CLUMP71
 10
0.0
 20
0.0
 30
0.0
  0
ENDBLK
  5
30D
100
AcDbEntity
  8
0
100
AcDbBlockEnd
  0
BLOCK
  5
2FB
100
AcDbEntity
  8
0
100
AcDbBlockBegin
  2
CLUMP71
 70
         0
 10
0.0
 20
0.0
 30
0.0
  3

  1

  0
LINE
  5
2FC
100
AcDbEntity
  8
LAYER0
 62
         3
100
AcDbLine
 10
-33.8981942602
 20
42.8408885801
 30
0.0
 11
-33.8910418161
 21
42.8369550455
 31
0.0
  0
LINE
  5
2FD
100
AcDbEntity
  8
LAYER0
 62
         3
100
AcDbLine
 10
-33.8910418161
 20
42.8369550455
 30
0.0
 11
-33.883408583
 21
42.831955334
 31
0.0
  0
LINE
  5
2FE
100
AcDbEntity
  8
LAYER0
 62
         3
100
AcDbLine
 10
-33.883408583
 20
42.831955334
 30
0.0
 11
-33.8766021645
 21
42.8265053212
 31
0.0
  0
LINE
  5
2FF
100
AcDbEntity
  8
LAYER0
 62
         3
100
AcDbLine
 10
-33.8766021645
 20
42.8265053212
 30
0.0
 11
-33.8693426389
 21
42.8198348777
 31
0.0
  0
LINE
  5
300
100
AcDbEntity
  8
LAYER0
 62
         3
100
AcDbLine
 10
-33.8693426389
 20
42.8198348777
 30
0.0
 11
-33.861810188
 21
42.8121279268
 31
0.0
  0
LINE
  5
301
100
AcDbEntity
  8
LAYER0
 62
         3
100
AcDbLine
 10
-33.861810188
 20
42.8121279268
 30
0.0
 11
-33.8541849938
 21
42.8035683918
 31
0.0
  0
LINE
  5
302
100
AcDbEntity
  8
LAYER0
 62
         3
100
AcDbLine
 10
-33.8541849938
 20
42.8035683918
 30
0.0
 11
-33.8393771022
 21
42.7846272624
 31
0.0
  0
LINE
  5
303
100
AcDbEntity
  8
LAYER0
 62
         3
100
AcDbLine
 10
-33.8393771022
 20
42.7846272624
 30
0.0
 11
-33.8263604187
 21
42.7644828761
 31
0.0
  0
LINE
  5
304
100
AcDbEntity
  8
LAYER0
 62
         3
100
AcDbLine
 10
-33.8263604187
 20
42.7644828761
 30
0.0
 11
-33.8177377092
 21
42.7478109731
 31
0.0
  0
LINE
  5
305
100
AcDbEntity
  8
LAYER0
 62
         3
100
AcDbLine
 10
-33.8177377092
 20
42.7478109731
 30
0.0
 11
-33.8142417568
 21
42.7398748403
 31
0.0
  0
LINE
  5
306
100
AcDbEntity
  8
LAYER0
 62
         3
100
AcDbLine
 10
-33.8142417568
 20
42.7398748403
 30
0.0
 11
-33.8112720134
 21
42.7323809767
 31
0.0
  0
LINE
  5
307
100
AcDbEntity
  8
LAYER0
 62
         3
100
AcDbLine
 10
-33.8112720134
 20
42.7323809767
 30
0.0
 11
-33.8088154347
 21
42.7254611747
 31
0.0
  0
LINE
  5
308
100
AcDbEntity
  8
LAYER0
 62
         3
100
AcDbLine
 10
-33.8088154347
 20
42.7254611747
 30
0.0
 11
-33.8068589766
 21
42.7192472269
 31
0.0
  0
LINE
  5
309
100
AcDbEntity
  8
LAYER0
 62
         3
100
AcDbLine
 10
-33.8068589766
 20
42.7192472269
 30
0.0
 11
-33.8053895946
 21
42.7138709257
 31
0.0
  0
LINE
  5
30A
100
AcDbEntity
  8
LAYER0
 62
         3
100
AcDbLine
 10
-33.8053895946
 20
42.7138709257
 30
0.0
 11
-33.8043942445
 21
42.7094640637
 31
0.0
  0
LINE
  5
30B
100
AcDbEntity
  8
LAYER0
 62
         3
100
AcDbLine
 10
-33.8043942445
 20
42.7094640637
 30
0.0
 11
-33.80374325
 21
42.705656817
 31
0.0
  0
ENDBLK
  5
30C
100
AcDbEntity
  8
0
100
AcDbBlockEnd
  0
BLOCK
  5
315
100
AcDbEntity
  8
0
100
AcDbBlockBegin
  2
CLUMP72
 70
         0
 10
0.0
 20
0.0
 30
0.0
  3

  1

  0
INSERT
  5
317
100
AcDbEntity
  8
0
100
AcDbBlockReference
  2
CLUMP73
 10
0.0
 20
0.0
 30
0.0
  0
ENDBLK
  5
341
100
AcDbEntity
  8
0
100
AcDbBlockEnd
  0
BLOCK
  5
318
100
AcDbEntity
  8
0
100
AcDbBlockBegin
  2
CLUMP73
 70
         0
 10
0.0
 20
0.0
 30
0.0
  3

  1

  0
LINE
  5
319
100
AcDbEntity
  8
LAYER0
 62
         3
100
AcDbLine
 10
17.666109993
 20
0.8872015096
 30
0.0
 11
17.6494705774
 21
1.0408628663
 31
0.0
  0
LINE
  5
31A
100
AcDbEntity
  8
LAYER0
 62
         3
100
AcDbLine
 10
17.6494705774
 20
1.0408628663
 30
0.0
 11
17.6086120367
 21
1.1921010542
 31
0.0
  0
LINE
  5
31B
100
AcDbEntity
  8
LAYER0
 62
         3
100
AcDbLine
 10
17.6086120367
 20
1.1921010542
 30
0.0
 11
17.5449864291
 21
1.3344623079
 31
0.0
  0
LINE
  5
31C
100
AcDbEntity
  8
LAYER0
 62
         3
100
AcDbLine
 10
17.5449864291
 20
1.3344623079
 30
0.0
 11
17.4527403485
 21
1.4745606411
 31
0.0
  0
LINE
  5
31D
100
AcDbEntity
  8
LAYER0
 62
         3
100
AcDbLine
 10
17.4527403485
 20
1.4745606411
 30
0.0
 11
17.3379878797
 21
1.5976033104
 31
0.0
  0
LINE
  5
31E
100
AcDbEntity
  8
LAYER0
 62
         3
100
AcDbLine
 10
17.3379878797
 20
1.5976033104
 30
0.0
 11
17.2004892029
 21
1.7019830109
 31
0.0
  0
LINE
  5
31F
100
AcDbEntity
  8
LAYER0
 62
         3
100
AcDbLine
 10
17.2004892029
 20
1.7019830109
 30
0.0
 11
17.0461272173
 21
1.7816699041
 31
0.0
  0
LINE
  5
320
100
AcDbEntity
  8
LAYER0
 62
         3
100
AcDbLine
 10
17.0461272173
 20
1.7816699041
 30
0.0
 11
16.889612184
 21
1.8312297448
 31
0.0
  0
LINE
  5
321
100
AcDbEntity
  8
LAYER0
 62
         3
100
AcDbLine
 10
16.889612184
 20
1.8312297448
 30
0.0
 11
16.7270812489
 21
1.8546534633
 31
0.0
  0
LINE
  5
322
100
AcDbEntity
  8
LAYER0
 62
         3
100
AcDbLine
 10
16.7270812489
 20
1.8546534633
 30
0.0
 11
16.5708099924
 21
1.8518535501
 31
0.0
  0
LINE
  5
323
100
AcDbEntity
  8
LAYER0
 62
         3
100
AcDbLine
 10
16.5708099924
 20
1.8518535501
 30
0.0
 11
16.4177275546
 21
1.8250150537
 31
0.0
  0
LINE
  5
324
100
AcDbEntity
  8
LAYER0
 62
         3
100
AcDbLine
 10
16.4177275546
 20
1.8250150537
 30
0.0
 11
16.267210442
 21
1.7732483264
 31
0.0
  0
LINE
  5
325
100
AcDbEntity
  8
LAYER0
 62
         3
100
AcDbLine
 10
16.267210442
 20
1.7732483264
 30
0.0
 11
16.1273388476
 21
1.6986112972
 31
0.0
  0
LINE
  5
326
100
AcDbEntity
  8
LAYER0
 62
         3
100
AcDbLine
 10
16.1273388476
 20
1.6986112972
 30
0.0
 11
15.9933109157
 21
1.5958671927
 31
0.0
  0
LINE
  5
327
100
AcDbEntity
  8
LAYER0
 62
         3
100
AcDbLine
 10
15.9933109157
 20
1.5958671927
 30
0.0
 11
15.8780973688
 21
1.4714943176
 31
0.0
  0
LINE
  5
328
100
AcDbEntity
  8
LAYER0
 62
         3
100
AcDbLine
 10
15.8780973688
 20
1.4714943176
 30
0.0
 11
15.7842586871
 21
1.3269211449
 31
0.0
  0
LINE
  5
329
100
AcDbEntity
  8
LAYER0
 62
         3
100
AcDbLine
 10
15.7842586871
 20
1.3269211449
 30
0.0
 11
15.7161878705
 21
1.1674282072
 31
0.0
  0
LINE
  5
32A
100
AcDbEntity
  8
LAYER0
 62
         3
100
AcDbLine
 10
15.7161878705
 20
1.1674282072
 30
0.0
 11
15.6786043759
 21
1.0103822218
 31
0.0
  0
LINE
  5
32B
100
AcDbEntity
  8
LAYER0
 62
         3
100
AcDbLine
 10
15.6786043759
 20
1.0103822218
 30
0.0
 11
15.6666391813
 21
0.8496120503
 31
0.0
  0
LINE
  5
32C
100
AcDbEntity
  8
LAYER0
 62
         3
100
AcDbLine
 10
15.6666391813
 20
0.8496120503
 30
0.0
 11
15.6795665527
 21
0.6961434939
 31
0.0
  0
LINE
  5
32D
100
AcDbEntity
  8
LAYER0
 62
         3
100
AcDbLine
 10
15.6795665527
 20
0.6961434939
 30
0.0
 11
15.7155848392
 21
0.5473871646
 31
0.0
  0
LINE
  5
32E
100
AcDbEntity
  8
LAYER0
 62
         3
100
AcDbLine
 10
15.7155848392
 20
0.5473871646
 30
0.0
 11
15.7774827551
 21
0.3988181371
 31
0.0
  0
LINE
  5
32F
100
AcDbEntity
  8
LAYER0
 62
         3
100
AcDbLine
 10
15.7774827551
 20
0.3988181371
 30
0.0
 11
15.8622253038
 21
0.262381502
 31
0.0
  0
LINE
  5
330
100
AcDbEntity
  8
LAYER0
 62
         3
100
AcDbLine
 10
15.8622253038
 20
0.262381502
 30
0.0
 11
15.9755095692
 21
0.1338059078
 31
0.0
  0
LINE
  5
331
100
AcDbEntity
  8
LAYER0
 62
         3
100
AcDbLine
 10
15.9755095692
 20
0.1338059078
 30
0.0
 11
16.1099850484
 21
0.0257226569
 31
0.0
  0
LINE
  5
332
100
AcDbEntity
  8
LAYER0
 62
         3
100
AcDbLine
 10
16.1099850484
 20
0.0257226569
 30
0.0
 11
16.2591341739
 21
-0.0569509643
 31
0.0
  0
LINE
  5
333
100
AcDbEntity
  8
LAYER0
 62
         3
100
AcDbLine
 10
16.2591341739
 20
-0.0569509643
 30
0.0
 11
16.4204749562
 21
-0.1127510401
 31
0.0
  0
LINE
  5
334
100
AcDbEntity
  8
LAYER0
 62
         3
100
AcDbLine
 10
16.4204749562
 20
-0.1127510401
 30
0.0
 11
16.4620594405
 21
-0.1223716023
 31
0.0
  0
LINE
  5
335
100
AcDbEntity
  8
LAYER0
 62
         3
100
AcDbLine
 10
16.4620594405
 20
-0.1223716023
 30
0.0
 11
16.6231135814
 21
-0.1377175833
 31
0.0
  0
LINE
  5
336
100
AcDbEntity
  8
LAYER0
 62
         3
100
AcDbLine
 10
16.6231135814
 20
-0.1377175833
 30
0.0
 11
16.7827533841
 21
-0.1367502915
 31
0.0
  0
LINE
  5
337
100
AcDbEntity
  8
LAYER0
 62
         3
100
AcDbLine
 10
16.7827533841
 20
-0.1367502915
 30
0.0
 11
16.9388112014
 21
-0.1069438811
 31
0.0
  0
LINE
  5
338
100
AcDbEntity
  8
LAYER0
 62
         3
100
AcDbLine
 10
16.9388112014
 20
-0.1069438811
 30
0.0
 11
17.0876381271
 21
-0.0505670975
 31
0.0
  0
LINE
  5
339
100
AcDbEntity
  8
LAYER0
 62
         3
100
AcDbLine
 10
17.0876381271
 20
-0.0505670975
 30
0.0
 11
17.2307732447
 21
0.0311147824
 31
0.0
  0
LINE
  5
33A
100
AcDbEntity
  8
LAYER0
 62
         3
100
AcDbLine
 10
17.2307732447
 20
0.0311147824
 30
0.0
 11
17.3585137636
 21
0.1344880951
 31
0.0
  0
LINE
  5
33B
100
AcDbEntity
  8
LAYER0
 62
         3
100
AcDbLine
 10
17.3585137636
 20
0.1344880951
 30
0.0
 11
17.472378333
 21
0.2642097868
 31
0.0
  0
LINE
  5
33C
100
AcDbEntity
  8
LAYER0
 62
         3
100
AcDbLine
 10
17.472378333
 20
0.2642097868
 30
0.0
 11
17.5628077522
 21
0.4128171062
 31
0.0
  0
LINE
  5
33D
100
AcDbEntity
  8
LAYER0
 62
         3
100
AcDbLine
 10
17.5628077522
 20
0.4128171062
 30
0.0
 11
17.6240780719
 21
0.5682569679
 31
0.0
  0
LINE
  5
33E
100
AcDbEntity
  8
LAYER0
 62
         3
100
AcDbLine
 10
17.6240780719
 20
0.5682569679
 30
0.0
 11
17.6588350259
 21
0.7319813525
 31
0.0
  0
LINE
  5
33F
100
AcDbEntity
  8
LAYER0
 62
         3
100
AcDbLine
 10
17.6588350259
 20
0.7319813525
 30
0.0
 11
17.666109993
 21
0.8872015096
 31
0.0
  0
ENDBLK
  5
340
100
AcDbEntity
  8
0
100
AcDbBlockEnd
  0
BLOCK
  5
344
100
AcDbEntity
  8
0
100
AcDbBlockBegin
  2
CLUMP74
 70
         0
 10
0.0
 20
0.0
 30
0.0
  3

  1

  0
INSERT
  5
346
100
AcDbEntity
  8
0
100
AcDbBlockReference
  2
CLUMP75
 10
0.0
 20
0.0
 30
0.0
  0
ENDBLK
  5
357
100
AcDbEntity
  8
0
100
AcDbBlockEnd
  0
BLOCK
  5
347
100
AcDbEntity
  8
0
100
AcDbBlockBegin
  2
CLUMP75
 70
         0
 10
0.0
 20
0.0
 30
0.0
  3

  1

  0
LINE
  5
348
100
AcDbEntity
  8
LAYER0
 62
         3
100
AcDbLine
 10
14.972126326
 20
3.3321049926
 30
0.0
 11
15.236547897
 21
3.4936987726
 31
0.0
  0
LINE
  5
349
100
AcDbEntity
  8
LAYER0
 62
         3
100
AcDbLine
 10
15.236547897
 20
3.4936987726
 30
0.0
 11
15.5871400893
 21
3.6553167669
 31
0.0
  0
LINE
  5
34A
100
AcDbEntity
  8
LAYER0
 62
         3
100
AcDbLine
 10
15.5871400893
 20
3.6553167669
 30
0.0
 11
15.9926239685
 21
3.7797917543
 31
0.0
  0
LINE
  5
34B
100
AcDbEntity
  8
LAYER0
 62
         3
100
AcDbLine
 10
15.9926239685
 20
3.7797917543
 30
0.0
 11
16.3243969255
 21
3.8367346791
 31
0.0
  0
LINE
  5
34C
100
AcDbEntity
  8
LAYER0
 62
         3
100
AcDbLine
 10
16.3243969255
 20
3.8367346791
 30
0.0
 11
16.6764498972
 21
3.8564666105
 31
0.0
  0
LINE
  5
34D
100
AcDbEntity
  8
LAYER0
 62
         3
100
AcDbLine
 10
16.6764498972
 20
3.8564666105
 30
0.0
 11
16.9778260401
 21
3.8402078459
 31
0.0
  0
LINE
  5
34E
100
AcDbEntity
  8
LAYER0
 62
         3
100
AcDbLine
 10
16.9778260401
 20
3.8402078459
 30
0.0
 11
17.2802849956
 21
3.7930472685
 31
0.0
  0
LINE
  5
34F
100
AcDbEntity
  8
LAYER0
 62
         3
100
AcDbLine
 10
17.2802849956
 20
3.7930472685
 30
0.0
 11
17.6227453448
 21
3.699770656
 31
0.0
  0
LINE
  5
350
100
AcDbEntity
  8
LAYER0
 62
         3
100
AcDbLine
 10
17.6227453448
 20
3.699770656
 30
0.0
 11
17.9459892497
 21
3.5700057564
 31
0.0
  0
LINE
  5
351
100
AcDbEntity
  8
LAYER0
 62
         3
100
AcDbLine
 10
17.9459892497
 20
3.5700057564
 30
0.0
 11
18.2396231404
 21
3.4109966112
 31
0.0
  0
LINE
  5
352
100
AcDbEntity
  8
LAYER0
 62
         3
100
AcDbLine
 10
18.2396231404
 20
3.4109966112
 30
0.0
 11
18.5016717114
 21
3.2297861693
 31
0.0
  0
LINE
  5
353
100
AcDbEntity
  8
LAYER0
 62
         3
100
AcDbLine
 10
18.5016717114
 20
3.2297861693
 30
0.0
 11
18.8059164029
 21
2.9594111187
 31
0.0
  0
LINE
  5
354
100
AcDbEntity
  8
LAYER0
 62
         3
100
AcDbLine
 10
18.8059164029
 20
2.9594111187
 30
0.0
 11
19.0491142966
 21
2.6795845409
 31
0.0
  0
LINE
  5
355
100
AcDbEntity
  8
LAYER0
 62
         3
100
AcDbLine
 10
19.0491142966
 20
2.6795845409
 30
0.0
 11
19.2106917784
 21
2.4463501689
 31
0.0
  0
ENDBLK
  5
356
100
AcDbEntity
  8
0
100
AcDbBlockEnd
  0
BLOCK
  5
36C
100
AcDbEntity
  8
0
100
AcDbBlockBegin
  2
CLUMP76
 70
         0
 10
0.0
 20
0.0
 30
0.0
  3

  1

  0
INSERT
  5
36E
100
AcDbEntity
  8
0
100
AcDbBlockReference
  2
CLUMP77
 10
0.0
 20
0.0
 30
0.0
  0
ENDBLK
  5
375
100
AcDbEntity
  8
0
100
AcDbBlockEnd
  0
BLOCK
  5
36F
100
AcDbEntity
  8
0
100
AcDbBlockBegin
  2
CLUMP77
 70
         0
 10
0.0
 20
0.0
 30
0.0
  3

  1

  0
LINE
  5
370
100
AcDbEntity
  8
LAYER0
 62
         3
100
AcDbLine
 10
29.8197550983
 20
42.8892378626
 30
0.0
 11
29.878870333
 21
42.9067392764
 31
0.0
  0
LINE
  5
371
100
AcDbEntity
  8
LAYER0
 62
         3
100
AcDbLine
 10
29.878870333
 20
42.9067392764
 30
0.0
 11
29.9251080523
 21
42.9233459366
 31
0.0
  0
LINE
  5
372
100
AcDbEntity
  8
LAYER0
 62
         3
100
AcDbLine
 10
29.9251080523
 20
42.9233459366
 30
0.0
 11
29.9710981079
 21
42.9423607849
 31
0.0
  0
LINE
  5
373
100
AcDbEntity
  8
LAYER0
 62
         3
100
AcDbLine
 10
29.9710981079
 20
42.9423607849
 30
0.0
 11
30.0626654461
 21
42.9844041286
 31
0.0
  0
ENDBLK
  5
374
100
AcDbEntity
  8
0
100
AcDbBlockEnd
  0
BLOCK
  5
378
100
AcDbEntity
  8
0
100
AcDbBlockBegin
  2
CLUMP78
 70
         0
 10
0.0
 20
0.0
 30
0.0
  3

  1

  0
INSERT
  5
37A
100
AcDbEntity
  8
0
100
AcDbBlockReference
  2
CLUMP79
 10
0.0
 20
0.0
 30
0.0
  0
ENDBLK
  5
37F
100
AcDbEntity
  8
0
100
AcDbBlockEnd
  0
BLOCK
  5
37B
100
AcDbEntity
  8
0
100
AcDbBlockBegin
  2
CLUMP79
 70
         0
 10
0.0
 20
0.0
 30
0.0
  3

  1

  0
LINE
  5
37C
100
AcDbEntity
  8
LAYER0
 62
         3
100
AcDbLine
 10
29.4171966343
 20
42.8564830089
 30
0.0
 11
29.5332912524
 21
42.8576074366
 31
0.0
  0
LINE
  5
37D
100
AcDbEntity
  8
LAYER0
 62
         3
100
AcDbLine
 10
29.5332912524
 20
42.8576074366
 30
0.0
 11
29.4171966343
 21
42.8564830089
 31
0.0
  0
ENDBLK
  5
37E
100
AcDbEntity
  8
0
100
AcDbBlockEnd
  0
BLOCK
  5
382
100
AcDbEntity
  8
0
100
AcDbBlockBegin
  2
CLUMP80
 70
         0
 10
0.0
 20
0.0
 30
0.0
  3

  1

  0
INSERT
  5
384
100
AcDbEntity
  8
0
100
AcDbBlockReference
  2
CLUMP81
 10
0.0
 20
0.0
 30
0.0
  0
ENDBLK
  5
389
100
AcDbEntity
  8
0
100
AcDbBlockEnd
  0
BLOCK
  5
385
100
AcDbEntity
  8
0
100
AcDbBlockBegin
  2
CLUMP81
 70
         0
 10
0.0
 20
0.0
 30
0.0
  3

  1

  0
LINE
  5
386
100
AcDbEntity
  8
LAYER0
 62
         3
100
AcDbLine
 10
29.6671966343
 20
42.3564830089
 30
0.0
 11
29.7832912524
 21
42.3587318643
 31
0.0
  0
LINE
  5
387
100
AcDbEntity
  8
LAYER0
 62
         3
100
AcDbLine
 10
29.7832912524
 20
42.3587318643
 30
0.0
 11
29.6671966343
 21
42.3564830089
 31
0.0
  0
ENDBLK
  5
388
100
AcDbEntity
  8
0
100
AcDbBlockEnd
  0
BLOCK
  5
38C
100
AcDbEntity
  8
0
100
AcDbBlockBegin
  2
CLUMP82
 70
         0
 10
0.0
 20
0.0
 30
0.0
  3

  1

  0
INSERT
  5
38E
100
AcDbEntity
  8
0
100
AcDbBlockReference
  2
CLUMP83
 10
0.0
 20
0.0
 30
0.0
  0
ENDBLK
  5
3A2
100
AcDbEntity
  8
0
100
AcDbBlockEnd
  0
BLOCK
  5
38F
100
AcDbEntity
  8
0
100
AcDbBlockBegin
  2
CLUMP83
 70
         0
 10
0.0
 20
0.0
 30
0.0
  3

  1

  0
LINE
  5
390
100
AcDbEntity
  8
LAYER0
 62
         3
100
AcDbLine
 10
-32.1835108216
 20
1.0614476277
 30
0.0
 11
-32.1912895008
 21
1.2144348491
 31
0.0
  0
LINE
  5
391
100
AcDbEntity
  8
LAYER0
 62
         3
100
AcDbLine
 10
-32.1912895008
 20
1.2144348491
 30
0.0
 11
-32.1970793681
 21
1.288581365
 31
0.0
  0
LINE
  5
392
100
AcDbEntity
  8
LAYER0
 62
         3
100
AcDbLine
 10
-32.1970793681
 20
1.288581365
 30
0.0
 11
-32.2051498688
 21
1.3599113672
 31
0.0
  0
LINE
  5
393
100
AcDbEntity
  8
LAYER0
 62
         3
100
AcDbLine
 10
-32.2051498688
 20
1.3599113672
 30
0.0
 11
-32.2159905678
 21
1.4274450809
 31
0.0
  0
LINE
  5
394
100
AcDbEntity
  8
LAYER0
 62
         3
100
AcDbLine
 10
-32.2159905678
 20
1.4274450809
 30
0.0
 11
-32.2291490859
 21
1.4908604433
 31
0.0
  0
LINE
  5
395
100
AcDbEntity
  8
LAYER0
 62
         3
100
AcDbLine
 10
-32.2291490859
 20
1.4908604433
 30
0.0
 11
-32.243914793
 21
1.5497791476
 31
0.0
  0
LINE
  5
396
100
AcDbEntity
  8
LAYER0
 62
         3
100
AcDbLine
 10
-32.243914793
 20
1.5497791476
 30
0.0
 11
-32.2595770585
 21
1.6038228868
 31
0.0
  0
LINE
  5
397
100
AcDbEntity
  8
LAYER0
 62
         3
100
AcDbLine
 10
-32.2595770585
 20
1.6038228868
 30
0.0
 11
-32.2763639838
 21
1.6551480617
 31
0.0
  0
LINE
  5
398
100
AcDbEntity
  8
LAYER0
 62
         3
100
AcDbLine
 10
-32.2763639838
 20
1.6551480617
 30
0.0
 11
-32.2932824525
 21
1.7011573281
 31
0.0
  0
LINE
  5
399
100
AcDbEntity
  8
LAYER0
 62
         3
100
AcDbLine
 10
-32.2932824525
 20
1.7011573281
 30
0.0
 11
-32.3102583065
 21
1.7423467391
 31
0.0
  0
LINE
  5
39A
100
AcDbEntity
  8
LAYER0
 62
         3
100
AcDbLine
 10
-32.3102583065
 20
1.7423467391
 30
0.0
 11
-32.3272173873
 21
1.779212348
 31
0.0
  0
LINE
  5
39B
100
AcDbEntity
  8
LAYER0
 62
         3
100
AcDbLine
 10
-32.3272173873
 20
1.779212348
 30
0.0
 11
-32.3444795286
 21
1.8128079011
 31
0.0
  0
LINE
  5
39C
100
AcDbEntity
  8
LAYER0
 62
         3
100
AcDbLine
 10
-32.3444795286
 20
1.8128079011
 30
0.0
 11
-32.3600235239
 21
1.8389231339
 31
0.0
  0
LINE
  5
39D
100
AcDbEntity
  8
LAYER0
 62
         3
100
AcDbLine
 10
-32.3600235239
 20
1.8389231339
 30
0.0
 11
-32.372229335
 21
1.8542075657
 31
0.0
  0
LINE
  5
39E
100
AcDbEntity
  8
LAYER0
 62
         3
100
AcDbLine
 10
-32.372229335
 20
1.8542075657
 30
0.0
 11
-32.3765741596
 21
1.8567412059
 31
0.0
  0
LINE
  5
39F
100
AcDbEntity
  8
LAYER0
 62
         3
100
AcDbLine
 10
-32.3765741596
 20
1.8567412059
 30
0.0
 11
-32.3794769238
 21
1.8553107156
 31
0.0
  0
LINE
  5
3A0
100
AcDbEntity
  8
LAYER0
 62
         3
100
AcDbLine
 10
-32.3794769238
 20
1.8553107156
 30
0.0
 11
-32.3811379376
 21
1.8496454804
 31
0.0
  0
ENDBLK
  5
3A1
100
AcDbEntity
  8
0
100
AcDbBlockEnd
  0
BLOCK
  5
3A5
100
AcDbEntity
  8
0
100
AcDbBlockBegin
  2
CLUMP84
 70
         0
 10
0.0
 20
0.0
 30
0.0
  3

  1

  0
INSERT
  5
3A7
100
AcDbEntity
  8
0
100
AcDbBlockReference
  2
CLUMP85
 10
0.0
 20
0.0
 30
0.0
  0
ENDBLK
  5
3B5
100
AcDbEntity
  8
0
100
AcDbBlockEnd
  0
BLOCK
  5
3A8
100
AcDbEntity
  8
0
100
AcDbBlockBegin
  2
CLUMP85
 70
         0
 10
0.0
 20
0.0
 30
0.0
  3

  1

  0
LINE
  5
3A9
100
AcDbEntity
  8
LAYER0
 62
         3
100
AcDbLine
 10
-32.39098225
 20
1.8160713016
 30
0.0
 11
-32.3792893058
 21
1.7556962401
 31
0.0
  0
LINE
  5
3AA
100
AcDbEntity
  8
LAYER0
 62
         3
100
AcDbLine
 10
-32.3792893058
 20
1.7556962401
 30
0.0
 11
-32.3719322449
 21
1.7214465298
 31
0.0
  0
LINE
  5
3AB
100
AcDbEntity
  8
LAYER0
 62
         3
100
AcDbLine
 10
-32.3719322449
 20
1.7214465298
 30
0.0
 11
-32.3627624775
 21
1.682322204
 31
0.0
  0
LINE
  5
3AC
100
AcDbEntity
  8
LAYER0
 62
         3
100
AcDbLine
 10
-32.3627624775
 20
1.682322204
 30
0.0
 11
-32.3511585914
 21
1.6363554716
 31
0.0
  0
LINE
  5
3AD
100
AcDbEntity
  8
LAYER0
 62
         3
100
AcDbLine
 10
-32.3511585914
 20
1.6363554716
 30
0.0
 11
-32.3375457117
 21
1.5845614326
 31
0.0
  0
LINE
  5
3AE
100
AcDbEntity
  8
LAYER0
 62
         3
100
AcDbLine
 10
-32.3375457117
 20
1.5845614326
 30
0.0
 11
-32.3224078709
 21
1.5278168689
 31
0.0
  0
LINE
  5
3AF
100
AcDbEntity
  8
LAYER0
 62
         3
100
AcDbLine
 10
-32.3224078709
 20
1.5278168689
 30
0.0
 11
-32.3062291018
 21
1.4669985621
 31
0.0
  0
LINE
  5
3B0
100
AcDbEntity
  8
LAYER0
 62
         3
100
AcDbLine
 10
-32.3062291018
 20
1.4669985621
 30
0.0
 11
-32.2706781032
 21
1.3266344386
 31
0.0
  0
LINE
  5
3B1
100
AcDbEntity
  8
LAYER0
 62
         3
100
AcDbLine
 10
-32.2706781032
 20
1.3266344386
 30
0.0
 11
-32.2383827179
 21
1.1732454522
 31
0.0
  0
LINE
  5
3B2
100
AcDbEntity
  8
LAYER0
 62
         3
100
AcDbLine
 10
-32.2383827179
 20
1.1732454522
 30
0.0
 11
-32.2153636613
 21
1.0243194359
 31
0.0
  0
LINE
  5
3B3
100
AcDbEntity
  8
LAYER0
 62
         3
100
AcDbLine
 10
-32.2153636613
 20
1.0243194359
 30
0.0
 11
-32.1960829779
 21
0.8706280141
 31
0.0
  0
ENDBLK
  5
3B4
100
AcDbEntity
  8
0
100
AcDbBlockEnd
  0
BLOCK
  5
3B8
100
AcDbEntity
  8
0
100
AcDbBlockBegin
  2
CLUMP86
 70
         0
 10
0.0
 20
0.0
 30
0.0
  3

  1

  0
INSERT
  5
3BA
100
AcDbEntity
  8
0
100
AcDbBlockReference
  2
CLUMP87
 10
0.0
 20
0.0
 30
0.0
  0
ENDBLK
  5
3CA
100
AcDbEntity
  8
0
100
AcDbBlockEnd
  0
BLOCK
  5
3BB
100
AcDbEntity
  8
0
100
AcDbBlockBegin
  2
CLUMP87
 70
         0
 10
0.0
 20
0.0
 30
0.0
  3

  1

  0
LINE
  5
3BC
100
AcDbEntity
  8
LAYER0
 62
         3
100
AcDbLine
 10
-32.387510978
 20
-0.1106916816
 30
0.0
 11
-32.3871170602
 21
-0.0880976057
 31
0.0
  0
LINE
  5
3BD
100
AcDbEntity
  8
LAYER0
 62
         3
100
AcDbLine
 10
-32.3871170602
 20
-0.0880976057
 30
0.0
 11
-32.383382425
 21
-0.057393022
 31
0.0
  0
LINE
  5
3BE
100
AcDbEntity
  8
LAYER0
 62
         3
100
AcDbLine
 10
-32.383382425
 20
-0.057393022
 30
0.0
 11
-32.3768066911
 21
-0.0252979722
 31
0.0
  0
LINE
  5
3BF
100
AcDbEntity
  8
LAYER0
 62
         3
100
AcDbLine
 10
-32.3768066911
 20
-0.0252979722
 30
0.0
 11
-32.3672290931
 21
0.0143730258
 31
0.0
  0
LINE
  5
3C0
100
AcDbEntity
  8
LAYER0
 62
         3
100
AcDbLine
 10
-32.3672290931
 20
0.0143730258
 30
0.0
 11
-32.3553389084
 21
0.0602346613
 31
0.0
  0
LINE
  5
3C1
100
AcDbEntity
  8
LAYER0
 62
         3
100
AcDbLine
 10
-32.3553389084
 20
0.0602346613
 30
0.0
 11
-32.3418254147
 21
0.1109016238
 31
0.0
  0
LINE
  5
3C2
100
AcDbEntity
  8
LAYER0
 62
         3
100
AcDbLine
 10
-32.3418254147
 20
0.1109016238
 30
0.0
 11
-32.3107103275
 21
0.2282006872
 31
0.0
  0
LINE
  5
3C3
100
AcDbEntity
  8
LAYER0
 62
         3
100
AcDbLine
 10
-32.3107103275
 20
0.2282006872
 30
0.0
 11
-32.2777490246
 21
0.3599810524
 31
0.0
  0
LINE
  5
3C4
100
AcDbEntity
  8
LAYER0
 62
         3
100
AcDbLine
 10
-32.2777490246
 20
0.3599810524
 30
0.0
 11
-32.2434798155
 21
0.5145784066
 31
0.0
  0
LINE
  5
3C5
100
AcDbEntity
  8
LAYER0
 62
         3
100
AcDbLine
 10
-32.2434798155
 20
0.5145784066
 30
0.0
 11
-32.2138323563
 21
0.6805217935
 31
0.0
  0
LINE
  5
3C6
100
AcDbEntity
  8
LAYER0
 62
         3
100
AcDbLine
 10
-32.2138323563
 20
0.6805217935
 30
0.0
 11
-32.1943014785
 21
0.8371853787
 31
0.0
  0
LINE
  5
3C7
100
AcDbEntity
  8
LAYER0
 62
         3
100
AcDbLine
 10
-32.1943014785
 20
0.8371853787
 30
0.0
 11
-32.1845171156
 21
0.9945060237
 31
0.0
  0
LINE
  5
3C8
100
AcDbEntity
  8
LAYER0
 62
         3
100
AcDbLine
 10
-32.1845171156
 20
0.9945060237
 30
0.0
 11
-32.1835108216
 21
1.0614476277
 31
0.0
  0
ENDBLK
  5
3C9
100
AcDbEntity
  8
0
100
AcDbBlockEnd
  0
BLOCK
  5
3CD
100
AcDbEntity
  8
0
100
AcDbBlockBegin
  2
CLUMP88
 70
         0
 10
0.0
 20
0.0
 30
0.0
  3

  1

  0
INSERT
  5
3CF
100
AcDbEntity
  8
0
100
AcDbBlockReference
  2
CLUMP89
 10
0.0
 20
0.0
 30
0.0
  0
ENDBLK
  5
3DF
100
AcDbEntity
  8
0
100
AcDbBlockEnd
  0
BLOCK
  5
3D0
100
AcDbEntity
  8
0
100
AcDbBlockBegin
  2
CLUMP89
 70
         0
 10
0.0
 20
0.0
 30
0.0
  3

  1

  0
LINE
  5
3D1
100
AcDbEntity
  8
LAYER0
 62
         3
100
AcDbLine
 10
-27.5892681557
 20
0.8365285693
 30
0.0
 11
-27.5693874455
 21
1.0404556169
 31
0.0
  0
LINE
  5
3D2
100
AcDbEntity
  8
LAYER0
 62
         3
100
AcDbLine
 10
-27.5693874455
 20
1.0404556169
 30
0.0
 11
-27.5433418533
 21
1.1918783868
 31
0.0
  0
LINE
  5
3D3
100
AcDbEntity
  8
LAYER0
 62
         3
100
AcDbLine
 10
-27.5433418533
 20
1.1918783868
 30
0.0
 11
-27.5111897963
 21
1.3340978994
 31
0.0
  0
LINE
  5
3D4
100
AcDbEntity
  8
LAYER0
 62
         3
100
AcDbLine
 10
-27.5111897963
 20
1.3340978994
 30
0.0
 11
-27.4762110939
 21
1.4738325727
 31
0.0
  0
LINE
  5
3D5
100
AcDbEntity
  8
LAYER0
 62
         3
100
AcDbLine
 10
-27.4762110939
 20
1.4738325727
 30
0.0
 11
-27.4595787451
 21
1.5377388106
 31
0.0
  0
LINE
  5
3D6
100
AcDbEntity
  8
LAYER0
 62
         3
100
AcDbLine
 10
-27.4595787451
 20
1.5377388106
 30
0.0
 11
-27.4438779916
 21
1.5973250492
 31
0.0
  0
LINE
  5
3D7
100
AcDbEntity
  8
LAYER0
 62
         3
100
AcDbLine
 10
-27.4438779916
 20
1.5973250492
 30
0.0
 11
-27.429175109
 21
1.6531954939
 31
0.0
  0
LINE
  5
3D8
100
AcDbEntity
  8
LAYER0
 62
         3
100
AcDbLine
 10
-27.429175109
 20
1.6531954939
 30
0.0
 11
-27.4163520729
 21
1.7032346992
 31
0.0
  0
LINE
  5
3D9
100
AcDbEntity
  8
LAYER0
 62
         3
100
AcDbLine
 10
-27.4163520729
 20
1.7032346992
 30
0.0
 11
-27.4060409209
 21
1.7463662288
 31
0.0
  0
LINE
  5
3DA
100
AcDbEntity
  8
LAYER0
 62
         3
100
AcDbLine
 10
-27.4060409209
 20
1.7463662288
 30
0.0
 11
-27.3988736908
 21
1.7815136461
 31
0.0
  0
LINE
  5
3DB
100
AcDbEntity
  8
LAYER0
 62
         3
100
AcDbLine
 10
-27.3988736908
 20
1.7815136461
 30
0.0
 11
-27.3953401606
 21
1.8068061596
 31
0.0
  0
LINE
  5
3DC
100
AcDbEntity
  8
LAYER0
 62
         3
100
AcDbLine
 10
-27.3953401606
 20
1.8068061596
 30
0.0
 11
-27.3943120005
 21
1.826086949
 31
0.0
  0
LINE
  5
3DD
100
AcDbEntity
  8
LAYER0
 62
         3
100
AcDbLine
 10
-27.3943120005
 20
1.826086949
 30
0.0
 11
-27.3964312973
 21
1.8546289875
 31
0.0
  0
ENDBLK
  5
3DE
100
AcDbEntity
  8
0
100
AcDbBlockEnd
  0
BLOCK
  5
3F4
100
AcDbEntity
  8
0
100
AcDbBlockBegin
  2
CLUMP90
 70
         0
 10
0.0
 20
0.0
 30
0.0
  3

  1

  0
INSERT
  5
3F6
100
AcDbEntity
  8
0
100
AcDbBlockReference
  2
CLUMP91
 10
0.0
 20
0.0
 30
0.0
  0
ENDBLK
  5
40A
100
AcDbEntity
  8
0
100
AcDbBlockEnd
  0
BLOCK
  5
3F7
100
AcDbEntity
  8
0
100
AcDbBlockBegin
  2
CLUMP91
 70
         0
 10
0.0
 20
0.0
 30
0.0
  3

  1

  0
LINE
  5
3F8
100
AcDbEntity
  8
LAYER0
 62
         3
100
AcDbLine
 10
-25.979841999
 20
42.7080931568
 30
0.0
 11
-25.9789699995
 21
42.7129541982
 31
0.0
  0
LINE
  5
3F9
100
AcDbEntity
  8
LAYER0
 62
         3
100
AcDbLine
 10
-25.9789699995
 20
42.7129541982
 30
0.0
 11
-25.9777032167
 21
42.7185463214
 31
0.0
  0
LINE
  5
3FA
100
AcDbEntity
  8
LAYER0
 62
         3
100
AcDbLine
 10
-25.9777032167
 20
42.7185463214
 30
0.0
 11
-25.9762245338
 21
42.7237802138
 31
0.0
  0
LINE
  5
3FB
100
AcDbEntity
  8
LAYER0
 62
         3
100
AcDbLine
 10
-25.9762245338
 20
42.7237802138
 30
0.0
 11
-25.9742539882
 21
42.7297849915
 31
0.0
  0
LINE
  5
3FC
100
AcDbEntity
  8
LAYER0
 62
         3
100
AcDbLine
 10
-25.9742539882
 20
42.7297849915
 30
0.0
 11
-25.9717751158
 21
42.7364511695
 31
0.0
  0
LINE
  5
3FD
100
AcDbEntity
  8
LAYER0
 62
         3
100
AcDbLine
 10
-25.9717751158
 20
42.7364511695
 30
0.0
 11
-25.9687714529
 21
42.7436692628
 31
0.0
  0
LINE
  5
3FE
100
AcDbEntity
  8
LAYER0
 62
         3
100
AcDbLine
 10
-25.9687714529
 20
42.7436692628
 30
0.0
 11
-25.9611238992
 21
42.7593232553
 31
0.0
  0
LINE
  5
3FF
100
AcDbEntity
  8
LAYER0
 62
         3
100
AcDbLine
 10
-25.9611238992
 20
42.7593232553
 30
0.0
 11
-25.9511796155
 21
42.7758710885
 31
0.0
  0
LINE
  5
400
100
AcDbEntity
  8
LAYER0
 62
         3
100
AcDbLine
 10
-25.9511796155
 20
42.7758710885
 30
0.0
 11
-25.9432907549
 21
42.7869411153
 31
0.0
  0
LINE
  5
401
100
AcDbEntity
  8
LAYER0
 62
         3
100
AcDbLine
 10
-25.9432907549
 20
42.7869411153
 30
0.0
 11
-25.9346544101
 21
42.797767167
 31
0.0
  0
LINE
  5
402
100
AcDbEntity
  8
LAYER0
 62
         3
100
AcDbLine
 10
-25.9346544101
 20
42.797767167
 30
0.0
 11
-25.9255971466
 21
42.808097325
 31
0.0
  0
LINE
  5
403
100
AcDbEntity
  8
LAYER0
 62
         3
100
AcDbLine
 10
-25.9255971466
 20
42.808097325
 30
0.0
 11
-25.9164455301
 21
42.8176796708
 31
0.0
  0
LINE
  5
404
100
AcDbEntity
  8
LAYER0
 62
         3
100
AcDbLine
 10
-25.9164455301
 20
42.8176796708
 30
0.0
 11
-25.907526126
 21
42.8262622856
 31
0.0
  0
LINE
  5
405
100
AcDbEntity
  8
LAYER0
 62
         3
100
AcDbLine
 10
-25.907526126
 20
42.8262622856
 30
0.0
 11
-25.8991655001
 21
42.8335932508
 31
0.0
  0
LINE
  5
406
100
AcDbEntity
  8
LAYER0
 62
         3
100
AcDbLine
 10
-25.8991655001
 20
42.8335932508
 30
0.0
 11
-25.8916902178
 21
42.8394206479
 31
0.0
  0
LINE
  5
407
100
AcDbEntity
  8
LAYER0
 62
         3
100
AcDbLine
 10
-25.8916902178
 20
42.8394206479
 30
0.0
 11
-25.8854268447
 21
42.843492558
 31
0.0
  0
LINE
  5
408
100
AcDbEntity
  8
LAYER0
 62
         3
100
AcDbLine
 10
-25.8854268447
 20
42.843492558
 30
0.0
 11
-25.8821080767
 21
42.845198741
 31
0.0
  0
ENDBLK
  5
409
100
AcDbEntity
  8
0
100
AcDbBlockEnd
  0
BLOCK
  5
40D
100
AcDbEntity
  8
0
100
AcDbBlockBegin
  2
CLUMP92
 70
         0
 10
0.0
 20
0.0
 30
0.0
  3

  1

  0
INSERT
  5
40F
100
AcDbEntity
  8
0
100
AcDbBlockReference
  2
CLUMP93
 10
0.0
 20
0.0
 30
0.0
  0
ENDBLK
  5
427
100
AcDbEntity
  8
0
100
AcDbBlockEnd
  0
BLOCK
  5
410
100
AcDbEntity
  8
0
100
AcDbBlockBegin
  2
CLUMP93
 70
         0
 10
0.0
 20
0.0
 30
0.0
  3

  1

  0
LINE
  5
411
100
AcDbEntity
  8
LAYER0
 62
         3
100
AcDbLine
 10
-33.8037153103
 20
42.7047627473
 30
0.0
 11
-33.8032325535
 21
42.7030094481
 31
0.0
  0
LINE
  5
412
100
AcDbEntity
  8
LAYER0
 62
         3
100
AcDbLine
 10
-33.8032325535
 20
42.7030094481
 30
0.0
 11
-33.8030050612
 21
42.7021878575
 31
0.0
  0
LINE
  5
413
100
AcDbEntity
  8
LAYER0
 62
         3
100
AcDbLine
 10
-33.8030050612
 20
42.7021878575
 30
0.0
 11
-33.8027942323
 21
42.7014323378
 31
0.0
  0
LINE
  5
414
100
AcDbEntity
  8
LAYER0
 62
         3
100
AcDbLine
 10
-33.8027942323
 20
42.7014323378
 30
0.0
 11
-33.802649442
 21
42.7009187713
 31
0.0
  0
LINE
  5
415
100
AcDbEntity
  8
LAYER0
 62
         3
100
AcDbLine
 10
-33.802649442
 20
42.7009187713
 30
0.0
 11
-33.8025168447
 21
42.7004535505
 31
0.0
  0
LINE
  5
416
100
AcDbEntity
  8
LAYER0
 62
         3
100
AcDbLine
 10
-33.8025168447
 20
42.7004535505
 30
0.0
 11
-33.8023960471
 21
42.7000351158
 31
0.0
  0
LINE
  5
417
100
AcDbEntity
  8
LAYER0
 62
         3
100
AcDbLine
 10
-33.8023960471
 20
42.7000351158
 30
0.0
 11
-33.8022866559
 21
42.6996619077
 31
0.0
  0
LINE
  5
418
100
AcDbEntity
  8
LAYER0
 62
         3
100
AcDbLine
 10
-33.8022866559
 20
42.6996619077
 30
0.0
 11
-33.8021882777
 21
42.6993323666
 31
0.0
  0
LINE
  5
419
100
AcDbEntity
  8
LAYER0
 62
         3
100
AcDbLine
 10
-33.8021882777
 20
42.6993323666
 30
0.0
 11
-33.8021005191
 21
42.699044933
 31
0.0
  0
LINE
  5
41A
100
AcDbEntity
  8
LAYER0
 62
         3
100
AcDbLine
 10
-33.8021005191
 20
42.699044933
 30
0.0
 11
-33.802022987
 21
42.6987980474
 31
0.0
  0
LINE
  5
41B
100
AcDbEntity
  8
LAYER0
 62
         3
100
AcDbLine
 10
-33.802022987
 20
42.6987980474
 30
0.0
 11
-33.8019552879
 21
42.6985901501
 31
0.0
  0
LINE
  5
41C
100
AcDbEntity
  8
LAYER0
 62
         3
100
AcDbLine
 10
-33.8019552879
 20
42.6985901501
 30
0.0
 11
-33.8018478157
 21
42.6982850828
 31
0.0
  0
LINE
  5
41D
100
AcDbEntity
  8
LAYER0
 62
         3
100
AcDbLine
 10
-33.8018478157
 20
42.6982850828
 30
0.0
 11
-33.8017749558
 21
42.6981172548
 31
0.0
  0
LINE
  5
41E
100
AcDbEntity
  8
LAYER0
 62
         3
100
AcDbLine
 10
-33.8017749558
 20
42.6981172548
 30
0.0
 11
-33.8017335618
 21
42.6980741897
 31
0.0
  0
LINE
  5
41F
100
AcDbEntity
  8
LAYER0
 62
         3
100
AcDbLine
 10
-33.8017335618
 20
42.6980741897
 30
0.0
 11
-33.8017204869
 21
42.6981434112
 31
0.0
  0
LINE
  5
420
100
AcDbEntity
  8
LAYER0
 62
         3
100
AcDbLine
 10
-33.8017204869
 20
42.6981434112
 30
0.0
 11
-33.8017325847
 21
42.6983124432
 31
0.0
  0
LINE
  5
421
100
AcDbEntity
  8
LAYER0
 62
         3
100
AcDbLine
 10
-33.8017325847
 20
42.6983124432
 30
0.0
 11
-33.8017667086
 21
42.6985688091
 31
0.0
  0
LINE
  5
422
100
AcDbEntity
  8
LAYER0
 62
         3
100
AcDbLine
 10
-33.8017667086
 20
42.6985688091
 30
0.0
 11
-33.8018197119
 21
42.6989000329
 31
0.0
  0
LINE
  5
423
100
AcDbEntity
  8
LAYER0
 62
         3
100
AcDbLine
 10
-33.8018197119
 20
42.6989000329
 30
0.0
 11
-33.8018884482
 21
42.6992936382
 31
0.0
  0
LINE
  5
424
100
AcDbEntity
  8
LAYER0
 62
         3
100
AcDbLine
 10
-33.8018884482
 20
42.6992936382
 30
0.0
 11
-33.802060533
 21
42.7002180879
 31
0.0
  0
LINE
  5
425
100
AcDbEntity
  8
LAYER0
 62
         3
100
AcDbLine
 10
-33.802060533
 20
42.7002180879
 30
0.0
 11
-33.8022577905
 21
42.701242348
 31
0.0
  0
ENDBLK
  5
426
100
AcDbEntity
  8
0
100
AcDbBlockEnd
  0
BLOCK
  5
42A
100
AcDbEntity
  8
0
100
AcDbBlockBegin
  2
CLUMP94
 70
         0
 10
0.0
 20
0.0
 30
0.0
  3

  1

  0
INSERT
  5
42C
100
AcDbEntity
  8
0
100
AcDbBlockReference
  2
CLUMP95
 10
0.0
 20
0.0
 30
0.0
  0
ENDBLK
  5
442
100
AcDbEntity
  8
0
100
AcDbBlockEnd
  0
BLOCK
  5
42D
100
AcDbEntity
  8
0
100
AcDbBlockBegin
  2
CLUMP95
 70
         0
 10
0.0
 20
0.0
 30
0.0
  3

  1

  0
LINE
  5
42E
100
AcDbEntity
  8
LAYER0
 62
         3
100
AcDbLine
 10
-25.9822336354
 20
42.7007766867
 30
0.0
 11
-25.9824034262
 21
42.699842461
 31
0.0
  0
LINE
  5
42F
100
AcDbEntity
  8
LAYER0
 62
         3
100
AcDbLine
 10
-25.9824034262
 20
42.699842461
 30
0.0
 11
-25.9825516358
 21
42.6989955683
 31
0.0
  0
LINE
  5
430
100
AcDbEntity
  8
LAYER0
 62
         3
100
AcDbLine
 10
-25.9825516358
 20
42.6989955683
 30
0.0
 11
-25.9826109037
 21
42.6986321634
 31
0.0
  0
LINE
  5
431
100
AcDbEntity
  8
LAYER0
 62
         3
100
AcDbLine
 10
-25.9826109037
 20
42.6986321634
 30
0.0
 11
-25.9826566833
 21
42.6983233416
 31
0.0
  0
LINE
  5
432
100
AcDbEntity
  8
LAYER0
 62
         3
100
AcDbLine
 10
-25.9826566833
 20
42.6983233416
 30
0.0
 11
-25.9826862772
 21
42.6980800195
 31
0.0
  0
LINE
  5
433
100
AcDbEntity
  8
LAYER0
 62
         3
100
AcDbLine
 10
-25.9826862772
 20
42.6980800195
 30
0.0
 11
-25.9826969876
 21
42.6979131137
 31
0.0
  0
LINE
  5
434
100
AcDbEntity
  8
LAYER0
 62
         3
100
AcDbLine
 10
-25.9826969876
 20
42.6979131137
 30
0.0
 11
-25.9826861169
 21
42.697833541
 31
0.0
  0
LINE
  5
435
100
AcDbEntity
  8
LAYER0
 62
         3
100
AcDbLine
 10
-25.9826861169
 20
42.697833541
 30
0.0
 11
-25.9826509674
 21
42.6978522178
 31
0.0
  0
LINE
  5
436
100
AcDbEntity
  8
LAYER0
 62
         3
100
AcDbLine
 10
-25.9826509674
 20
42.6978522178
 30
0.0
 11
-25.9825888416
 21
42.6979800608
 31
0.0
  0
LINE
  5
437
100
AcDbEntity
  8
LAYER0
 62
         3
100
AcDbLine
 10
-25.9825888416
 20
42.6979800608
 30
0.0
 11
-25.9824970419
 21
42.6982279867
 31
0.0
  0
LINE
  5
438
100
AcDbEntity
  8
LAYER0
 62
         3
100
AcDbLine
 10
-25.9824970419
 20
42.6982279867
 30
0.0
 11
-25.9823728704
 21
42.698606912
 31
0.0
  0
LINE
  5
439
100
AcDbEntity
  8
LAYER0
 62
         3
100
AcDbLine
 10
-25.9823728704
 20
42.698606912
 30
0.0
 11
-25.9822136297
 21
42.6991277534
 31
0.0
  0
LINE
  5
43A
100
AcDbEntity
  8
LAYER0
 62
         3
100
AcDbLine
 10
-25.9822136297
 20
42.6991277534
 30
0.0
 11
-25.9820166221
 21
42.6998014275
 31
0.0
  0
LINE
  5
43B
100
AcDbEntity
  8
LAYER0
 62
         3
100
AcDbLine
 10
-25.9820166221
 20
42.6998014275
 30
0.0
 11
-25.9819031127
 21
42.7001989883
 31
0.0
  0
LINE
  5
43C
100
AcDbEntity
  8
LAYER0
 62
         3
100
AcDbLine
 10
-25.9819031127
 20
42.7001989883
 30
0.0
 11
-25.98177915
 21
42.700638851
 31
0.0
  0
LINE
  5
43D
100
AcDbEntity
  8
LAYER0
 62
         3
100
AcDbLine
 10
-25.98177915
 20
42.700638851
 30
0.0
 11
-25.9815015753
 21
42.7016388953
 31
0.0
  0
LINE
  5
43E
100
AcDbEntity
  8
LAYER0
 62
         3
100
AcDbLine
 10
-25.9815015753
 20
42.7016388953
 30
0.0
 11
-25.9811918049
 21
42.7027692268
 31
0.0
  0
LINE
  5
43F
100
AcDbEntity
  8
LAYER0
 62
         3
100
AcDbLine
 10
-25.9811918049
 20
42.7027692268
 30
0.0
 11
-25.9808605708
 21
42.7039864164
 31
0.0
  0
LINE
  5
440
100
AcDbEntity
  8
LAYER0
 62
         3
100
AcDbLine
 10
-25.9808605708
 20
42.7039864164
 30
0.0
 11
-25.9805186049
 21
42.7052470351
 31
0.0
  0
ENDBLK
  5
441
100
AcDbEntity
  8
0
100
AcDbBlockEnd
  0
BLOCK
  5
445
100
AcDbEntity
  8
0
100
AcDbBlockBegin
  2
CLUMP96
 70
         0
 10
0.0
 20
0.0
 30
0.0
  3

  1

  0
INSERT
  5
447
100
AcDbEntity
  8
0
100
AcDbBlockReference
  2
CLUMP97
 10
0.0
 20
0.0
 30
0.0
  0
ENDBLK
  5
455
100
AcDbEntity
  8
0
100
AcDbBlockEnd
  0
BLOCK
  5
448
100
AcDbEntity
  8
0
100
AcDbBlockBegin
  2
CLUMP97
 70
         0
 10
0.0
 20
0.0
 30
0.0
  3

  1

  0
LINE
  5
449
100
AcDbEntity
  8
LAYER0
 62
         3
100
AcDbLine
 10
-31.2167787322
 20
45.1451594436
 30
0.0
 11
-31.2194413834
 21
45.1413819993
 31
0.0
  0
LINE
  5
44A
100
AcDbEntity
  8
LAYER0
 62
         3
100
AcDbLine
 10
-31.2194413834
 20
45.1413819993
 30
0.0
 11
-31.2518139047
 21
45.0913437509
 31
0.0
  0
LINE
  5
44B
100
AcDbEntity
  8
LAYER0
 62
         3
100
AcDbLine
 10
-31.2518139047
 20
45.0913437509
 30
0.0
 11
-31.2838637452
 21
45.03412749
 31
0.0
  0
LINE
  5
44C
100
AcDbEntity
  8
LAYER0
 62
         3
100
AcDbLine
 10
-31.2838637452
 20
45.03412749
 30
0.0
 11
-31.3153743573
 21
44.9702772566
 31
0.0
  0
LINE
  5
44D
100
AcDbEntity
  8
LAYER0
 62
         3
100
AcDbLine
 10
-31.3153743573
 20
44.9702772566
 30
0.0
 11
-31.3461291932
 21
44.9003370905
 31
0.0
  0
LINE
  5
44E
100
AcDbEntity
  8
LAYER0
 62
         3
100
AcDbLine
 10
-31.3461291932
 20
44.9003370905
 30
0.0
 11
-31.3725497266
 21
44.8336974084
 31
0.0
  0
LINE
  5
44F
100
AcDbEntity
  8
LAYER0
 62
         3
100
AcDbLine
 10
-31.3725497266
 20
44.8336974084
 30
0.0
 11
-31.3978751735
 21
44.7630659402
 31
0.0
  0
LINE
  5
450
100
AcDbEntity
  8
LAYER0
 62
         3
100
AcDbLine
 10
-31.3978751735
 20
44.7630659402
 30
0.0
 11
-31.4217741494
 21
44.6888068659
 31
0.0
  0
LINE
  5
451
100
AcDbEntity
  8
LAYER0
 62
         3
100
AcDbLine
 10
-31.4217741494
 20
44.6888068659
 30
0.0
 11
-31.4439152696
 21
44.6112843657
 31
0.0
  0
LINE
  5
452
100
AcDbEntity
  8
LAYER0
 62
         3
100
AcDbLine
 10
-31.4439152696
 20
44.6112843657
 30
0.0
 11
-31.4827933364
 21
44.4481176151
 31
0.0
  0
LINE
  5
453
100
AcDbEntity
  8
LAYER0
 62
         3
100
AcDbLine
 10
-31.4827933364
 20
44.4481176151
 30
0.0
 11
-31.5174795084
 21
44.2791337574
 31
0.0
  0
ENDBLK
  5
454
100
AcDbEntity
  8
0
100
AcDbBlockEnd
  0
BLOCK
  5
458
100
AcDbEntity
  8
0
100
AcDbBlockBegin
  2
CLUMP98
 70
         0
 10
0.0
 20
0.0
 30
0.0
  3

  1

  0
INSERT
  5
45A
100
AcDbEntity
  8
0
100
AcDbBlockReference
  2
CLUMP99
 10
0.0
 20
0.0
 30
0.0
  0
ENDBLK
  5
468
100
AcDbEntity
  8
0
100
AcDbBlockEnd
  0
BLOCK
  5
45B
100
AcDbEntity
  8
0
100
AcDbBlockBegin
  2
CLUMP99
 70
         0
 10
0.0
 20
0.0
 30
0.0
  3

  1

  0
LINE
  5
45C
100
AcDbEntity
  8
LAYER0
 62
         3
100
AcDbLine
 10
-28.5676675246
 20
45.1451594436
 30
0.0
 11
-28.5650048733
 21
45.1413819993
 31
0.0
  0
LINE
  5
45D
100
AcDbEntity
  8
LAYER0
 62
         3
100
AcDbLine
 10
-28.5650048733
 20
45.1413819993
 30
0.0
 11
-28.532632349
 21
45.0913437516
 31
0.0
  0
LINE
  5
45E
100
AcDbEntity
  8
LAYER0
 62
         3
100
AcDbLine
 10
-28.532632349
 20
45.0913437516
 30
0.0
 11
-28.5005825036
 21
45.0341274918
 31
0.0
  0
LINE
  5
45F
100
AcDbEntity
  8
LAYER0
 62
         3
100
AcDbLine
 10
-28.5005825036
 20
45.0341274918
 30
0.0
 11
-28.4690718907
 21
44.9702772585
 31
0.0
  0
LINE
  5
460
100
AcDbEntity
  8
LAYER0
 62
         3
100
AcDbLine
 10
-28.4690718907
 20
44.9702772585
 30
0.0
 11
-28.4383170635
 21
44.9003370905
 31
0.0
  0
LINE
  5
461
100
AcDbEntity
  8
LAYER0
 62
         3
100
AcDbLine
 10
-28.4383170635
 20
44.9003370905
 30
0.0
 11
-28.4118965475
 21
44.8336974045
 31
0.0
  0
LINE
  5
462
100
AcDbEntity
  8
LAYER0
 62
         3
100
AcDbLine
 10
-28.4118965475
 20
44.8336974045
 30
0.0
 11
-28.386571116
 21
44.7630659329
 31
0.0
  0
LINE
  5
463
100
AcDbEntity
  8
LAYER0
 62
         3
100
AcDbLine
 10
-28.386571116
 20
44.7630659329
 30
0.0
 11
-28.3626721391
 21
44.6888068588
 31
0.0
  0
LINE
  5
464
100
AcDbEntity
  8
LAYER0
 62
         3
100
AcDbLine
 10
-28.3626721391
 20
44.6888068588
 30
0.0
 11
-28.3405309871
 21
44.6112843657
 31
0.0
  0
LINE
  5
465
100
AcDbEntity
  8
LAYER0
 62
         3
100
AcDbLine
 10
-28.3405309871
 20
44.6112843657
 30
0.0
 11
-28.3016527314
 21
44.4481176067
 31
0.0
  0
LINE
  5
466
100
AcDbEntity
  8
LAYER0
 62
         3
100
AcDbLine
 10
-28.3016527314
 20
44.4481176067
 30
0.0
 11
-28.2669662826
 21
44.2791337574
 31
0.0
  0
ENDBLK
  5
467
100
AcDbEntity
  8
0
100
AcDbBlockEnd
  0
ENDSEC
  0
SECTION
  2
ENTITIES
  0
MTEXT
  5
2F
100
AcDbEntity
  8
LAYER0
100
AcDbMText
 10
72.5158633528
 20
-126.7970201517
 30
0.0
 40
2.1473683357
 41
10.2585839844
 71
         1
 72
         1
  1
\W0.8;管理図番
  0
MTEXT
  5
31
100
AcDbEntity
  8
LAYER3
100
AcDbMText
 10
56.9210748713
 20
7.5064829342
 30
0.0
 40
2.1473683357
 41
2.5646459961
 71
         1
 72
         1
  1
\W0.8;83
 11
-0.0000000268
 21
1.0
 31
0.0
  0
LINE
  5
32
100
AcDbEntity
  8
LAYER3
 62
         4
100
AcDbLine
 10
52.3319720036
 20
-26.6435169911
 30
0.0
 11
52.955707076
 21
-23.7090741889
 31
0.0
  0
LINE
  5
33
100
AcDbEntity
  8
LAYER3
 62
         4
100
AcDbLine
 10
52.3319720036
 20
38.2564830089
 30
0.0
 11
52.955707076
 21
35.3220402067
 31
0.0
  0
LINE
  5
34
100
AcDbEntity
  8
LAYER3
 62
         4
100
AcDbLine
 10
52.3319720036
 20
38.2564830089
 30
0.0
 11
51.7082369311
 21
35.3220402067
 31
0.0
  0
LINE
  5
35
100
AcDbEntity
  8
LAYER3
 62
         4
100
AcDbLine
 10
52.3319720036
 20
38.2564830089
 30
0.0
 11
52.3319720036
 21
-26.6435169911
 31
0.0
  0
LINE
  5
36
100
AcDbEntity
  8
LAYER3
 62
         4
100
AcDbLine
 10
23.5511712306
 20
-26.6435169911
 30
0.0
 11
53.3319720036
 21
-26.6435169911
 31
0.0
  0
LINE
  5
37
100
AcDbEntity
  8
LAYER3
 62
         4
100
AcDbLine
 10
23.5511712306
 20
38.2564830089
 30
0.0
 11
53.3319720036
 21
38.2564830089
 31
0.0
  0
MTEXT
  5
38
100
AcDbEntity
  8
LAYER3
100
AcDbMText
 10
20.1511712306
 20
70.0501292137
 30
0.0
 40
2.1473683357
 41
2.5646459961
 71
         1
 72
         1
  1
\W0.8;20
  0
LINE
  5
39
100
AcDbEntity
  8
LAYER3
 62
         4
100
AcDbLine
 10
32.551171007
 20
66.2624705223
 30
0.0
 11
29.6167282048
 21
65.6387354498
 31
0.0
  0
LINE
  5
3A
100
AcDbEntity
  8
LAYER3
 62
         4
100
AcDbLine
 10
32.551171007
 20
66.2624705223
 30
0.0
 11
29.6167282048
 21
66.8862055947
 31
0.0
  0
LINE
  5
3B
100
AcDbEntity
  8
LAYER3
 62
         4
100
AcDbLine
 10
12.5511714541
 20
66.2624705223
 30
0.0
 11
15.4856142563
 21
66.8862055947
 31
0.0
  0
LINE
  5
3C
100
AcDbEntity
  8
LAYER3
 62
         4
100
AcDbLine
 10
12.5511714541
 20
66.2624705223
 30
0.0
 11
15.4856142563
 21
65.6387354498
 31
0.0
  0
LINE
  5
3D
100
AcDbEntity
  8
LAYER3
 62
         4
100
AcDbLine
 10
12.5511714541
 20
66.2624705223
 30
0.0
 11
32.551171007
 21
66.2624705223
 31
0.0
  0
LINE
  5
3E
100
AcDbEntity
  8
LAYER3
 62
         4
100
AcDbLine
 10
12.5511714541
 20
45.2791324971
 30
0.0
 11
12.5511714541
 21
67.2624705223
 31
0.0
  0
LINE
  5
3F
100
AcDbEntity
  8
LAYER3
 62
         4
100
AcDbLine
 10
32.551171007
 20
45.1829082487
 30
0.0
 11
32.551171007
 21
67.2624705223
 31
0.0
  0
MTEXT
  5
40
100
AcDbEntity
  8
LAYER3
100
AcDbMText
 10
-34.6922226627
 20
70.2292989018
 30
0.0
 40
2.1473683357
 41
5.1292919922
 71
         1
 72
         1
  1
\W0.8;19.4
  0
LINE
  5
41
100
AcDbEntity
  8
LAYER3
 62
         4
100
AcDbLine
 10
-20.1922230751
 20
66.4416402104
 30
0.0
 11
-23.1266658773
 21
65.8179051379
 31
0.0
  0
LINE
  5
42
100
AcDbEntity
  8
LAYER3
 62
         4
100
AcDbLine
 10
-20.1922230751
 20
66.4416402104
 30
0.0
 11
-23.1266658773
 21
67.0653752828
 31
0.0
  0
LINE
  5
43
100
AcDbEntity
  8
LAYER3
 62
         4
100
AcDbLine
 10
60.7087335627
 20
-31.6435169911
 30
0.0
 11
60.0849984903
 21
-28.7090741889
 31
0.0
  0
MTEXT
  5
44
100
AcDbEntity
  8
LAYER0
100
AcDbMText
 10
16.3216602544
 20
-132.8866032766
 30
0.0
 40
2.4737683892
 41
41.3626117364
 71
         1
 72
         1
  1
\W0.8;３０用ロングスナップランナー
  0
MTEXT
  5
45
100
AcDbEntity
  8
LAYER3
100
AcDbMText
 10
48.5443133122
 20
3.4064829342
 30
0.0
 40
2.1473683357
 41
2.5646459961
 71
         1
 72
         1
  1
\W0.8;65
 11
-0.0000000268
 21
1.0
 31
0.0
  0
MTEXT
  5
46
100
AcDbEntity
  8
LAYER0
100
AcDbMText
 10
-13.9221737419
 20
-132.5157576176
 30
0.0
 40
3.0922104359
 41
7.3861805462
 71
         1
 72
         1
  1
\W0.8;S-3C
  0
MTEXT
  5
47
100
AcDbEntity
  8
LAYER0
100
AcDbMText
 10
-35.7051459079
 20
-126.6461242782
 30
0.0
 40
2.1473683357
 41
6.4116149902
 71
         1
 72
         1
  1
\W0.8;Ｎｏ.
  0
MTEXT
  5
48
100
AcDbEntity
  8
LAYER0
100
AcDbMText
 10
-10.6564309049
 20
-126.7970201517
 30
0.0
 40
2.1473683357
 41
7.6538653946
 71
         1
 72
         1
  1
\W0.8;品　番
  0
MTEXT
  5
49
100
AcDbEntity
  8
LAYER0
100
AcDbMText
 10
32.0542682872
 20
-126.7970201517
 30
0.0
 40
2.1473683357
 41
7.6538653946
 71
         1
 72
         1
  1
\W0.8;品　名
  0
MTEXT
  5
4A
100
AcDbEntity
  8
LAYER0
100
AcDbMText
 10
69.2920019132
 20
-133.1354167344
 30
0.0
 40
2.4737683892
 41
8.8634168007
 71
         1
 72
         1
  1
\W0.8;D55812
  0
INSERT
  5
4C
100
AcDbEntity
  8
0
100
AcDbBlockReference
  2
CLUMP0
 10
0.0
 20
0.0
 30
0.0
  0
INSERT
  5
65
100
AcDbEntity
  8
0
100
AcDbBlockReference
  2
CLUMP2
 10
0.0
 20
0.0
 30
0.0
  0
INSERT
  5
7F
100
AcDbEntity
  8
0
100
AcDbBlockReference
  2
CLUMP4
 10
0.0
 20
0.0
 30
0.0
  0
INSERT
  5
94
100
AcDbEntity
  8
0
100
AcDbBlockReference
  2
CLUMP6
 10
0.0
 20
0.0
 30
0.0
  0
INSERT
  5
9E
100
AcDbEntity
  8
0
100
AcDbBlockReference
  2
CLUMP8
 10
0.0
 20
0.0
 30
0.0
  0
INSERT
  5
AD
100
AcDbEntity
  8
0
100
AcDbBlockReference
  2
CLUMP10
 10
0.0
 20
0.0
 30
0.0
  0
INSERT
  5
B7
100
AcDbEntity
  8
0
100
AcDbBlockReference
  2
CLUMP12
 10
0.0
 20
0.0
 30
0.0
  0
INSERT
  5
C3
100
AcDbEntity
  8
0
100
AcDbBlockReference
  2
CLUMP14
 10
0.0
 20
0.0
 30
0.0
  0
INSERT
  5
DD
100
AcDbEntity
  8
0
100
AcDbBlockReference
  2
CLUMP16
 10
0.0
 20
0.0
 30
0.0
  0
INSERT
  5
F5
100
AcDbEntity
  8
0
100
AcDbBlockReference
  2
CLUMP18
 10
0.0
 20
0.0
 30
0.0
  0
INSERT
  5
10D
100
AcDbEntity
  8
0
100
AcDbBlockReference
  2
CLUMP20
 10
0.0
 20
0.0
 30
0.0
  0
INSERT
  5
127
100
AcDbEntity
  8
0
100
AcDbBlockReference
  2
CLUMP22
 10
0.0
 20
0.0
 30
0.0
  0
INSERT
  5
136
100
AcDbEntity
  8
0
100
AcDbBlockReference
  2
CLUMP24
 10
0.0
 20
0.0
 30
0.0
  0
INSERT
  5
143
100
AcDbEntity
  8
0
100
AcDbBlockReference
  2
CLUMP26
 10
0.0
 20
0.0
 30
0.0
  0
INSERT
  5
152
100
AcDbEntity
  8
0
100
AcDbBlockReference
  2
CLUMP28
 10
0.0
 20
0.0
 30
0.0
  0
INSERT
  5
15F
100
AcDbEntity
  8
0
100
AcDbBlockReference
  2
CLUMP30
 10
0.0
 20
0.0
 30
0.0
  0
INSERT
  5
173
100
AcDbEntity
  8
0
100
AcDbBlockReference
  2
CLUMP32
 10
0.0
 20
0.0
 30
0.0
  0
INSERT
  5
187
100
AcDbEntity
  8
0
100
AcDbBlockReference
  2
CLUMP34
 10
0.0
 20
0.0
 30
0.0
  0
LINE
  5
195
100
AcDbEntity
  8
LAYER3
 62
         4
100
AcDbLine
 10
60.7087335627
 20
-31.6435169911
 30
0.0
 11
61.3324686352
 21
-28.7090741889
 31
0.0
  0
LINE
  5
196
100
AcDbEntity
  8
LAYER3
 62
         4
100
AcDbLine
 10
60.7087335627
 20
51.4564830089
 30
0.0
 11
61.3324686352
 21
48.5220402067
 31
0.0
  0
LINE
  5
197
100
AcDbEntity
  8
LAYER3
 62
         4
100
AcDbLine
 10
60.7087335627
 20
51.4564830089
 30
0.0
 11
60.0849984903
 21
48.5220402067
 31
0.0
  0
LINE
  5
198
100
AcDbEntity
  8
LAYER3
 62
         4
100
AcDbLine
 10
60.7087335627
 20
51.4564830089
 30
0.0
 11
60.7087335627
 21
-31.6435169911
 31
0.0
  0
LINE
  5
199
100
AcDbEntity
  8
LAYER3
 62
         4
100
AcDbLine
 10
23.5511712306
 20
-31.6435169911
 30
0.0
 11
61.7087335627
 21
-31.6435169911
 31
0.0
  0
LINE
  5
19A
100
AcDbEntity
  8
LAYER3
 62
         4
100
AcDbLine
 10
23.5511712306
 20
51.4564830089
 30
0.0
 11
61.7087335627
 21
51.4564830089
 31
0.0
  0
LINE
  5
19B
100
AcDbEntity
  8
LAYER3
 62
         4
100
AcDbLine
 10
52.3319720036
 20
-26.6435169911
 30
0.0
 11
51.7082369311
 21
-23.7090741889
 31
0.0
  0
INSERT
  5
19D
100
AcDbEntity
  8
0
100
AcDbBlockReference
  2
CLUMP36
 10
0.0
 20
0.0
 30
0.0
  0
INSERT
  5
1B9
100
AcDbEntity
  8
0
100
AcDbBlockReference
  2
CLUMP38
 10
0.0
 20
0.0
 30
0.0
  0
INSERT
  5
1D0
100
AcDbEntity
  8
0
100
AcDbBlockReference
  2
CLUMP40
 10
0.0
 20
0.0
 30
0.0
  0
INSERT
  5
1E5
100
AcDbEntity
  8
0
100
AcDbBlockReference
  2
CLUMP42
 10
0.0
 20
0.0
 30
0.0
  0
INSERT
  5
1F1
100
AcDbEntity
  8
0
100
AcDbBlockReference
  2
CLUMP44
 10
0.0
 20
0.0
 30
0.0
  0
INSERT
  5
1FD
100
AcDbEntity
  8
0
100
AcDbBlockReference
  2
CLUMP46
 10
0.0
 20
0.0
 30
0.0
  0
INSERT
  5
21A
100
AcDbEntity
  8
0
100
AcDbBlockReference
  2
CLUMP48
 10
0.0
 20
0.0
 30
0.0
  0
INSERT
  5
237
100
AcDbEntity
  8
0
100
AcDbBlockReference
  2
CLUMP50
 10
0.0
 20
0.0
 30
0.0
  0
INSERT
  5
24E
100
AcDbEntity
  8
0
100
AcDbBlockReference
  2
CLUMP52
 10
0.0
 20
0.0
 30
0.0
  0
INSERT
  5
265
100
AcDbEntity
  8
0
100
AcDbBlockReference
  2
CLUMP54
 10
0.0
 20
0.0
 30
0.0
  0
INSERT
  5
277
100
AcDbEntity
  8
0
100
AcDbBlockReference
  2
CLUMP56
 10
0.0
 20
0.0
 30
0.0
  0
INSERT
  5
289
100
AcDbEntity
  8
0
100
AcDbBlockReference
  2
CLUMP58
 10
0.0
 20
0.0
 30
0.0
  0
INSERT
  5
29A
100
AcDbEntity
  8
0
100
AcDbBlockReference
  2
CLUMP60
 10
0.0
 20
0.0
 30
0.0
  0
INSERT
  5
2A9
100
AcDbEntity
  8
0
100
AcDbBlockReference
  2
CLUMP62
 10
0.0
 20
0.0
 30
0.0
  0
INSERT
  5
2BA
100
AcDbEntity
  8
0
100
AcDbBlockReference
  2
CLUMP64
 10
0.0
 20
0.0
 30
0.0
  0
INSERT
  5
2C9
100
AcDbEntity
  8
0
100
AcDbBlockReference
  2
CLUMP66
 10
0.0
 20
0.0
 30
0.0
  0
INSERT
  5
2E0
100
AcDbEntity
  8
0
100
AcDbBlockReference
  2
CLUMP68
 10
0.0
 20
0.0
 30
0.0
  0
INSERT
  5
2F7
100
AcDbEntity
  8
0
100
AcDbBlockReference
  2
CLUMP70
 10
0.0
 20
0.0
 30
0.0
  0
LINE
  5
30E
100
AcDbEntity
  8
LAYER3
 62
         4
100
AcDbLine
 10
-39.5922222503
 20
66.4416402104
 30
0.0
 11
-36.6577794481
 21
67.0653752828
 31
0.0
  0
LINE
  5
30F
100
AcDbEntity
  8
LAYER3
 62
         4
100
AcDbLine
 10
-39.5922222503
 20
66.4416402104
 30
0.0
 11
-36.6577794481
 21
65.8179051379
 31
0.0
  0
LINE
  5
310
100
AcDbEntity
  8
LAYER3
 62
         4
100
AcDbLine
 10
-39.5922222503
 20
66.4416402104
 30
0.0
 11
-20.1922230751
 21
66.4416402104
 31
0.0
  0
LINE
  5
311
100
AcDbEntity
  8
LAYER3
 62
         4
100
AcDbLine
 10
-20.1922230751
 20
52.4564829374
 30
0.0
 11
-20.1922230751
 21
67.4416402104
 31
0.0
  0
LINE
  5
312
100
AcDbEntity
  8
LAYER3
 62
         4
100
AcDbLine
 10
-39.5922222503
 20
52.4564829374
 30
0.0
 11
-39.5922222503
 21
67.4416402104
 31
0.0
  0
INSERT
  5
314
100
AcDbEntity
  8
0
100
AcDbBlockReference
  2
CLUMP72
 10
0.0
 20
0.0
 30
0.0
  0
INSERT
  5
343
100
AcDbEntity
  8
0
100
AcDbBlockReference
  2
CLUMP74
 10
0.0
 20
0.0
 30
0.0
  0
LINE
  5
358
100
AcDbEntity
  8
LAYER0
 62
         3
100
AcDbLine
 10
28.9219778583
 20
26.2453425428
 30
0.0
 11
29.1299001788
 21
26.5911161442
 31
0.0
  0
LINE
  5
359
100
AcDbEntity
  8
LAYER0
 62
         3
100
AcDbLine
 10
28.6421614883
 20
25.9422694465
 30
0.0
 11
28.9219778583
 21
26.2453425428
 31
0.0
  0
LINE
  5
35A
100
AcDbEntity
  8
LAYER0
 62
         3
100
AcDbLine
 10
28.3012042549
 20
25.6935437843
 30
0.0
 11
28.6421614883
 21
25.9422694465
 31
0.0
  0
LINE
  5
35B
100
AcDbEntity
  8
LAYER0
 62
         3
100
AcDbLine
 10
27.9122089534
 20
25.5087239439
 30
0.0
 11
28.3012042549
 21
25.6935437843
 31
0.0
  0
LINE
  5
35C
100
AcDbEntity
  8
LAYER0
 62
         3
100
AcDbLine
 10
27.4901244551
 20
25.3949124481
 30
0.0
 11
27.9122089534
 21
25.5087239439
 31
0.0
  0
LINE
  5
35D
100
AcDbEntity
  8
LAYER0
 62
         3
100
AcDbLine
 10
27.0511712306
 20
25.3564830089
 30
0.0
 11
27.4901244551
 21
25.3949124481
 31
0.0
  0
LINE
  5
35E
100
AcDbEntity
  8
LAYER0
 62
         3
100
AcDbLine
 10
17.6122180061
 20
25.3949124481
 30
0.0
 11
18.0511712306
 21
25.3564830089
 31
0.0
  0
LINE
  5
35F
100
AcDbEntity
  8
LAYER0
 62
         3
100
AcDbLine
 10
17.1901335078
 20
25.5087239439
 30
0.0
 11
17.6122180061
 21
25.3949124481
 31
0.0
  0
LINE
  5
360
100
AcDbEntity
  8
LAYER0
 62
         3
100
AcDbLine
 10
16.8011382063
 20
25.6935437843
 30
0.0
 11
17.1901335078
 21
25.5087239439
 31
0.0
  0
LINE
  5
361
100
AcDbEntity
  8
LAYER0
 62
         3
100
AcDbLine
 10
16.4601809729
 20
25.9422694465
 30
0.0
 11
16.8011382063
 21
25.6935437843
 31
0.0
  0
LINE
  5
362
100
AcDbEntity
  8
LAYER0
 62
         3
100
AcDbLine
 10
16.1803646029
 20
26.2453425428
 30
0.0
 11
16.4601809729
 21
25.9422694465
 31
0.0
  0
LINE
  5
363
100
AcDbEntity
  8
LAYER0
 62
         3
100
AcDbLine
 10
15.9724422824
 20
26.5911161442
 30
0.0
 11
16.1803646029
 21
26.2453425428
 31
0.0
  0
LINE
  5
364
100
AcDbEntity
  8
LAYER0
 62
         3
100
AcDbLine
 10
15.8444043497
 20
26.9663023649
 30
0.0
 11
15.9724422824
 21
26.5911161442
 31
0.0
  0
LINE
  5
365
100
AcDbEntity
  8
LAYER0
 62
         3
100
AcDbLine
 10
15.8011712306
 20
27.3564830089
 30
0.0
 11
15.8444043497
 21
26.9663023649
 31
0.0
  0
LINE
  5
366
100
AcDbEntity
  8
LAYER0
 62
         3
100
AcDbLine
 10
13.6228545852
 20
-14.1379567864
 30
0.0
 11
13.476146134
 21
-14.1072985786
 31
0.0
  0
LINE
  5
367
100
AcDbEntity
  8
LAYER0
 62
         3
100
AcDbLine
 10
14.0128123857
 20
-14.219448443
 30
0.0
 11
13.6228545852
 21
-14.1379567864
 31
0.0
  0
LINE
  5
368
100
AcDbEntity
  8
LAYER0
 62
         3
100
AcDbLine
 10
14.3905223631
 20
-14.2983808252
 30
0.0
 11
14.0128123857
 21
-14.219448443
 31
0.0
  0
LINE
  5
369
100
AcDbEntity
  8
LAYER0
 62
         3
100
AcDbLine
 10
14.7462657005
 20
-14.372721787
 30
0.0
 11
14.3905223631
 21
-14.2983808252
 31
0.0
  0
INSERT
  5
36B
100
AcDbEntity
  8
0
100
AcDbBlockReference
  2
CLUMP76
 10
0.0
 20
0.0
 30
0.0
  0
INSERT
  5
377
100
AcDbEntity
  8
0
100
AcDbBlockReference
  2
CLUMP78
 10
0.0
 20
0.0
 30
0.0
  0
INSERT
  5
381
100
AcDbEntity
  8
0
100
AcDbBlockReference
  2
CLUMP80
 10
0.0
 20
0.0
 30
0.0
  0
INSERT
  5
38B
100
AcDbEntity
  8
0
100
AcDbBlockReference
  2
CLUMP82
 10
0.0
 20
0.0
 30
0.0
  0
INSERT
  5
3A4
100
AcDbEntity
  8
0
100
AcDbBlockReference
  2
CLUMP84
 10
0.0
 20
0.0
 30
0.0
  0
INSERT
  5
3B7
100
AcDbEntity
  8
0
100
AcDbBlockReference
  2
CLUMP86
 10
0.0
 20
0.0
 30
0.0
  0
INSERT
  5
3CC
100
AcDbEntity
  8
0
100
AcDbBlockReference
  2
CLUMP88
 10
0.0
 20
0.0
 30
0.0
  0
LINE
  5
3E0
100
AcDbEntity
  8
LAYER0
 62
         3
100
AcDbLine
 10
14.4272304423
 20
-16.5535756456
 30
0.0
 11
14.7088363119
 21
-16.6124249878
 31
0.0
  0
LINE
  5
3E1
100
AcDbEntity
  8
LAYER0
 62
         3
100
AcDbLine
 10
14.1175275021
 20
-16.4888561773
 30
0.0
 11
14.4272304423
 21
-16.5535756456
 31
0.0
  0
LINE
  5
3E2
100
AcDbEntity
  8
LAYER0
 62
         3
100
AcDbLine
 10
13.786220672
 20
-16.4196207257
 30
0.0
 11
14.1175275021
 21
-16.4888561773
 31
0.0
  0
LINE
  5
3E3
100
AcDbEntity
  8
LAYER0
 62
         3
100
AcDbLine
 10
13.440252962
 20
-16.3473221543
 30
0.0
 11
13.786220672
 21
-16.4196207257
 31
0.0
  0
LINE
  5
3E4
100
AcDbEntity
  8
LAYER0
 62
         3
100
AcDbLine
 10
13.0868784435
 20
-16.2734757247
 30
0.0
 11
13.440252962
 21
-16.3473221543
 31
0.0
  0
LINE
  5
3E5
100
AcDbEntity
  8
LAYER0
 62
         3
100
AcDbLine
 10
16.9131087423
 20
25.3564831731
 30
0.0
 11
16.8652857937
 21
25.3468756495
 31
0.0
  0
LINE
  5
3E6
100
AcDbEntity
  8
LAYER0
 62
         3
100
AcDbLine
 10
18.4791476749
 20
-2.5870972382
 30
0.0
 11
18.5000833407
 21
-2.5914723589
 31
0.0
  0
LINE
  5
3E7
100
AcDbEntity
  8
LAYER0
 62
         3
100
AcDbLine
 10
18.4166992367
 20
-2.5740470807
 30
0.0
 11
18.4791476749
 21
-2.5870972382
 31
0.0
  0
LINE
  5
3E8
100
AcDbEntity
  8
LAYER0
 62
         3
100
AcDbLine
 10
18.313806253
 20
-2.5525449379
 30
0.0
 11
18.4166992367
 21
-2.5740470807
 31
0.0
  0
LINE
  5
3E9
100
AcDbEntity
  8
LAYER0
 62
         3
100
AcDbLine
 10
18.1722289235
 20
-2.5229589152
 30
0.0
 11
18.313806253
 21
-2.5525449379
 31
0.0
  0
LINE
  5
3EA
100
AcDbEntity
  8
LAYER0
 62
         3
100
AcDbLine
 10
13.3381706946
 20
-16.1167089897
 30
0.0
 11
12.9920334839
 21
-16.0414385679
 31
0.0
  0
LINE
  5
3EB
100
AcDbEntity
  8
LAYER0
 62
         3
100
AcDbLine
 10
13.677322986
 20
-16.1904604244
 30
0.0
 11
13.3381706946
 21
-16.1167089897
 31
0.0
  0
LINE
  5
3EC
100
AcDbEntity
  8
LAYER0
 62
         3
100
AcDbLine
 10
14.0026469998
 20
-16.2612046184
 30
0.0
 11
13.677322986
 21
-16.1904604244
 31
0.0
  0
LINE
  5
3ED
100
AcDbEntity
  8
LAYER0
 62
         3
100
AcDbLine
 10
14.3075797059
 20
-16.3275138544
 30
0.0
 11
14.0026469998
 21
-16.2612046184
 31
0.0
  0
LINE
  5
3EE
100
AcDbEntity
  8
LAYER0
 62
         3
100
AcDbLine
 10
14.5859669246
 20
-16.3880516844
 30
0.0
 11
14.3075797059
 21
-16.3275138544
 31
0.0
  0
LINE
  5
3EF
100
AcDbEntity
  8
LAYER0
 62
         3
100
AcDbLine
 10
14.8321918495
 20
-16.4415952819
 30
0.0
 11
14.5859669246
 21
-16.3880516844
 31
0.0
  0
LINE
  5
3F0
100
AcDbEntity
  8
LAYER0
 62
         3
100
AcDbLine
 10
15.0412863404
 20
-16.4870643126
 30
0.0
 11
14.8321918495
 21
-16.4415952819
 31
0.0
  0
LINE
  5
3F1
100
AcDbEntity
  8
LAYER0
 62
         3
100
AcDbLine
 10
15.2090310403
 20
-16.5235414239
 30
0.0
 11
15.0412863404
 21
-16.4870643126
 31
0.0
  0
INSERT
  5
3F3
100
AcDbEntity
  8
0
100
AcDbBlockReference
  2
CLUMP90
 10
0.0
 20
0.0
 30
0.0
  0
INSERT
  5
40C
100
AcDbEntity
  8
0
100
AcDbBlockReference
  2
CLUMP92
 10
0.0
 20
0.0
 30
0.0
  0
INSERT
  5
429
100
AcDbEntity
  8
0
100
AcDbBlockReference
  2
CLUMP94
 10
0.0
 20
0.0
 30
0.0
  0
INSERT
  5
444
100
AcDbEntity
  8
0
100
AcDbBlockReference
  2
CLUMP96
 10
0.0
 20
0.0
 30
0.0
  0
INSERT
  5
457
100
AcDbEntity
  8
0
100
AcDbBlockReference
  2
CLUMP98
 10
0.0
 20
0.0
 30
0.0
  0
LINE
  5
469
100
AcDbEntity
  8
LAYER0
 62
         3
100
AcDbLine
 10
29.2579381115
 20
26.9663023649
 30
0.0
 11
29.3011712306
 21
27.3564830089
 31
0.0
  0
LINE
  5
46A
100
AcDbEntity
  8
LAYER0
 62
         3
100
AcDbLine
 10
29.1299001788
 20
26.5911161442
 30
0.0
 11
29.2579381115
 21
26.9663023649
 31
0.0
  0
LINE
  5
46B
100
AcDbEntity
  8
LAYER0
 62
         3
100
AcDbLine
 10
18.4092509844
 20
4.0043513221
 30
0.0
 11
18.7342876852
 21
4.0130712954
 31
0.0
  0
LINE
  5
46C
100
AcDbEntity
  8
LAYER0
 62
         3
100
AcDbLine
 10
18.0473888576
 20
3.9946432156
 30
0.0
 11
18.4092509844
 21
4.0043513221
 31
0.0
  0
LINE
  5
46D
100
AcDbEntity
  8
LAYER0
 62
         3
100
AcDbLine
 10
17.6584876426
 20
3.9842086775
 30
0.0
 11
18.0473888576
 21
3.9946432156
 31
0.0
  0
LINE
  5
46E
100
AcDbEntity
  8
LAYER0
 62
         3
100
AcDbLine
 10
17.2530642994
 20
3.9733317611
 30
0.0
 11
17.6584876426
 21
3.9842086775
 31
0.0
  0
LINE
  5
46F
100
AcDbEntity
  8
LAYER0
 62
         3
100
AcDbLine
 10
16.8420842201
 20
3.9623058332
 30
0.0
 11
17.2530642994
 21
3.9733317611
 31
0.0
  0
LINE
  5
470
100
AcDbEntity
  8
LAYER0
 62
         3
100
AcDbLine
 10
16.4366608769
 20
3.9514289168
 30
0.0
 11
16.8420842201
 21
3.9623058332
 31
0.0
  0
LINE
  5
471
100
AcDbEntity
  8
LAYER0
 62
         3
100
AcDbLine
 10
16.0477596619
 20
3.94099531
 30
0.0
 11
16.4366608769
 21
3.9514289168
 31
0.0
  0
LINE
  5
472
100
AcDbEntity
  8
LAYER0
 62
         3
100
AcDbLine
 10
15.6858975351
 20
3.9312872035
 30
0.0
 11
16.0477596619
 21
3.94099531
 31
0.0
  0
LINE
  5
473
100
AcDbEntity
  8
LAYER0
 62
         3
100
AcDbLine
 10
15.3608608343
 20
3.9225672302
 30
0.0
 11
15.6858975351
 21
3.9312872035
 31
0.0
  0
LINE
  5
474
100
AcDbEntity
  8
LAYER0
 62
         3
100
AcDbLine
 10
15.0814403132
 20
3.9150700835
 30
0.0
 11
15.3608608343
 21
3.9225672302
 31
0.0
  0
LINE
  5
475
100
AcDbEntity
  8
LAYER0
 62
         3
100
AcDbLine
 10
14.8551917918
 20
3.9090006543
 30
0.0
 11
15.0814403132
 21
3.9150700835
 31
0.0
  0
LINE
  5
476
100
AcDbEntity
  8
LAYER0
 62
         3
100
AcDbLine
 10
14.3318481095
 20
45.8845575271
 30
0.0
 11
15.0690513946
 21
46.3101831195
 31
0.0
  0
LINE
  5
477
100
AcDbEntity
  8
LAYER0
 62
         3
100
AcDbLine
 10
13.6573936142
 20
45.4951603828
 30
0.0
 11
14.3318481095
 21
45.8845575271
 31
0.0
  0
LINE
  5
478
100
AcDbEntity
  8
LAYER0
 62
         3
100
AcDbLine
 10
13.051171536
 20
45.1451581833
 30
0.0
 11
13.6573936142
 21
45.4951603828
 31
0.0
  0
LINE
  5
479
100
AcDbEntity
  8
LAYER0
 62
         3
100
AcDbLine
 10
15.0786584527
 20
46.2935422478
 30
0.0
 11
15.0690513946
 21
46.3101831195
 31
0.0
  0
LINE
  5
47A
100
AcDbEntity
  8
LAYER0
 62
         3
100
AcDbLine
 10
15.6363730602
 20
42.8468738613
 30
0.0
 11
15.6851459578
 21
42.856481385
 31
0.0
  0
LINE
  5
47B
100
AcDbEntity
  8
LAYER0
 62
         3
100
AcDbLine
 10
13.7920870729
 20
-1.6076176031
 30
0.0
 11
13.9336639367
 21
-1.6372036258
 31
0.0
  0
LINE
  5
47C
100
AcDbEntity
  8
LAYER0
 62
         3
100
AcDbLine
 10
13.6891936235
 20
-1.5861154603
 30
0.0
 11
13.7920870729
 21
-1.6076176031
 31
0.0
  0
LINE
  5
47D
100
AcDbEntity
  8
LAYER0
 62
         3
100
AcDbLine
 10
15.0708861001
 20
-14.4405593234
 30
0.0
 11
14.7462657005
 21
-14.372721787
 31
0.0
  0
LINE
  5
47E
100
AcDbEntity
  8
LAYER0
 62
         3
100
AcDbLine
 10
15.3560300641
 20
-14.5001472043
 30
0.0
 11
15.0708861001
 21
-14.4405593234
 31
0.0
  0
LINE
  5
47F
100
AcDbEntity
  8
LAYER0
 62
         3
100
AcDbLine
 10
15.5943592362
 20
-14.549952473
 30
0.0
 11
15.3560300641
 21
-14.5001472043
 31
0.0
  0
LINE
  5
480
100
AcDbEntity
  8
LAYER0
 62
         3
100
AcDbLine
 10
15.7797403917
 20
-14.5886926981
 30
0.0
 11
15.5943592362
 21
-14.549952473
 31
0.0
  0
LINE
  5
481
100
AcDbEntity
  8
LAYER0
 62
         3
100
AcDbLine
 10
15.1648593419
 20
-16.7077225702
 30
0.0
 11
15.3297164761
 21
-16.7421731236
 31
0.0
  0
LINE
  5
482
100
AcDbEntity
  8
LAYER0
 62
         3
100
AcDbLine
 10
14.9564428538
 20
-16.6641683387
 30
0.0
 11
15.1648593419
 21
-16.7077225702
 31
0.0
  0
LINE
  5
483
100
AcDbEntity
  8
LAYER0
 62
         3
100
AcDbLine
 10
14.7088363119
 20
-16.6124249878
 30
0.0
 11
14.9564428538
 21
-16.6641683387
 31
0.0
  0
LINE
  5
484
100
AcDbEntity
  8
LAYER0
 62
         3
100
AcDbLine
 10
11.7089280211
 20
-13.7156765046
 30
0.0
 11
12.0076013081
 21
-13.7806250783
 31
0.0
  0
LINE
  5
485
100
AcDbEntity
  8
LAYER0
 62
         3
100
AcDbLine
 10
11.453510011
 20
-13.6601333576
 30
0.0
 11
11.7089280211
 21
-13.7156765046
 31
0.0
  0
LINE
  5
486
100
AcDbEntity
  8
LAYER0
 62
         3
100
AcDbLine
 10
11.2478153132
 20
-13.615403797
 30
0.0
 11
11.453510011
 21
-13.6601333576
 31
0.0
  0
LINE
  5
487
100
AcDbEntity
  8
LAYER0
 62
         3
100
AcDbLine
 10
11.0970537462
 20
-13.5826193797
 30
0.0
 11
11.2478153132
 21
-13.615403797
 31
0.0
  0
LINE
  5
488
100
AcDbEntity
  8
LAYER0
 62
         3
100
AcDbLine
 10
11.0050409384
 20
-13.5626108455
 30
0.0
 11
11.0970537462
 21
-13.5826193797
 31
0.0
  0
LINE
  5
489
100
AcDbEntity
  8
LAYER0
 62
         3
100
AcDbLine
 10
10.9741098531
 20
-13.5558839025
 30
0.0
 11
11.0050409384
 21
-13.5626108455
 31
0.0
  0
LINE
  5
48A
100
AcDbEntity
  8
LAYER0
 62
         3
100
AcDbLine
 10
13.3504622899
 20
-16.6763286176
 30
0.0
 11
13.0868784435
 21
-16.2734757247
 31
0.0
  0
LINE
  5
48B
100
AcDbEntity
  8
LAYER0
 62
         3
100
AcDbLine
 10
13.6091362037
 20
-17.0716769131
 30
0.0
 11
13.3504622899
 21
-16.6763286176
 31
0.0
  0
LINE
  5
48C
100
AcDbEntity
  8
LAYER0
 62
         3
100
AcDbLine
 10
13.8580815219
 20
-17.4521566438
 30
0.0
 11
13.6091362037
 21
-17.0716769131
 31
0.0
  0
LINE
  5
48D
100
AcDbEntity
  8
LAYER0
 62
         3
100
AcDbLine
 10
14.0926611893
 20
-17.8106795134
 30
0.0
 11
13.8580815219
 21
-17.4521566438
 31
0.0
  0
LINE
  5
48E
100
AcDbEntity
  8
LAYER0
 62
         3
100
AcDbLine
 10
14.3085045092
 20
-18.1405670079
 30
0.0
 11
14.0926611893
 21
-17.8106795134
 31
0.0
  0
LINE
  5
48F
100
AcDbEntity
  8
LAYER0
 62
         3
100
AcDbLine
 10
14.501590962
 20
-18.4356742608
 30
0.0
 11
14.3085045092
 21
-18.1405670079
 31
0.0
  0
LINE
  5
490
100
AcDbEntity
  8
LAYER0
 62
         3
100
AcDbLine
 10
14.6683247112
 20
-18.690503675
 30
0.0
 11
14.501590962
 21
-18.4356742608
 31
0.0
  0
LINE
  5
491
100
AcDbEntity
  8
LAYER0
 62
         3
100
AcDbLine
 10
14.8055983991
 20
-18.9003092306
 30
0.0
 11
14.6683247112
 21
-18.690503675
 31
0.0
  0
LINE
  5
492
100
AcDbEntity
  8
LAYER0
 62
         3
100
AcDbLine
 10
14.9108560108
 20
-19.0611812355
 30
0.0
 11
14.8055983991
 21
-18.9003092306
 31
0.0
  0
LINE
  5
493
100
AcDbEntity
  8
LAYER0
 62
         3
100
AcDbLine
 10
14.9238111735
 20
-19.0809802222
 30
0.0
 11
14.9108560108
 21
-19.0611812355
 31
0.0
  0
LINE
  5
494
100
AcDbEntity
  8
LAYER0
 62
         3
100
AcDbLine
 10
28.1892337188
 20
25.3564831731
 30
0.0
 11
28.2370566674
 21
25.3468756495
 31
0.0
  0
LINE
  5
495
100
AcDbEntity
  8
LAYER0
 62
         3
100
AcDbLine
 10
13.0716019594
 20
44.4583375869
 30
0.0
 11
12.5511714541
 21
44.1829082487
 31
0.0
  0
LINE
  5
496
100
AcDbEntity
  8
LAYER0
 62
         3
100
AcDbLine
 10
15.4431850933
 20
-14.5277190092
 30
0.0
 11
15.6340140201
 21
-14.5692159491
 31
0.0
  0
LINE
  5
497
100
AcDbEntity
  8
LAYER0
 62
         3
100
AcDbLine
 10
15.2010458805
 20
-14.4750638934
 30
0.0
 11
15.4431850933
 21
-14.5277190092
 31
0.0
  0
LINE
  5
498
100
AcDbEntity
  8
LAYER0
 62
         3
100
AcDbLine
 10
14.9137286753
 20
-14.4125842559
 30
0.0
 11
15.2010458805
 21
-14.4750638934
 31
0.0
  0
LINE
  5
499
100
AcDbEntity
  8
LAYER0
 62
         3
100
AcDbLine
 10
14.5885085039
 20
-14.3418624135
 30
0.0
 11
14.9137286753
 21
-14.4125842559
 31
0.0
  0
LINE
  5
49A
100
AcDbEntity
  8
LAYER0
 62
         3
100
AcDbLine
 10
14.3399776243
 20
-14.2878177645
 30
0.0
 11
14.5885085039
 21
-14.3418624135
 31
0.0
  0
LINE
  5
49B
100
AcDbEntity
  8
LAYER0
 62
         3
100
AcDbLine
 10
19.0137084391
 20
4.0205675108
 30
0.0
 11
19.2399567277
 21
4.0266378713
 31
0.0
  0
LINE
  5
49C
100
AcDbEntity
  8
LAYER0
 62
         3
100
AcDbLine
 10
18.7342876852
 20
4.0130712954
 30
0.0
 11
19.0137084391
 21
4.0205675108
 31
0.0
  0
LINE
  5
49D
100
AcDbEntity
  8
LAYER0
 62
         3
100
AcDbLine
 10
31.4579175137
 20
44.7614979861
 30
0.0
 11
30.8358676084
 21
45.0907093403
 31
0.0
  0
LINE
  5
49E
100
AcDbEntity
  8
LAYER0
 62
         3
100
AcDbLine
 10
32.0307405018
 20
44.4583375869
 30
0.0
 11
31.4579175137
 21
44.7614979861
 31
0.0
  0
LINE
  5
49F
100
AcDbEntity
  8
LAYER0
 62
         3
100
AcDbLine
 10
32.551171007
 20
44.1829082487
 30
0.0
 11
32.0307405018
 21
44.4583375869
 31
0.0
  0
LINE
  5
4A0
100
AcDbEntity
  8
LAYER0
 62
         3
100
AcDbLine
 10
30.0332910665
 20
46.3101831195
 30
0.0
 11
30.0236840085
 21
46.2935422478
 31
0.0
  0
LINE
  5
4A1
100
AcDbEntity
  8
LAYER0
 62
         3
100
AcDbLine
 10
32.551171007
 20
44.1829082487
 30
0.0
 11
32.551171007
 21
21.8564835308
 31
0.0
  0
CIRCLE
  5
4A2
100
AcDbEntity
  8
LAYER0
 62
         3
100
AcDbCircle
 10
22.5511712306
 20
44.8564830089
 30
0.0
 40
6.6
210
0.0
220
0.0
230
1.0
  0
LINE
  5
4A3
100
AcDbEntity
  8
LAYER0
 62
         3
100
AcDbLine
 10
18.8420677841
 20
34.1293071327
 30
0.0
 11
18.8420677841
 21
39.3973109243
 31
0.0
  0
LINE
  5
4A4
100
AcDbEntity
  8
LAYER0
 62
         3
100
AcDbLine
 10
26.260274677
 20
34.1293071327
 30
0.0
 11
26.260274677
 21
39.3973109243
 31
0.0
  0
LINE
  5
4A5
100
AcDbEntity
  8
LAYER0
 62
         3
100
AcDbLine
 10
30.7359963008
 20
43.3564823983
 30
0.0
 11
30.7359963008
 21
27.356483501
 31
0.0
  0
LINE
  5
4A6
100
AcDbEntity
  8
LAYER0
 62
         3
100
AcDbLine
 10
14.3663461604
 20
27.356483501
 30
0.0
 11
14.3663461604
 21
43.3564823983
 31
0.0
  0
LINE
  5
4A7
100
AcDbEntity
  8
LAYER0
 62
         3
100
AcDbLine
 10
14.9573806957
 20
42.4219970522
 30
0.0
 11
14.9573806957
 21
27.356483501
 31
0.0
  0
LINE
  5
4A8
100
AcDbEntity
  8
LAYER0
 62
         3
100
AcDbLine
 10
30.1449617654
 20
27.356483501
 30
0.0
 11
30.1449617654
 21
42.4219970522
 31
0.0
  0
ARC
  5
4A9
100
AcDbEntity
  8
LAYER0
 62
         3
100
AcDbCircle
 10
16.6666156266
 20
0.8564830089
 30
0.0
 40
1.0
210
0.0
220
0.0
230
1.0
100
AcDbArc
 50
244.1082977057
 51
281.4686051939
  0
LINE
  5
4AA
100
AcDbEntity
  8
LAYER0
 62
         3
100
AcDbLine
 10
16.8711722181
 20
1.8353378331
 30
0.0
 11
16.8105417215
 21
1.8460713258
 31
0.0
  0
LINE
  5
4AB
100
AcDbEntity
  8
LAYER0
 62
         3
100
AcDbLine
 10
19.2106917784
 20
2.4463501689
 30
0.0
 11
18.1722289235
 21
-2.5229589152
 31
0.0
  0
LINE
  5
4AC
100
AcDbEntity
  8
LAYER0
 62
         3
100
AcDbLine
 10
31.5511708431
 20
20.8564833669
 30
0.0
 11
13.551171618
 21
20.8564833669
 31
0.0
  0
LINE
  5
4AD
100
AcDbEntity
  8
LAYER0
 62
         3
100
AcDbLine
 10
16.9131087423
 20
25.3564831731
 30
0.0
 11
28.1892337188
 21
25.3564831731
 31
0.0
  0
LINE
  5
4AE
100
AcDbEntity
  8
LAYER0
 62
         3
100
AcDbLine
 10
16.7511713043
 20
26.8564824877
 30
0.0
 11
28.3511711568
 21
26.8564824877
 31
0.0
  0
LINE
  5
4AF
100
AcDbEntity
  8
LAYER0
 62
         3
100
AcDbLine
 10
13.6267447196
 20
-1.5730653028
 30
0.0
 11
13.6891936235
 21
-1.5861154603
 31
0.0
  0
LINE
  5
4B0
100
AcDbEntity
  8
LAYER0
 62
         3
100
AcDbLine
 10
13.6058095195
 20
-1.5686901821
 30
0.0
 11
13.6267447196
 21
-1.5730653028
 31
0.0
  0
LINE
  5
4B1
100
AcDbEntity
  8
LAYER0
 62
         3
100
AcDbLine
 10
13.4713218831
 20
-14.0989222633
 30
0.0
 11
13.4776390441
 21
-14.1002959641
 31
0.0
  0
LINE
  5
4B2
100
AcDbEntity
  8
LAYER0
 62
         3
100
AcDbLine
 10
13.0832118266
 20
-14.0145248803
 30
0.0
 11
13.4713218831
 21
-14.0989222633
 31
0.0
  0
LINE
  5
4B3
100
AcDbEntity
  8
LAYER0
 62
         3
100
AcDbLine
 10
12.7035553851
 20
-13.9319649967
 30
0.0
 11
13.0832118266
 21
-14.0145248803
 31
0.0
  0
LINE
  5
4B4
100
AcDbEntity
  8
LAYER0
 62
         3
100
AcDbLine
 10
12.3419656702
 20
-13.8533352944
 30
0.0
 11
12.7035553851
 21
-13.9319649967
 31
0.0
  0
LINE
  5
4B5
100
AcDbEntity
  8
LAYER0
 62
         3
100
AcDbLine
 10
12.0076013081
 20
-13.7806250783
 30
0.0
 11
12.3419656702
 21
-13.8533352944
 31
0.0
  0
LINE
  5
4B6
100
AcDbEntity
  8
LAYER0
 62
         3
100
AcDbLine
 10
15.3297164761
 20
-16.7421731236
 30
0.0
 11
15.7797403917
 21
-14.5886926981
 31
0.0
  0
LINE
  5
4B7
100
AcDbEntity
  8
LAYER0
 62
         3
100
AcDbLine
 10
16.7511713043
 20
26.8564824877
 30
0.0
 11
16.7511713043
 21
25.8366153506
 31
0.0
  0
ARC
  5
4B8
100
AcDbEntity
  8
LAYER0
 62
         3
100
AcDbCircle
 10
22.5511712306
 20
-19.1435169911
 30
0.0
 40
12.5
210
0.0
220
-0.0
230
1.0
100
AcDbArc
 50
167.7316007187
 51
0.0
  0
ARC
  5
4B9
100
AcDbEntity
  8
LAYER0
 62
         3
100
AcDbCircle
 10
22.5511712306
 20
-19.1435169911
 30
0.0
 40
7.5
210
0.0
220
-0.0
230
1.0
100
AcDbArc
 50
180.7830835164
 51
12.2684023518
  0
ARC
  5
4BA
100
AcDbEntity
  8
LAYER0
 62
         3
100
AcDbCircle
 10
22.5511712306
 20
9.3564830089
 30
0.0
 40
9.0
210
0.0
220
0.0
230
1.0
100
AcDbArc
 50
109.4712225019
 51
200.0499729957
  0
LINE
  5
4BB
100
AcDbEntity
  8
LAYER0
 62
         3
100
AcDbLine
 10
15.0226244986
 20
-19.2320034909
 30
0.0
 11
18.5000833407
 21
-2.5914723589
 31
0.0
  0
LINE
  5
4BC
100
AcDbEntity
  8
LAYER0
 62
         3
100
AcDbLine
 10
15.2090310403
 20
-16.5235414239
 30
0.0
 11
15.6340140201
 21
-14.5692159491
 31
0.0
  0
LINE
  5
4BD
100
AcDbEntity
  8
LAYER0
 62
         3
100
AcDbLine
 10
16.9808484897
 20
1.8058288773
 30
0.0
 11
16.8711722181
 21
1.8353378331
 31
0.0
  0
LINE
  5
4BE
100
AcDbEntity
  8
LAYER0
 62
         3
100
AcDbLine
 10
15.3190514356
 20
42.3587304471
 30
0.0
 11
14.9573806957
 21
42.4219970522
 31
0.0
  0
LINE
  5
4BF
100
AcDbEntity
  8
LAYER0
 62
         3
100
AcDbLine
 10
16.2614972614
 20
42.856481385
 30
0.0
 11
15.6851459578
 21
42.856481385
 31
0.0
  0
LINE
  5
4C0
100
AcDbEntity
  8
LAYER0
 62
         3
100
AcDbLine
 10
15.0690513946
 20
46.3101831195
 30
0.0
 11
16.320219478
 21
47.0325429854
 31
0.0
  0
CIRCLE
  5
4C1
100
AcDbEntity
  8
LAYER0
 62
         3
100
AcDbCircle
 10
22.5511712306
 20
44.8564830089
 30
0.0
 40
4.2
210
0.0
220
0.0
230
1.0
  0
LINE
  5
4C2
100
AcDbEntity
  8
LAYER0
 62
         3
100
AcDbLine
 10
15.2825873629
 20
42.8892378626
 30
0.0
 11
15.5690510109
 21
42.8576064227
 31
0.0
  0
LINE
  5
4C3
100
AcDbEntity
  8
LAYER0
 62
         3
100
AcDbLine
 10
14.9343132325
 20
43.3564823983
 30
0.0
 11
15.5690510109
 21
43.3564823983
 31
0.0
  0
LINE
  5
4C4
100
AcDbEntity
  8
LAYER0
 62
         3
100
AcDbLine
 10
16.0047442004
 20
45.6957039354
 30
0.0
 11
15.5690510109
 21
45.4441574333
 31
0.0
  0
LINE
  5
4C5
100
AcDbEntity
  8
LAYER0
 62
         3
100
AcDbLine
 10
15.5690510109
 20
45.4441574333
 30
0.0
 11
15.5690510109
 21
43.3564823983
 31
0.0
  0
LINE
  5
4C6
100
AcDbEntity
  8
LAYER0
 62
         3
100
AcDbLine
 10
15.5690510109
 20
43.3564823983
 30
0.0
 11
16.1238855034
 21
43.3564823983
 31
0.0
  0
LINE
  5
4C7
100
AcDbEntity
  8
LAYER0
 62
         3
100
AcDbLine
 10
14.9343132325
 20
45.4441574333
 30
0.0
 11
15.5690510109
 21
45.4441574333
 31
0.0
  0
LINE
  5
4C8
100
AcDbEntity
  8
LAYER0
 62
         3
100
AcDbLine
 10
13.6444249474
 20
44.7614979861
 30
0.0
 11
13.0716019594
 21
44.4583375869
 31
0.0
  0
LINE
  5
4C9
100
AcDbEntity
  8
LAYER0
 62
         3
100
AcDbLine
 10
14.2664748527
 20
45.0907093403
 30
0.0
 11
13.6444249474
 21
44.7614979861
 31
0.0
  0
LINE
  5
4CA
100
AcDbEntity
  8
LAYER0
 62
         3
100
AcDbLine
 10
14.9343132325
 20
45.4441574333
 30
0.0
 11
14.2664748527
 21
45.0907093403
 31
0.0
  0
LINE
  5
4CB
100
AcDbEntity
  8
LAYER0
 62
         3
100
AcDbLine
 10
31.4449488469
 20
45.4951603828
 30
0.0
 11
32.0511709251
 21
45.1451581833
 31
0.0
  0
LINE
  5
4CC
100
AcDbEntity
  8
LAYER0
 62
         3
100
AcDbLine
 10
30.7704943516
 20
45.8845575271
 30
0.0
 11
31.4449488469
 21
45.4951603828
 31
0.0
  0
LINE
  5
4CD
100
AcDbEntity
  8
LAYER0
 62
         3
100
AcDbLine
 10
30.0332910665
 20
46.3101831195
 30
0.0
 11
30.7704943516
 21
45.8845575271
 31
0.0
  0
LINE
  5
4CE
100
AcDbEntity
  8
LAYER0
 62
         3
100
AcDbLine
 10
30.8358676084
 20
45.0907093403
 30
0.0
 11
30.1680292286
 21
45.4441574333
 31
0.0
  0
ARC
  5
4CF
100
AcDbEntity
  8
LAYER0
 62
         3
100
AcDbCircle
 10
7.0511712306
 20
3.6996287594
 30
0.0
 40
7.5
210
-0.0
220
0.0
230
1.0
100
AcDbArc
 50
347.7315976482
 51
20.0499760662
  0
ARC
  5
4D0
100
AcDbEntity
  8
LAYER0
 62
         3
100
AcDbCircle
 10
16.6666156266
 20
0.8564830089
 30
0.0
 40
2.5
210
0.0
220
0.0
230
1.0
100
AcDbArc
 50
167.7316007187
 51
196.4169970812
  0
LINE
  5
4D1
100
AcDbEntity
  8
LAYER0
 62
         3
100
AcDbLine
 10
14.6797147863
 20
2.0407438209
 30
0.0
 11
14.2685405262
 21
0.1499177819
 31
0.0
  0
ARC
  5
4D2
100
AcDbEntity
  8
LAYER0
 62
         3
100
AcDbCircle
 10
7.0511712306
 20
3.6996287594
 30
0.0
 40
7.8068287801
210
-0.0
220
0.0
230
1.0
100
AcDbArc
 50
347.7315976482
 51
1.5368016567
  0
LINE
  5
4D3
100
AcDbEntity
  8
LAYER0
 62
         3
100
AcDbLine
 10
13.9336639367
 20
-1.6372036258
 30
0.0
 11
14.972126326
 21
3.3321049926
 31
0.0
  0
ARC
  5
4D4
100
AcDbEntity
  8
LAYER0
 62
         3
100
AcDbCircle
 10
22.5511712306
 20
-19.1435169911
 30
0.0
 40
12.5
210
0.0
220
0.0
230
1.0
100
AcDbArc
 50
0.0
 51
12.2684023518
  0
ARC
  5
4D5
100
AcDbEntity
  8
LAYER0
 62
         3
100
AcDbCircle
 10
16.6666156266
 20
0.8564830089
 30
0.0
 40
2.5
210
0.0
220
0.0
230
1.0
100
AcDbArc
 50
319.0461951448
 51
347.7315976482
  0
LINE
  5
4D6
100
AcDbEntity
  8
LAYER0
 62
         3
100
AcDbLine
 10
18.5302027785
 20
-0.8099628682
 30
0.0
 11
18.5547114633
 21
-0.7821428659
 31
0.0
  0
LINE
  5
4D7
100
AcDbEntity
  8
LAYER0
 62
         3
100
AcDbLine
 10
13.6058095195
 20
-1.5686901821
 30
0.0
 11
11.0952767827
 21
-13.5822328808
 31
0.0
  0
LINE
  5
4D8
100
AcDbEntity
  8
LAYER0
 62
         3
100
AcDbLine
 10
10.9741098531
 20
-13.5558839025
 30
0.0
 11
10.3366344519
 21
-16.4873725804
 31
0.0
  0
LINE
  5
4D9
100
AcDbEntity
  8
LAYER0
 62
         3
100
AcDbLine
 10
12.9920334839
 20
-16.0414385679
 30
0.0
 11
13.1496048816
 21
-16.2865840899
 31
0.0
  0
LINE
  5
4DA
100
AcDbEntity
  8
LAYER0
 62
         3
100
AcDbLine
 10
14.2685405262
 20
0.1499177819
 30
0.0
 11
14.2916373261
 21
0.0757919555
 31
0.0
  0
LINE
  5
4DB
100
AcDbEntity
  8
LAYER0
 62
         3
100
AcDbLine
 10
19.1095229056
 20
0.3252541577
 30
0.0
 11
19.265707564
 21
1.0434845393
 31
0.0
  0
ARC
  5
4DC
100
AcDbEntity
  8
LAYER0
 62
         3
100
AcDbCircle
 10
38.0511712306
 20
3.6996287594
 30
0.0
 40
12.5
210
0.0
220
0.0
230
1.0
100
AcDbArc
 50
159.9500270043
 51
192.2683992813
  0
ARC
  5
4DD
100
AcDbEntity
  8
LAYER0
 62
         3
100
AcDbCircle
 10
38.0511712306
 20
3.6996287594
 30
0.0
 40
7.5
210
0.0
220
0.0
230
1.0
100
AcDbArc
 50
159.9500270043
 51
179.9999969295
  0
ARC
  5
4DE
100
AcDbEntity
  8
LAYER0
 62
         3
100
AcDbCircle
 10
38.0511712306
 20
3.6996287594
 30
0.0
 40
7.5
210
0.0
220
0.0
230
1.0
100
AcDbArc
 50
179.9999969295
 51
192.2683992813
  0
LINE
  5
4DF
100
AcDbEntity
  8
LAYER0
 62
         3
100
AcDbLine
 10
34.7657080092
 20
-16.4873725804
 30
0.0
 11
30.7224492826
 21
2.1059424547
 31
0.0
  0
LINE
  5
4E0
100
AcDbEntity
  8
LAYER0
 62
         3
100
AcDbLine
 10
25.8366348971
 20
1.0434845393
 30
0.0
 11
29.8798929252
 21
-17.5498309615
 31
0.0
  0
LINE
  5
4E1
100
AcDbEntity
  8
LAYER0
 62
         3
100
AcDbLine
 10
16.0511710964
 20
28.3564818022
 30
0.0
 11
16.0511710964
 21
27.356483501
 31
0.0
  0
ARC
  5
4E2
100
AcDbEntity
  8
LAYER0
 62
         3
100
AcDbCircle
 10
22.5511712306
 20
28.3564830089
 30
0.0
 40
6.5
210
0.0
220
0.0
230
1.0
100
AcDbArc
 50
126.7624252667
 51
179.9999969295
  0
ARC
  5
4E3
100
AcDbEntity
  8
LAYER0
 62
         3
100
AcDbCircle
 10
18.0511712306
 20
27.3564830089
 30
0.0
 40
2.0
210
0.0
220
0.0
230
1.0
100
AcDbArc
 50
179.9999969295
 51
269.9999984648
  0
LINE
  5
4E4
100
AcDbEntity
  8
LAYER0
 62
         3
100
AcDbLine
 10
28.4343666681
 20
24.8564821599
 30
0.0
 11
16.6679757931
 21
24.8564821599
 31
0.0
  0
LINE
  5
4E5
100
AcDbEntity
  8
LAYER0
 62
         3
100
AcDbLine
 10
15.8011710555
 20
27.356483501
 30
0.0
 11
15.8011710555
 21
28.3564818022
 31
0.0
  0
ARC
  5
4E6
100
AcDbEntity
  8
LAYER0
 62
         3
100
AcDbCircle
 10
22.8011712306
 20
28.3564830089
 30
0.0
 40
7.0
210
0.0
220
0.0
230
1.0
100
AcDbArc
 50
124.4430107642
 51
179.9999969295
  0
LINE
  5
4E7
100
AcDbEntity
  8
LAYER0
 62
         3
100
AcDbLine
 10
12.5511714541
 20
44.1829082487
 30
0.0
 11
12.5511714541
 21
21.8564835308
 31
0.0
  0
LINE
  5
4E8
100
AcDbEntity
  8
LAYER0
 62
         3
100
AcDbLine
 10
18.8420677841
 20
34.1293071327
 30
0.0
 11
18.8338379193
 21
34.0504650888
 31
0.0
  0
LINE
  5
4E9
100
AcDbEntity
  8
LAYER0
 62
         3
100
AcDbLine
 10
26.2685045418
 20
34.0504650888
 30
0.0
 11
26.260274677
 21
34.1293071327
 31
0.0
  0
ARC
  5
4EA
100
AcDbEntity
  8
LAYER0
 62
         3
100
AcDbCircle
 10
22.5511712306
 20
28.3564830089
 30
0.0
 40
6.5
210
0.0
220
0.0
230
1.0
100
AcDbArc
 50
0.0
 51
53.2375778037
  0
LINE
  5
4EB
100
AcDbEntity
  8
LAYER0
 62
         3
100
AcDbLine
 10
29.0511713647
 20
27.356483501
 30
0.0
 11
29.0511713647
 21
28.3564818022
 31
0.0
  0
ARC
  5
4EC
100
AcDbEntity
  8
LAYER0
 62
         3
100
AcDbCircle
 10
22.3011712306
 20
28.3564830089
 30
0.0
 40
7.0
210
0.0
220
0.0
230
1.0
100
AcDbArc
 50
0.0
 51
55.5569923063
  0
LINE
  5
4ED
100
AcDbEntity
  8
LAYER0
 62
         3
100
AcDbLine
 10
29.3011714056
 20
28.3564818022
 30
0.0
 11
29.3011714056
 21
27.356483501
 31
0.0
  0
ARC
  5
4EE
100
AcDbEntity
  8
LAYER0
 62
         3
100
AcDbCircle
 10
22.5511712306
 20
28.3564830089
 30
0.0
 40
6.8
210
0.0
220
-0.0
230
1.0
100
AcDbArc
 50
56.8613687957
 51
123.1386342748
  0
LINE
  5
4EF
100
AcDbEntity
  8
LAYER0
 62
         3
100
AcDbLine
 10
28.3511711568
 20
25.8366153506
 30
0.0
 11
28.3511711568
 21
26.8564824877
 31
0.0
  0
LINE
  5
4F0
100
AcDbEntity
  8
LAYER0
 62
         3
100
AcDbLine
 10
19.5511712045
 20
11.356482741
 30
0.0
 11
25.5511712566
 21
11.356482741
 31
0.0
  0
ARC
  5
4F1
100
AcDbEntity
  8
LAYER0
 62
         3
100
AcDbCircle
 10
22.5511712306
 20
9.3564830089
 30
0.0
 40
9.0
210
-0.0
220
0.0
230
1.0
100
AcDbArc
 50
339.9500239338
 51
70.5287805686
  0
ARC
  5
4F2
100
AcDbEntity
  8
LAYER0
 62
         3
100
AcDbCircle
 10
22.5511712306
 20
9.3564830089
 30
0.0
 40
4.0
210
-0.0
220
0.0
230
1.0
100
AcDbArc
 50
339.9500239338
 51
41.4096228157
  0
ARC
  5
4F3
100
AcDbEntity
  8
LAYER0
 62
         3
100
AcDbCircle
 10
22.5511712306
 20
9.3564830089
 30
0.0
 40
4.0
210
0.0
220
0.0
230
1.0
100
AcDbArc
 50
138.5903802548
 51
200.0499729957
  0
ARC
  5
4F4
100
AcDbEntity
  8
LAYER0
 62
         3
100
AcDbCircle
 10
27.0511712306
 20
27.3564830089
 30
0.0
 40
2.0
210
-0.0
220
0.0
230
1.0
100
AcDbArc
 50
269.9999984648
 51
0.0
  0
LINE
  5
4F5
100
AcDbEntity
  8
LAYER0
 62
         3
100
AcDbLine
 10
25.5511712566
 20
26.8564824877
 30
0.0
 11
25.5511712566
 21
28.8564828155
 31
0.0
  0
LINE
  5
4F6
100
AcDbEntity
  8
LAYER0
 62
         3
100
AcDbLine
 10
19.5511712045
 20
26.8564824877
 30
0.0
 11
19.5511712045
 21
28.8564828155
 31
0.0
  0
LINE
  5
4F7
100
AcDbEntity
  8
LAYER0
 62
         3
100
AcDbLine
 10
14.3663461604
 20
43.3564823983
 30
0.0
 11
14.9343132325
 21
43.3564823983
 31
0.0
  0
LINE
  5
4F8
100
AcDbEntity
  8
LAYER0
 62
         3
100
AcDbLine
 10
14.9343132325
 20
43.3564823983
 30
0.0
 11
14.9343132325
 21
45.4441574333
 31
0.0
  0
LINE
  5
4F9
100
AcDbEntity
  8
LAYER0
 62
         3
100
AcDbLine
 10
30.1449617654
 20
42.4219970522
 30
0.0
 11
29.7832910255
 21
42.3587304471
 31
0.0
  0
LINE
  5
4FA
100
AcDbEntity
  8
LAYER0
 62
         3
100
AcDbLine
 10
16.4429799006
 20
42.356484097
 30
0.0
 11
15.4351459168
 21
42.356484097
 31
0.0
  0
ARC
  5
4FB
100
AcDbEntity
  8
LAYER0
 62
         3
100
AcDbCircle
 10
7.0511712306
 20
3.6996287594
 30
0.0
 40
12.5
210
0.0
220
0.0
230
1.0
100
AcDbArc
 50
0.0
 51
20.0499760662
  0
ARC
  5
4FC
100
AcDbEntity
  8
LAYER0
 62
         3
100
AcDbCircle
 10
7.0511712306
 20
3.6996287594
 30
0.0
 40
12.5
210
-0.0
220
0.0
230
1.0
100
AcDbArc
 50
347.7315976482
 51
0.0
  0
LINE
  5
4FD
100
AcDbEntity
  8
LAYER0
 62
         3
100
AcDbLine
 10
18.5547114633
 20
-0.7821428659
 30
0.0
 11
18.9658859562
 21
1.1086831731
 31
0.0
  0
ARC
  5
4FE
100
AcDbEntity
  8
LAYER0
 62
         3
100
AcDbCircle
 10
7.0511712306
 20
3.6996287594
 30
0.0
 40
12.1931712199
210
-0.0
220
0.0
230
1.0
100
AcDbArc
 50
354.3822256056
 51
1.5368016567
  0
ARC
  5
4FF
100
AcDbEntity
  8
LAYER0
 62
         3
100
AcDbCircle
 10
7.0511712306
 20
3.6996287594
 30
0.0
 40
12.1931712199
210
0.0
220
0.0
230
1.0
100
AcDbArc
 50
347.7315976482
 51
352.5013641398
  0
LINE
  5
500
100
AcDbEntity
  8
LAYER0
 62
         3
100
AcDbLine
 10
14.3798931785
 20
2.1059424547
 30
0.0
 11
14.2237085201
 21
1.3877116074
 31
0.0
  0
LINE
  5
501
100
AcDbEntity
  8
LAYER0
 62
         3
100
AcDbLine
 10
29.5332914502
 20
43.3564823983
 30
0.0
 11
30.1680292286
 21
43.3564823983
 31
0.0
  0
LINE
  5
502
100
AcDbEntity
  8
LAYER0
 62
         3
100
AcDbLine
 10
29.5332914502
 20
45.4441574333
 30
0.0
 11
30.1680292286
 21
45.4441574333
 31
0.0
  0
LINE
  5
503
100
AcDbEntity
  8
LAYER0
 62
         3
100
AcDbLine
 10
28.9784569577
 20
43.3564823983
 30
0.0
 11
29.5332914502
 21
43.3564823983
 31
0.0
  0
LINE
  5
504
100
AcDbEntity
  8
LAYER0
 62
         3
100
AcDbLine
 10
29.5332914502
 20
43.3564823983
 30
0.0
 11
29.5332914502
 21
45.4441574333
 31
0.0
  0
LINE
  5
505
100
AcDbEntity
  8
LAYER0
 62
         3
100
AcDbLine
 10
29.5332914502
 20
45.4441574333
 30
0.0
 11
29.0975982607
 21
45.6957039354
 31
0.0
  0
LINE
  5
506
100
AcDbEntity
  8
LAYER0
 62
         3
100
AcDbLine
 10
29.6671965443
 20
42.356484097
 30
0.0
 11
28.6593625605
 21
42.356484097
 31
0.0
  0
LINE
  5
507
100
AcDbEntity
  8
LAYER0
 62
         3
100
AcDbLine
 10
29.4171965033
 20
42.856481385
 30
0.0
 11
28.8408451997
 21
42.856481385
 31
0.0
  0
LINE
  5
508
100
AcDbEntity
  8
LAYER0
 62
         3
100
AcDbLine
 10
-27.4156719561
 20
-14.0145232791
 30
0.0
 11
-27.3922231163
 21
-14.0871117247
 31
0.0
  0
LINE
  5
509
100
AcDbEntity
  8
LAYER0
 62
         3
100
AcDbLine
 10
-27.5012185912
 20
-13.931964094
 30
0.0
 11
-27.4156719561
 21
-14.0145232791
 31
0.0
  0
LINE
  5
50A
100
AcDbEntity
  8
LAYER0
 62
         3
100
AcDbLine
 10
-27.6473146978
 20
-13.8533338095
 30
0.0
 11
-27.5012185912
 21
-13.931964094
 31
0.0
  0
LINE
  5
50B
100
AcDbEntity
  8
LAYER0
 62
         3
100
AcDbLine
 10
-27.8502601313
 20
-13.7806235935
 30
0.0
 11
-27.6473146978
 21
-13.8533338095
 31
0.0
  0
LINE
  5
50C
100
AcDbEntity
  8
LAYER0
 62
         3
100
AcDbLine
 10
-28.104915621
 20
-13.715674787
 30
0.0
 11
-27.8502601313
 21
-13.7806235935
 31
0.0
  0
LINE
  5
50D
100
AcDbEntity
  8
LAYER0
 62
         3
100
AcDbLine
 10
-28.404832573
 20
-13.660132222
 30
0.0
 11
-28.104915621
 21
-13.715674787
 31
0.0
  0
LINE
  5
50E
100
AcDbEntity
  8
LAYER0
 62
         3
100
AcDbLine
 10
-28.7424158187
 20
-13.6154024286
 30
0.0
 11
-28.404832573
 21
-13.660132222
 31
0.0
  0
LINE
  5
50F
100
AcDbEntity
  8
LAYER0
 62
         3
100
AcDbLine
 10
-29.1091165154
 20
-13.5826180113
 30
0.0
 11
-28.7424158187
 21
-13.6154024286
 31
0.0
  0
LINE
  5
510
100
AcDbEntity
  8
LAYER0
 62
         3
100
AcDbLine
 10
-29.4956484167
 20
-13.5626092443
 30
0.0
 11
-29.1091165154
 21
-13.5826180113
 31
0.0
  0
LINE
  5
511
100
AcDbEntity
  8
LAYER0
 62
         3
100
AcDbLine
 10
-29.8922230604
 20
-13.5558828834
 30
0.0
 11
-29.4956484167
 21
-13.5626092443
 31
0.0
  0
LINE
  5
512
100
AcDbEntity
  8
LAYER0
 62
         3
100
AcDbLine
 10
-30.2887977041
 20
-13.5626092443
 30
0.0
 11
-29.8922230604
 21
-13.5558828834
 31
0.0
  0
ARC
  5
513
100
AcDbEntity
  8
LAYER0
 62
         3
100
AcDbCircle
 10
22.5511712306
 20
28.8564830089
 30
0.0
 40
3.0
210
0.0
220
-0.0
230
1.0
100
AcDbArc
 50
0.0
 51
179.9999969295
  0
LINE
  5
514
100
AcDbEntity
  8
LAYER0
 62
         3
100
AcDbLine
 10
25.5511712566
 20
20.0322163222
 30
0.0
 11
25.5511712566
 21
20.8564833669
 31
0.0
  0
LINE
  5
515
100
AcDbEntity
  8
LAYER0
 62
         3
100
AcDbLine
 10
19.5511712045
 20
20.0322163222
 30
0.0
 11
19.5511712045
 21
20.8564833669
 31
0.0
  0
LINE
  5
516
100
AcDbEntity
  8
LAYER0
 62
         3
100
AcDbLine
 10
25.5511712566
 20
11.356482741
 30
0.0
 11
25.5511712566
 21
20.0322163222
 31
0.0
  0
LINE
  5
517
100
AcDbEntity
  8
LAYER0
 62
         3
100
AcDbLine
 10
19.5511712045
 20
11.356482741
 30
0.0
 11
19.5511712045
 21
20.0322163222
 31
0.0
  0
CIRCLE
  5
518
100
AcDbEntity
  8
LAYER0
 62
         3
100
AcDbCircle
 10
22.5511712306
 20
28.8564830089
 30
0.0
 40
2.0
210
0.0
220
0.0
230
1.0
  0
ARC
  5
519
100
AcDbEntity
  8
LAYER0
 62
         3
100
AcDbCircle
 10
22.5511712306
 20
28.3564830089
 30
0.0
 40
6.5
210
0.0
220
-0.0
230
1.0
100
AcDbArc
 50
53.2375778037
 51
126.7624252667
  0
LINE
  5
51A
100
AcDbEntity
  8
LAYER0
 62
         3
100
AcDbLine
 10
-32.3687741647
 20
-14.0145232791
 30
0.0
 11
-32.2832275297
 21
-13.931964094
 31
0.0
  0
LINE
  5
51B
100
AcDbEntity
  8
LAYER0
 62
         3
100
AcDbLine
 10
-32.3922230045
 20
-14.0871117247
 30
0.0
 11
-32.3687741647
 21
-14.0145232791
 31
0.0
  0
LINE
  5
51C
100
AcDbEntity
  8
LAYER0
 62
         3
100
AcDbLine
 10
-27.4230021632
 20
1.4916124864
 30
0.0
 11
-27.4587998747
 21
1.4529346599
 31
0.0
  0
LINE
  5
51D
100
AcDbEntity
  8
LAYER0
 62
         3
100
AcDbLine
 10
-27.3922231163
 20
1.5747143997
 30
0.0
 11
-27.4230021632
 21
1.4916124864
 31
0.0
  0
LINE
  5
51E
100
AcDbEntity
  8
LAYER0
 62
         3
100
AcDbLine
 10
-32.3614439576
 20
1.4916124864
 30
0.0
 11
-32.3922230045
 21
1.5747143997
 31
0.0
  0
LINE
  5
51F
100
AcDbEntity
  8
LAYER0
 62
         3
100
AcDbLine
 10
-32.3325536328
 20
1.4593440218
 30
0.0
 11
-32.3614439576
 21
1.4916124864
 31
0.0
  0
LINE
  5
520
100
AcDbEntity
  8
LAYER0
 62
         3
100
AcDbLine
 10
-32.3922230045
 20
-0.1106730552
 30
0.0
 11
-32.3922230045
 21
-14.0871117247
 31
0.0
  0
LINE
  5
521
100
AcDbEntity
  8
LAYER0
 62
         3
100
AcDbLine
 10
-32.3922230045
 20
3.7927932216
 30
0.0
 11
-32.3922230045
 21
1.8254227115
 31
0.0
  0
LINE
  5
522
100
AcDbEntity
  8
LAYER0
 62
         3
100
AcDbLine
 10
-27.3922231163
 20
1.8222320004
 30
0.0
 11
-27.3922231163
 21
3.7927932216
 31
0.0
  0
LINE
  5
523
100
AcDbEntity
  8
LAYER0
 62
         3
100
AcDbLine
 10
-27.3922231163
 20
-14.0871117247
 30
0.0
 11
-27.3922231163
 21
-0.1222857164
 31
0.0
  0
LINE
  5
524
100
AcDbEntity
  8
LAYER0
 62
         3
100
AcDbLine
 10
-27.4697953018
 20
3.8564845099
 30
0.0
 11
-28.6422230883
 21
3.8564845099
 31
0.0
  0
LINE
  5
525
100
AcDbEntity
  8
LAYER0
 62
         3
100
AcDbLine
 10
-31.1422230325
 20
3.8564845099
 30
0.0
 11
-32.3013187035
 21
3.8564845099
 31
0.0
  0
ARC
  5
526
100
AcDbEntity
  8
LAYER0
 62
         3
100
AcDbCircle
 10
-29.8922230604
 20
-29.1435157308
 30
0.0
 40
2.5
210
0.0
220
-0.0
230
1.0
100
AcDbArc
 50
179.9999969295
 51
0.0
  0
LINE
  5
527
100
AcDbEntity
  8
LAYER0
 62
         3
100
AcDbLine
 10
-27.3922231163
 20
-29.1435157308
 30
0.0
 11
-27.3922231163
 21
-14.0871117247
 31
0.0
  0
LINE
  5
528
100
AcDbEntity
  8
LAYER0
 62
         3
100
AcDbLine
 10
-32.3922230045
 20
-14.0871117247
 30
0.0
 11
-32.3922230045
 21
-29.1435157308
 31
0.0
  0
LINE
  5
529
100
AcDbEntity
  8
LAYER0
 62
         3
100
AcDbLine
 10
-27.3922231163
 20
3.9678203984
 30
0.0
 11
-27.3922231163
 21
7.1280269994
 31
0.0
  0
LINE
  5
52A
100
AcDbEntity
  8
LAYER0
 62
         3
100
AcDbLine
 10
-32.3922230045
 20
7.1280269994
 30
0.0
 11
-32.3922230045
 21
3.9678203984
 31
0.0
  0
LINE
  5
52B
100
AcDbEntity
  8
LAYER0
 62
         3
100
AcDbLine
 10
-27.3922231163
 20
1.5747143997
 30
0.0
 11
-27.3922231163
 21
1.8222320004
 31
0.0
  0
LINE
  5
52C
100
AcDbEntity
  8
LAYER0
 62
         3
100
AcDbLine
 10
12.5511714541
 20
44.1829082487
 30
0.0
 11
12.5511714541
 21
44.2791324971
 31
0.0
  0
LINE
  5
52D
100
AcDbEntity
  8
LAYER0
 62
         3
100
AcDbLine
 10
28.7821229831
 20
47.0325429854
 30
0.0
 11
30.0332910665
 21
46.3101831195
 31
0.0
  0
CIRCLE
  5
52E
100
AcDbEntity
  8
LAYER0
 62
         3
100
AcDbCircle
 10
22.5511712306
 20
44.8564830089
 30
0.0
 40
3.9
210
0.0
220
0.0
230
1.0
  0
LINE
  5
52F
100
AcDbEntity
  8
LAYER0
 62
         3
100
AcDbLine
 10
32.551171007
 20
44.2791324971
 30
0.0
 11
32.551171007
 21
44.1829082487
 31
0.0
  0
LINE
  5
530
100
AcDbEntity
  8
LAYER0
 62
         3
100
AcDbLine
 10
30.1680292286
 20
45.4441574333
 30
0.0
 11
30.1680292286
 21
43.3564823983
 31
0.0
  0
LINE
  5
531
100
AcDbEntity
  8
LAYER0
 62
         3
100
AcDbLine
 10
30.1680292286
 20
43.3564823983
 30
0.0
 11
30.7359963008
 21
43.3564823983
 31
0.0
  0
LINE
  5
532
100
AcDbEntity
  8
LAYER0
 62
         3
100
AcDbLine
 10
29.5332914502
 20
42.8576064227
 30
0.0
 11
29.8197550983
 21
42.8892378626
 31
0.0
  0
LINE
  5
533
100
AcDbEntity
  8
LAYER0
 62
         3
100
AcDbLine
 10
-28.6422230883
 20
3.8564845099
 30
0.0
 11
-28.6422230883
 21
3.3328111394
 31
0.0
  0
LINE
  5
534
100
AcDbEntity
  8
LAYER0
 62
         3
100
AcDbLine
 10
-31.1422230325
 20
3.3328111394
 30
0.0
 11
-31.1422230325
 21
3.8564845099
 31
0.0
  0
ARC
  5
535
100
AcDbEntity
  8
LAYER0
 62
         3
100
AcDbCircle
 10
-28.3624237608
 20
11.0154380007
 30
0.0
 40
7.1140848434
210
0.0
220
0.0
230
1.0
100
AcDbArc
 50
267.3428921298
 51
277.8382764306
  0
LINE
  5
536
100
AcDbEntity
  8
LAYER0
 62
         3
100
AcDbLine
 10
-28.6922230034
 20
3.9090017899
 30
0.0
 11
-28.6922230034
 21
2.0407454221
 31
0.0
  0
LINE
  5
537
100
AcDbEntity
  8
LAYER0
 62
         3
100
AcDbLine
 10
-31.0922231174
 20
2.0407454221
 30
0.0
 11
-31.0922231174
 21
3.9090017899
 31
0.0
  0
ARC
  5
538
100
AcDbEntity
  8
LAYER0
 62
         3
100
AcDbCircle
 10
-31.42202236
 20
11.0154380007
 30
0.0
 40
7.1140848434
210
0.0
220
0.0
230
1.0
100
AcDbArc
 50
262.161720499
 51
272.6571047997
  0
LINE
  5
539
100
AcDbEntity
  8
LAYER0
 62
         3
100
AcDbLine
 10
-28.6922230034
 20
2.0407454221
 30
0.0
 11
-28.6922230034
 21
0.1499193831
 31
0.0
  0
LINE
  5
53A
100
AcDbEntity
  8
LAYER0
 62
         3
100
AcDbLine
 10
-31.0922231174
 20
0.1499193831
 30
0.0
 11
-31.0922231174
 21
2.0407454221
 31
0.0
  0
LINE
  5
53B
100
AcDbEntity
  8
LAYER0
 62
         3
100
AcDbLine
 10
-28.6922230034
 20
0.1499193831
 30
0.0
 11
-28.6922230034
 21
-1.6303037183
 31
0.0
  0
LINE
  5
53C
100
AcDbEntity
  8
LAYER0
 62
         3
100
AcDbLine
 10
-31.0922231174
 20
-1.6303037183
 30
0.0
 11
-31.0922231174
 21
0.1499193831
 31
0.0
  0
ARC
  5
53D
100
AcDbEntity
  8
LAYER0
 62
         3
100
AcDbCircle
 10
-29.8922230604
 20
-8.8532559843
 30
0.0
 40
10.9598935569
210
0.0
220
-0.0
230
1.0
100
AcDbArc
 50
83.7140773822
 51
96.2859256883
  0
LINE
  5
53E
100
AcDbEntity
  8
LAYER0
 62
         3
100
AcDbLine
 10
-28.6422230883
 20
1.1146568804
 30
0.0
 11
-28.6922230034
 21
1.1086843087
 31
0.0
  0
LINE
  5
53F
100
AcDbEntity
  8
LAYER0
 62
         3
100
AcDbLine
 10
-31.0922231174
 20
1.1086843087
 30
0.0
 11
-31.1422230325
 21
1.1146568804
 31
0.0
  0
LINE
  5
540
100
AcDbEntity
  8
LAYER0
 62
         3
100
AcDbLine
 10
-27.3922231163
 20
7.1280269994
 30
0.0
 11
-27.3922231163
 21
15.8564846142
 31
0.0
  0
LINE
  5
541
100
AcDbEntity
  8
LAYER0
 62
         3
100
AcDbLine
 10
-32.3922230045
 20
15.8564846142
 30
0.0
 11
-32.3922230045
 21
7.1280269994
 31
0.0
  0
LINE
  5
542
100
AcDbEntity
  8
LAYER0
 62
         3
100
AcDbLine
 10
-25.1922228274
 20
42.8564826453
 30
0.0
 11
-25.392223419
 21
42.8564826453
 31
0.0
  0
LINE
  5
543
100
AcDbEntity
  8
LAYER0
 62
         3
100
AcDbLine
 10
-26.8504654093
 20
44.7614999539
 30
0.0
 11
-25.6194957877
 21
45.4441575482
 31
0.0
  0
LINE
  5
544
100
AcDbEntity
  8
LAYER0
 62
         3
100
AcDbLine
 10
-28.2589734797
 20
44.1829089547
 30
0.0
 11
-26.8504654093
 21
44.7614999539
 31
0.0
  0
LINE
  5
545
100
AcDbEntity
  8
LAYER0
 62
         3
100
AcDbLine
 10
-30.6753296054
 20
-13.5826180113
 30
0.0
 11
-30.2887977041
 21
-13.5626092443
 31
0.0
  0
LINE
  5
546
100
AcDbEntity
  8
LAYER0
 62
         3
100
AcDbLine
 10
-31.0420303022
 20
-13.6154024286
 30
0.0
 11
-30.6753296054
 21
-13.5826180113
 31
0.0
  0
LINE
  5
547
100
AcDbEntity
  8
LAYER0
 62
         3
100
AcDbLine
 10
-31.3796135479
 20
-13.660132222
 30
0.0
 11
-31.0420303022
 21
-13.6154024286
 31
0.0
  0
LINE
  5
548
100
AcDbEntity
  8
LAYER0
 62
         3
100
AcDbLine
 10
-31.6795304998
 20
-13.715674787
 30
0.0
 11
-31.3796135479
 21
-13.660132222
 31
0.0
  0
LINE
  5
549
100
AcDbEntity
  8
LAYER0
 62
         3
100
AcDbLine
 10
-31.9341859895
 20
-13.7806235935
 30
0.0
 11
-31.6795304998
 21
-13.715674787
 31
0.0
  0
LINE
  5
54A
100
AcDbEntity
  8
LAYER0
 62
         3
100
AcDbLine
 10
-32.137131423
 20
-13.8533338095
 30
0.0
 11
-31.9341859895
 21
-13.7806235935
 31
0.0
  0
LINE
  5
54B
100
AcDbEntity
  8
LAYER0
 62
         3
100
AcDbLine
 10
-32.2832275297
 20
-13.931964094
 30
0.0
 11
-32.137131423
 21
-13.8533338095
 31
0.0
  0
LINE
  5
54C
100
AcDbEntity
  8
LAYER0
 62
         3
100
AcDbLine
 10
-33.9396753677
 20
42.8659001792
 30
0.0
 11
-34.0067315244
 21
42.8892391229
 31
0.0
  0
LINE
  5
54D
100
AcDbEntity
  8
LAYER0
 62
         3
100
AcDbLine
 10
-33.9048588046
 20
42.8471135402
 30
0.0
 11
-33.9396753677
 21
42.8659001792
 31
0.0
  0
LINE
  5
54E
100
AcDbEntity
  8
LAYER0
 62
         3
100
AcDbLine
 10
-25.844770889
 20
42.8659001792
 30
0.0
 11
-25.777715198
 21
42.8892391229
 31
0.0
  0
LINE
  5
54F
100
AcDbEntity
  8
LAYER0
 62
         3
100
AcDbLine
 10
-25.8816344992
 20
42.8458394909
 30
0.0
 11
-25.844770889
 21
42.8659001792
 31
0.0
  0
ARC
  5
550
100
AcDbEntity
  8
LAYER0
 62
         3
100
AcDbCircle
 10
-35.3922230604
 20
38.8459591319
 30
0.0
 40
0.5
210
-0.0
220
0.0
230
1.0
100
AcDbArc
 50
271.2188737207
 51
0.0
  0
LINE
  5
551
100
AcDbEntity
  8
LAYER0
 62
         3
100
AcDbLine
 10
-39.5922222503
 20
38.2564830089
 30
0.0
 11
-35.3815871619
 21
38.3460725153
 31
0.0
  0
ARC
  5
552
100
AcDbEntity
  8
LAYER0
 62
         3
100
AcDbCircle
 10
-24.3922230604
 20
38.8459591319
 30
0.0
 40
0.5
210
0.0
220
0.0
230
1.0
100
AcDbArc
 50
179.9999969295
 51
268.7811232089
  0
LINE
  5
553
100
AcDbEntity
  8
LAYER0
 62
         3
100
AcDbLine
 10
-24.402858862
 20
38.3460725153
 30
0.0
 11
-20.1922230751
 21
38.2564830089
 31
0.0
  0
LINE
  5
554
100
AcDbEntity
  8
LAYER0
 62
         3
100
AcDbLine
 10
-24.8922230073
 20
38.8459580446
 30
0.0
 11
-24.8922230073
 21
50.8670079017
 31
0.0
  0
LINE
  5
555
100
AcDbEntity
  8
LAYER0
 62
         3
100
AcDbLine
 10
-20.1922230751
 20
38.2564830089
 30
0.0
 11
-20.1922230751
 21
44.7176637554
 31
0.0
  0
LINE
  5
556
100
AcDbEntity
  8
LAYER0
 62
         3
100
AcDbLine
 10
-33.8020352044
 20
42.704643538
 30
0.0
 11
-33.8020352044
 21
27.3564847613
 31
0.0
  0
LINE
  5
557
100
AcDbEntity
  8
LAYER0
 62
         3
100
AcDbLine
 10
-25.9824105867
 20
27.3564847613
 30
0.0
 11
-25.9824105867
 21
42.704643538
 31
0.0
  0
LINE
  5
558
100
AcDbEntity
  8
LAYER0
 62
         3
100
AcDbLine
 10
-31.5254730501
 20
44.182909509
 30
0.0
 11
-31.5254730501
 21
21.8564847911
 31
0.0
  0
LINE
  5
559
100
AcDbEntity
  8
LAYER0
 62
         3
100
AcDbLine
 10
-28.2589736723
 20
44.182909509
 30
0.0
 11
-28.2589736723
 21
21.8564847911
 31
0.0
  0
LINE
  5
55A
100
AcDbEntity
  8
LAYER0
 62
         3
100
AcDbLine
 10
-34.8922227838
 20
44.2104282284
 30
0.0
 11
-34.8922227838
 21
38.8459580446
 31
0.0
  0
LINE
  5
55B
100
AcDbEntity
  8
LAYER0
 62
         3
100
AcDbLine
 10
-39.5922222503
 20
51.4564829374
 30
0.0
 11
-39.5922222503
 21
38.2564830089
 31
0.0
  0
LINE
  5
55C
100
AcDbEntity
  8
LAYER0
 62
         3
100
AcDbLine
 10
-31.2167787322
 20
20.8564846272
 30
0.0
 11
-35.8922229477
 21
20.8564846272
 31
0.0
  0
ARC
  5
55D
100
AcDbEntity
  8
LAYER0
 62
         3
100
AcDbCircle
 10
-35.3922230604
 20
50.8670094065
 30
0.0
 40
0.5
210
0.0
220
0.0
230
1.0
100
AcDbArc
 50
0.0
 51
88.7811262793
  0
LINE
  5
55E
100
AcDbEntity
  8
LAYER0
 62
         3
100
AcDbLine
 10
-27.3922231163
 20
3.7927932216
 30
0.0
 11
-27.3922231163
 21
3.9678203984
 31
0.0
  0
LINE
  5
55F
100
AcDbEntity
  8
LAYER0
 62
         3
100
AcDbLine
 10
-32.3922230045
 20
3.9678203984
 30
0.0
 11
-32.3922230045
 21
3.7927932216
 31
0.0
  0
LINE
  5
560
100
AcDbEntity
  8
LAYER0
 62
         3
100
AcDbLine
 10
-32.3922230045
 20
1.5747143997
 30
0.0
 11
-32.3922230045
 21
-0.1106730552
 31
0.0
  0
LINE
  5
561
100
AcDbEntity
  8
LAYER0
 62
         3
100
AcDbLine
 10
-27.3922231163
 20
-0.1222857164
 30
0.0
 11
-27.3922231163
 21
1.5747143997
 31
0.0
  0
LINE
  5
562
100
AcDbEntity
  8
LAYER0
 62
         3
100
AcDbLine
 10
-31.1422230325
 20
3.3328111394
 30
0.0
 11
-31.1422230325
 21
-1.6360648797
 31
0.0
  0
ARC
  5
563
100
AcDbEntity
  8
LAYER0
 62
         3
100
AcDbCircle
 10
-29.8922230604
 20
-12.8492147488
 30
0.0
 40
11.2826074077
210
0.0
220
-0.0
230
1.0
100
AcDbArc
 50
83.6391443524
 51
96.360858718
  0
LINE
  5
564
100
AcDbEntity
  8
LAYER0
 62
         3
100
AcDbLine
 10
-28.6422230883
 20
-1.6360648797
 30
0.0
 11
-28.6422230883
 21
3.3328111394
 31
0.0
  0
ARC
  5
565
100
AcDbEntity
  8
LAYER0
 62
         3
100
AcDbCircle
 10
-27.8422230604
 20
20.9601594156
 30
0.0
 40
1.0
210
0.0
220
0.0
230
1.0
100
AcDbArc
 50
185.9508384787
 51
248.116084198
  0
ARC
  5
566
100
AcDbEntity
  8
LAYER0
 62
         3
100
AcDbCircle
 10
-27.8422230604
 20
20.9601594156
 30
0.0
 40
2.0
210
0.0
220
0.0
230
1.0
100
AcDbArc
 50
182.9714029204
 51
248.116084198
  0
LINE
  5
567
100
AcDbEntity
  8
LAYER0
 62
         3
100
AcDbLine
 10
-24.8691371505
 20
25.3564844334
 30
0.0
 11
-23.3922229943
 21
25.3564844334
 31
0.0
  0
ARC
  5
568
100
AcDbEntity
  8
LAYER0
 62
         3
100
AcDbCircle
 10
-29.8922230604
 20
15.8564842692
 30
0.0
 40
2.5
210
0.0
220
-0.0
230
1.0
100
AcDbArc
 50
0.0
 51
179.9999969295
  0
LINE
  5
569
100
AcDbEntity
  8
LAYER0
 62
         3
100
AcDbLine
 10
-22.8922230287
 20
21.8564847911
 30
0.0
 11
-22.8922230287
 21
24.8564834202
 31
0.0
  0
ARC
  5
56A
100
AcDbEntity
  8
LAYER0
 62
         3
100
AcDbCircle
 10
-23.8922230604
 20
21.8564842692
 30
0.0
 40
1.0
210
-0.0
220
0.0
230
1.0
100
AcDbArc
 50
269.9999984648
 51
0.0
  0
LINE
  5
56B
100
AcDbEntity
  8
LAYER0
 62
         3
100
AcDbLine
 10
-24.0922229693
 20
25.3564844334
 30
0.0
 11
-24.0922229693
 21
26.856483748
 31
0.0
  0
ARC
  5
56C
100
AcDbEntity
  8
LAYER0
 62
         3
100
AcDbCircle
 10
-23.3922230604
 20
24.8564842692
 30
0.0
 40
0.5
210
0.0
220
-0.0
230
1.0
100
AcDbArc
 50
0.0
 51
90.0000015352
  0
LINE
  5
56D
100
AcDbEntity
  8
LAYER0
 62
         3
100
AcDbLine
 10
-28.5676675246
 20
20.8564846272
 30
0.0
 11
-31.2167787322
 21
20.8564846272
 31
0.0
  0
LINE
  5
56E
100
AcDbEntity
  8
LAYER0
 62
         3
100
AcDbLine
 10
-23.8922230762
 20
20.8564846272
 30
0.0
 11
-28.5676675246
 21
20.8564846272
 31
0.0
  0
LINE
  5
56F
100
AcDbEntity
  8
LAYER0
 62
         3
100
AcDbLine
 10
-25.9334281415
 20
26.856483748
 30
0.0
 11
-24.0922229693
 21
26.856483748
 31
0.0
  0
ARC
  5
570
100
AcDbEntity
  8
LAYER0
 62
         3
100
AcDbCircle
 10
-29.8922230604
 20
15.8564842692
 30
0.0
 40
3.5
210
-0.0
220
0.0
230
1.0
100
AcDbArc
 50
315.5846906452
 51
68.1160872684
  0
ARC
  5
571
100
AcDbEntity
  8
LAYER0
 62
         3
100
AcDbCircle
 10
-29.8922230604
 20
15.8564842692
 30
0.0
 40
3.5
210
0.0
220
0.0
230
1.0
100
AcDbArc
 50
111.883915802
 51
224.4153062844
  0
ARC
  5
572
100
AcDbEntity
  8
LAYER0
 62
         3
100
AcDbCircle
 10
-31.9422230604
 20
20.9601594156
 30
0.0
 40
2.0
210
0.0
220
0.0
230
1.0
100
AcDbArc
 50
291.8839127316
 51
357.0285940091
  0
ARC
  5
573
100
AcDbEntity
  8
LAYER0
 62
         3
100
AcDbCircle
 10
-31.9422230604
 20
20.9601594156
 30
0.0
 40
1.0
210
0.0
220
0.0
230
1.0
100
AcDbArc
 50
291.8839127316
 51
354.0491584508
  0
ARC
  5
574
100
AcDbEntity
  8
LAYER0
 62
         3
100
AcDbCircle
 10
-29.8922230604
 20
15.8564842692
 30
0.0
 40
4.5
210
0.0
220
0.0
230
1.0
100
AcDbArc
 50
111.883915802
 51
236.2510092932
  0
ARC
  5
575
100
AcDbEntity
  8
LAYER0
 62
         3
100
AcDbCircle
 10
-29.8922230604
 20
15.8564842692
 30
0.0
 40
4.5
210
-0.0
220
0.0
230
1.0
100
AcDbArc
 50
303.7489876364
 51
68.1160872684
  0
LINE
  5
576
100
AcDbEntity
  8
LAYER0
 62
         3
100
AcDbLine
 10
-39.5922222503
 20
48.7564856613
 30
0.0
 11
-39.6922239431
 21
48.7564856613
 31
0.0
  0
LINE
  5
577
100
AcDbEntity
  8
LAYER0
 62
         3
100
AcDbLine
 10
-27.4115934069
 20
45.6851266931
 30
0.0
 11
-26.3922230604
 21
46.3101829523
 31
0.0
  0
LINE
  5
578
100
AcDbEntity
  8
LAYER0
 62
         3
100
AcDbLine
 10
-28.5676677401
 20
45.1451594037
 30
0.0
 11
-27.4115934069
 21
45.6851266931
 31
0.0
  0
LINE
  5
579
100
AcDbEntity
  8
LAYER0
 62
         3
100
AcDbLine
 10
-32.9339807115
 20
44.7614999539
 30
0.0
 11
-31.5254726411
 21
44.1829089547
 31
0.0
  0
LINE
  5
57A
100
AcDbEntity
  8
LAYER0
 62
         3
100
AcDbLine
 10
-34.1649503331
 20
45.4441575482
 30
0.0
 11
-32.9339807115
 21
44.7614999539
 31
0.0
  0
LINE
  5
57B
100
AcDbEntity
  8
LAYER0
 62
         3
100
AcDbLine
 10
-32.3728527139
 20
45.6851266931
 30
0.0
 11
-31.2167783807
 21
45.1451594037
 31
0.0
  0
LINE
  5
57C
100
AcDbEntity
  8
LAYER0
 62
         3
100
AcDbLine
 10
-33.3922230604
 20
46.3101829523
 30
0.0
 11
-32.3728527139
 21
45.6851266931
 31
0.0
  0
LINE
  5
57D
100
AcDbEntity
  8
LAYER0
 62
         3
100
AcDbLine
 10
-34.3922227018
 20
42.8110303784
 30
0.0
 11
-34.3826161095
 21
42.7666919732
 31
0.0
  0
LINE
  5
57E
100
AcDbEntity
  8
LAYER0
 62
         3
100
AcDbLine
 10
-25.6194955998
 20
43.3564836586
 30
0.0
 11
-25.6194955998
 21
45.4441586936
 31
0.0
  0
LINE
  5
57F
100
AcDbEntity
  8
LAYER0
 62
         3
100
AcDbLine
 10
-33.9257362627
 20
42.857607683
 30
0.0
 11
-34.0067315244
 21
42.8892391229
 31
0.0
  0
LINE
  5
580
100
AcDbEntity
  8
LAYER0
 62
         3
100
AcDbLine
 10
-25.777715198
 20
42.8892391229
 30
0.0
 11
-25.8587095284
 21
42.857607683
 31
0.0
  0
ARC
  5
581
100
AcDbEntity
  8
LAYER0
 62
         3
100
AcDbCircle
 10
-33.5915172593
 20
43.346019685
 30
0.0
 40
0.5735283971
210
0.0
220
0.0
230
1.0
100
AcDbArc
 50
178.9545887505
 51
219.087616297
  0
ARC
  5
582
100
AcDbEntity
  8
LAYER0
 62
         3
100
AcDbCircle
 10
-34.1893832877
 20
42.6198697826
 30
0.0
 40
0.395227128
210
0.0
220
0.0
230
1.0
100
AcDbArc
 50
12.4604847557
 51
67.2712904517
  0
ARC
  5
583
100
AcDbEntity
  8
LAYER0
 62
         3
100
AcDbCircle
 10
-25.5950292912
 20
42.61982085
 30
0.0
 40
0.3952850929
210
0.0
220
0.0
230
1.0
100
AcDbArc
 50
112.7304124307
 51
167.4605501749
  0
ARC
  5
584
100
AcDbEntity
  8
LAYER0
 62
         3
100
AcDbCircle
 10
-26.1929364062
 20
43.3460223996
 30
0.0
 40
0.5735362206
210
-0.0
220
0.0
230
1.0
100
AcDbArc
 50
320.9126661264
 51
1.045128826
  0
LINE
  5
585
100
AcDbEntity
  8
LAYER0
 62
         3
100
AcDbLine
 10
-33.3922234692
 20
49.8564856553
 30
0.0
 11
-33.3922234692
 21
49.1866114044
 31
0.0
  0
LINE
  5
586
100
AcDbEntity
  8
LAYER0
 62
         3
100
AcDbLine
 10
-34.8922227838
 20
50.8670079017
 30
0.0
 11
-34.8922227838
 21
44.2104282284
 31
0.0
  0
LINE
  5
587
100
AcDbEntity
  8
LAYER0
 62
         3
100
AcDbLine
 10
-25.1922229633
 20
40.8564860428
 30
0.0
 11
-25.1922229633
 21
44.772351017
 31
0.0
  0
LINE
  5
588
100
AcDbEntity
  8
LAYER0
 62
         3
100
AcDbLine
 10
-34.3922227018
 20
48.3205857182
 30
0.0
 11
-34.3922227018
 21
48.8564836288
 31
0.0
  0
LINE
  5
589
100
AcDbEntity
  8
LAYER0
 62
         3
100
AcDbLine
 10
-25.3922230892
 20
48.8564836288
 30
0.0
 11
-25.3922230892
 21
48.3205857182
 31
0.0
  0
LINE
  5
58A
100
AcDbEntity
  8
LAYER0
 62
         3
100
AcDbLine
 10
-34.3922227018
 20
40.3564850295
 30
0.0
 11
-34.3922227018
 21
42.8110303784
 31
0.0
  0
LINE
  5
58B
100
AcDbEntity
  8
LAYER0
 62
         3
100
AcDbLine
 10
-25.3922230892
 20
42.8110303784
 30
0.0
 11
-25.3922230892
 21
40.3564850295
 31
0.0
  0
LINE
  5
58C
100
AcDbEntity
  8
LAYER0
 62
         3
100
AcDbLine
 10
-34.3922227018
 20
43.3564836586
 30
0.0
 11
-34.3922227018
 21
42.8110303784
 31
0.0
  0
LINE
  5
58D
100
AcDbEntity
  8
LAYER0
 62
         3
100
AcDbLine
 10
-25.3922230892
 20
42.8110303784
 30
0.0
 11
-25.3922230892
 21
43.3564836586
 31
0.0
  0
LINE
  5
58E
100
AcDbEntity
  8
LAYER0
 62
         3
100
AcDbLine
 10
-34.3922227018
 20
45.4441586936
 30
0.0
 11
-34.3922227018
 21
48.3205857182
 31
0.0
  0
LINE
  5
58F
100
AcDbEntity
  8
LAYER0
 62
         3
100
AcDbLine
 10
-25.3922230892
 20
48.3205857182
 30
0.0
 11
-25.3922230892
 21
45.4441586936
 31
0.0
  0
LINE
  5
590
100
AcDbEntity
  8
LAYER0
 62
         3
100
AcDbLine
 10
-35.3815871619
 20
51.3668971563
 30
0.0
 11
-39.5922222503
 21
51.4564829374
 31
0.0
  0
LINE
  5
591
100
AcDbEntity
  8
LAYER0
 62
         3
100
AcDbLine
 10
-36.8922231116
 20
24.8564834202
 30
0.0
 11
-36.8922231116
 21
21.8564847911
 31
0.0
  0
ARC
  5
592
100
AcDbEntity
  8
LAYER0
 62
         3
100
AcDbCircle
 10
-35.8922230604
 20
21.8564842692
 30
0.0
 40
1.0
210
0.0
220
0.0
230
1.0
100
AcDbArc
 50
179.9999969295
 51
269.9999984648
  0
LINE
  5
593
100
AcDbEntity
  8
LAYER0
 62
         3
100
AcDbLine
 10
-35.6922232874
 20
26.856483748
 30
0.0
 11
-35.6922232874
 21
25.3564844334
 31
0.0
  0
ARC
  5
594
100
AcDbEntity
  8
LAYER0
 62
         3
100
AcDbCircle
 10
-36.3922230604
 20
24.8564842692
 30
0.0
 40
0.5
210
0.0
220
0.0
230
1.0
100
AcDbArc
 50
90.0000015352
 51
179.9999969295
  0
LINE
  5
595
100
AcDbEntity
  8
LAYER0
 62
         3
100
AcDbLine
 10
-35.6922232874
 20
26.856483748
 30
0.0
 11
-33.8676478111
 21
26.856483748
 31
0.0
  0
LINE
  5
596
100
AcDbEntity
  8
LAYER0
 62
         3
100
AcDbLine
 10
-36.3922230296
 20
25.3564844334
 30
0.0
 11
-34.9153093391
 21
25.3564844334
 31
0.0
  0
ARC
  5
597
100
AcDbEntity
  8
LAYER0
 62
         3
100
AcDbCircle
 10
-32.8984933621
 20
45.0918925876
 30
0.0
 40
1.3145357773
210
0.0
220
0.0
230
1.0
100
AcDbArc
 50
112.0609550324
 51
164.4560468273
  0
LINE
  5
598
100
AcDbEntity
  8
LAYER0
 62
         3
100
AcDbLine
 10
-31.2167787322
 20
45.1451594436
 30
0.0
 11
-28.5676675246
 21
45.1451594436
 31
0.0
  0
LINE
  5
599
100
AcDbEntity
  8
LAYER0
 62
         3
100
AcDbLine
 10
-28.2669662826
 20
44.2791337574
 30
0.0
 11
-31.5174795084
 21
44.2791337574
 31
0.0
  0
ARC
  5
59A
100
AcDbEntity
  8
LAYER0
 62
         3
100
AcDbCircle
 10
-26.8859505897
 20
45.0918936978
 30
0.0
 40
1.3145337077
210
0.0
220
0.0
230
1.0
100
AcDbArc
 50
15.5439311061
 51
67.9391417842
  0
LINE
  5
59B
100
AcDbEntity
  8
LAYER0
 62
         3
100
AcDbLine
 10
-34.5922232934
 20
42.8564826453
 30
0.0
 11
-34.3922227018
 21
42.8564826453
 31
0.0
  0
LINE
  5
59C
100
AcDbEntity
  8
LAYER0
 62
         3
100
AcDbLine
 10
-34.3922227018
 20
46.8564833009
 30
0.0
 11
-34.5922232934
 21
46.8564833009
 31
0.0
  0
LINE
  5
59D
100
AcDbEntity
  8
LAYER0
 62
         3
100
AcDbLine
 10
-25.1922229633
 20
46.8564833009
 30
0.0
 11
-25.3922230892
 21
46.8564833009
 31
0.0
  0
LINE
  5
59E
100
AcDbEntity
  8
LAYER0
 62
         3
100
AcDbLine
 10
-25.1922229633
 20
44.772351017
 30
0.0
 11
-25.1922229633
 21
48.8564836288
 31
0.0
  0
LINE
  5
59F
100
AcDbEntity
  8
LAYER0
 62
         3
100
AcDbLine
 10
-20.1922230751
 20
44.7176637554
 30
0.0
 11
-20.1922230751
 21
51.4564829374
 31
0.0
  0
LINE
  5
5A0
100
AcDbEntity
  8
LAYER0
 62
         3
100
AcDbLine
 10
-19.3922230371
 20
46.4564839804
 30
0.0
 11
-19.3922230371
 21
43.2564856911
 31
0.0
  0
ARC
  5
5A1
100
AcDbEntity
  8
LAYER0
 62
         3
100
AcDbCircle
 10
-33.3922230604
 20
48.8564842692
 30
0.0
 40
1.0
210
0.0
220
0.0
230
1.0
100
AcDbArc
 50
90.0000015352
 51
179.9999969295
  0
LINE
  5
5A2
100
AcDbEntity
  8
LAYER0
 62
         3
100
AcDbLine
 10
-26.3922232532
 20
49.8564856553
 30
0.0
 11
-33.3922234692
 21
49.8564856553
 31
0.0
  0
ARC
  5
5A3
100
AcDbEntity
  8
LAYER0
 62
         3
100
AcDbCircle
 10
-26.3922230604
 20
48.8564842692
 30
0.0
 40
1.0
210
0.0
220
-0.0
230
1.0
100
AcDbArc
 50
0.0
 51
90.0000015352
  0
ARC
  5
5A4
100
AcDbEntity
  8
LAYER0
 62
         3
100
AcDbCircle
 10
-33.8922230604
 20
40.3564842692
 30
0.0
 40
0.5
210
0.0
220
0.0
230
1.0
100
AcDbArc
 50
179.9999969295
 51
269.9999984648
  0
LINE
  5
5A5
100
AcDbEntity
  8
LAYER0
 62
         3
100
AcDbLine
 10
-33.8922226199
 20
39.8564840162
 30
0.0
 11
-33.8020352044
 21
39.8564840162
 31
0.0
  0
LINE
  5
5A6
100
AcDbEntity
  8
LAYER0
 62
         3
100
AcDbLine
 10
-25.9824105867
 20
39.8564840162
 30
0.0
 11
-25.8922231712
 21
39.8564840162
 31
0.0
  0
ARC
  5
5A7
100
AcDbEntity
  8
LAYER0
 62
         3
100
AcDbCircle
 10
-25.8922230604
 20
40.3564842692
 30
0.0
 40
0.5
210
-0.0
220
0.0
230
1.0
100
AcDbArc
 50
269.9999984648
 51
0.0
  0
LINE
  5
5A8
100
AcDbEntity
  8
LAYER0
 62
         3
100
AcDbLine
 10
-31.5174795084
 20
44.2791337574
 30
0.0
 11
-31.5254730501
 21
44.182909509
 31
0.0
  0
LINE
  5
5A9
100
AcDbEntity
  8
LAYER0
 62
         3
100
AcDbLine
 10
-39.6922239431
 20
40.9564840102
 30
0.0
 11
-39.5922222503
 21
40.9564840102
 31
0.0
  0
LINE
  5
5AA
100
AcDbEntity
  8
LAYER0
 62
         3
100
AcDbLine
 10
-39.6922239431
 20
48.7564856613
 30
0.0
 11
-39.6922239431
 21
40.9564840102
 31
0.0
  0
LINE
  5
5AB
100
AcDbEntity
  8
LAYER0
 62
         3
100
AcDbLine
 10
-26.3922232532
 20
49.1866114044
 30
0.0
 11
-26.3922232532
 21
49.8564856553
 31
0.0
  0
LINE
  5
5AC
100
AcDbEntity
  8
LAYER0
 62
         3
100
AcDbLine
 10
-33.8922226199
 20
42.5837578678
 30
0.0
 11
-33.8922226199
 21
39.8564840162
 31
0.0
  0
LINE
  5
5AD
100
AcDbEntity
  8
LAYER0
 62
         3
100
AcDbLine
 10
-25.8922231712
 20
39.8564840162
 30
0.0
 11
-25.8922231712
 21
42.5837578678
 31
0.0
  0
LINE
  5
5AE
100
AcDbEntity
  8
LAYER0
 62
         3
100
AcDbLine
 10
-33.8922226199
 20
42.5837578678
 30
0.0
 11
-33.8922226199
 21
42.8564826453
 31
0.0
  0
LINE
  5
5AF
100
AcDbEntity
  8
LAYER0
 62
         3
100
AcDbLine
 10
-25.8922231712
 20
42.8564826453
 30
0.0
 11
-25.8922231712
 21
42.5837578678
 31
0.0
  0
LINE
  5
5B0
100
AcDbEntity
  8
LAYER0
 62
         3
100
AcDbLine
 10
-28.2589736723
 20
44.182909509
 30
0.0
 11
-28.2669662826
 21
44.2791337574
 31
0.0
  0
LINE
  5
5B1
100
AcDbEntity
  8
LAYER0
 62
         3
100
AcDbLine
 10
-34.5922232934
 20
48.8564836288
 30
0.0
 11
-34.5922232934
 21
40.8564860428
 31
0.0
  0
LINE
  5
5B2
100
AcDbEntity
  8
LAYER0
 62
         3
100
AcDbLine
 10
-34.8922227838
 20
40.8564860428
 30
0.0
 11
-34.5922232934
 21
40.8564860428
 31
0.0
  0
LINE
  5
5B3
100
AcDbEntity
  8
LAYER0
 62
         3
100
AcDbLine
 10
-34.5922232934
 20
48.8564836288
 30
0.0
 11
-34.8922227838
 21
48.8564836288
 31
0.0
  0
LINE
  5
5B4
100
AcDbEntity
  8
LAYER0
 62
         3
100
AcDbLine
 10
-24.8922230073
 20
48.8564836288
 30
0.0
 11
-25.1922229633
 21
48.8564836288
 31
0.0
  0
LINE
  5
5B5
100
AcDbEntity
  8
LAYER0
 62
         3
100
AcDbLine
 10
-25.1922229633
 20
40.8564860428
 30
0.0
 11
-24.8922230073
 21
40.8564860428
 31
0.0
  0
ARC
  5
5B6
100
AcDbEntity
  8
LAYER0
 62
         3
100
AcDbCircle
 10
-24.3922230604
 20
50.8670094065
 30
0.0
 40
0.5
210
0.0
220
0.0
230
1.0
100
AcDbArc
 50
91.2188767911
 51
179.9999969295
  0
LINE
  5
5B7
100
AcDbEntity
  8
LAYER0
 62
         3
100
AcDbLine
 10
-20.1922230751
 20
51.4564829374
 30
0.0
 11
-24.402858862
 21
51.3668971563
 31
0.0
  0
LINE
  5
5B8
100
AcDbEntity
  8
LAYER0
 62
         3
100
AcDbLine
 10
-20.1922230751
 20
43.2564856911
 30
0.0
 11
-19.3922230371
 21
43.2564856911
 31
0.0
  0
LINE
  5
5B9
100
AcDbEntity
  8
LAYER0
 62
         3
100
AcDbLine
 10
-19.3922230371
 20
46.4564839804
 30
0.0
 11
-20.1922230751
 21
46.4564839804
 31
0.0
  0
LINE
  5
5BA
100
AcDbEntity
  8
LAYER0
 62
         3
100
AcDbLine
 10
60.0
 20
-125.5
 30
0.0
 11
60.0
 21
-138.5
 31
0.0
  0
LINE
  5
5BB
100
AcDbEntity
  8
LAYER0
 62
         3
100
AcDbLine
 10
-25.0
 20
-125.5
 30
0.0
 11
-25.0
 21
-138.5
 31
0.0
  0
LINE
  5
5BC
100
AcDbEntity
  8
LAYER0
 62
         3
100
AcDbLine
 10
-40.0
 20
-138.5
 30
0.0
 11
-40.0
 21
-125.5
 31
0.0
  0
LINE
  5
5BD
100
AcDbEntity
  8
LAYER0
 62
         3
100
AcDbLine
 10
10.0
 20
-138.5
 30
0.0
 11
10.0
 21
-125.5
 31
0.0
  0
LINE
  5
5BE
100
AcDbEntity
  8
LAYER0
 62
         3
100
AcDbLine
 10
95.0
 20
-125.5
 30
0.0
 11
-40.0
 21
-125.5
 31
0.0
  0
LINE
  5
5BF
100
AcDbEntity
  8
LAYER0
 62
         3
100
AcDbLine
 10
95.0
 20
-130.5
 30
0.0
 11
-40.0
 21
-130.5
 31
0.0
  0
LINE
  5
5C0
100
AcDbEntity
  8
LAYER0
 62
         3
100
AcDbLine
 10
95.0
 20
-138.5
 30
0.0
 11
95.0
 21
-125.5
 31
0.0
  0
LINE
  5
5C1
100
AcDbEntity
  8
LAYER0
 62
         3
100
AcDbLine
 10
95.0
 20
-138.5
 30
0.0
 11
-40.0
 21
-138.5
 31
0.0
  0
LINE
  5
5C2
100
AcDbEntity
  8
LAYER0
 62
         3
100
AcDbLine
 10
-34.3922227018
 20
43.3564836586
 30
0.0
 11
-34.3922227018
 21
45.4441586936
 31
0.0
  0
ARC
  5
5C3
100
AcDbEntity
  8
LAYER0
 62
         3
100
AcDbCircle
 10
-33.8922230604
 20
43.3564842692
 30
0.0
 40
0.5
210
0.0
220
0.0
230
1.0
100
AcDbArc
 50
179.9999969295
 51
266.1567379343
  0
LINE
  5
5C4
100
AcDbEntity
  8
LAYER0
 62
         3
100
AcDbLine
 10
-25.3922230892
 20
45.4441586936
 30
0.0
 11
-25.3922230892
 21
43.3564836586
 31
0.0
  0
LINE
  5
5C5
100
AcDbEntity
  8
LAYER0
 62
         3
100
AcDbLine
 10
-33.8977556073
 20
42.8426096642
 30
0.0
 11
-33.9048588046
 21
42.8471135402
 31
0.0
  0
LINE
  5
5C6
100
AcDbEntity
  8
LAYER0
 62
         3
100
AcDbLine
 10
-26.3922232532
 20
46.3101843798
 30
0.0
 11
-26.3922232532
 21
49.1866114044
 31
0.0
  0
LINE
  5
5C7
100
AcDbEntity
  8
LAYER0
 62
         3
100
AcDbLine
 10
-33.3922234692
 20
49.1866114044
 30
0.0
 11
-33.3922234692
 21
46.3101843798
 31
0.0
  0
LINE
  5
5C8
100
AcDbEntity
  8
LAYER0
 62
         3
100
AcDbLine
 10
-34.1649501913
 20
45.4441586936
 30
0.0
 11
-34.1649501913
 21
43.3564836586
 31
0.0
  0
ENDSEC
  0
SECTION
  2
OBJECTS
  0
DICTIONARY
  5
19
100
AcDbDictionary
280
         0
281
         1
  3
ACAD_GROUP
350
1A
  3
ACAD_MLINESTYLE
350
1B
  3
ACAD_LAYOUT
350
1E
  3
ACAD_PLOTSETTINGS
350
22
  3
ACAD_PLOTSTYLENAME
350
1F
  3
ACAD_WIPEOUT_VARS
350
23
  0
DICTIONARY
  5
1A
102
{ACAD_REACTORS
330
19
102
}
100
AcDbDictionary
280
         0
281
         1
  0
DICTIONARY
  5
1B
102
{ACAD_REACTORS
330
19
102
}
100
AcDbDictionary
280
         0
281
         1
  3
Standard
350
1C
  0
MLINESTYLE
  5
1C
102
{ACAD_REACTORS
330
1B
102
}
100
AcDbMlineStyle
  2
Standard
 70
         0
  3

 62
         0
 51
90.0
 52
90.0
 71
         2
 49
0.5
 62
       256
  6
BYLAYER
 49
-0.5
 62
       256
  6
BYLAYER
  0
ACDBDICTIONARYWDFLT
  5
1F
102
{ACAD_REACTORS
330
19
102
}
100
AcDbDictionary
281
         1
  3
Normal
350
1D
100
AcDbDictionaryWithDefault
340
1D
  0
ACDBPLACEHOLDER
  5
1D
102
{ACAD_REACTORS
330
1F
102
}
  0
LAYOUT
  5
20
102
{ACAD_REACTORS
330
1E
102
}
100
AcDbPlotSettings
  1

  2

  4

  6

 40
0.0
 41
0.0
 42
0.0
 43
0.0
 44
0.0
 45
0.0
 46
0.0
 47
0.0
 48
0.0
 49
0.0
140
0.0
141
0.0
142
1.0
143
1.0
 70
         0
 72
         0
 73
         0
 74
         0
  7

 75
         0
147
1.0
148
0.0
149
0.0
100
AcDbLayout
  1
Model
 70
         0
 71
         0
 10
0.0
 20
0.0
 11
0.0
 21
0.0
 12
0.0
 22
0.0
 32
0.0
 14
0.0
 24
0.0
 34
0.0
 15
0.0
 25
0.0
 35
0.0
146
0.0
 13
0.0
 23
0.0
 33
0.0
 16
0.0
 26
0.0
 36
0.0
 17
0.0
 27
0.0
 37
0.0
 76
         0
330
A
331
0
345
0
346
0
  0
LAYOUT
  5
21
102
{ACAD_REACTORS
330
1E
102
}
100
AcDbPlotSettings
  1

  2

  4

  6

 40
0.0
 41
0.0
 42
0.0
 43
0.0
 44
0.0
 45
0.0
 46
0.0
 47
0.0
 48
0.0
 49
0.0
140
0.0
141
0.0
142
1.0
143
1.0
 70
         0
 72
         0
 73
         0
 74
         0
  7

 75
         0
147
1.0
148
0.0
149
0.0
100
AcDbLayout
  1
Layout1
 70
         0
 71
         0
 10
0.0
 20
0.0
 11
0.0
 21
0.0
 12
0.0
 22
0.0
 32
0.0
 14
0.0
 24
0.0
 34
0.0
 15
0.0
 25
0.0
 35
0.0
146
0.0
 13
0.0
 23
0.0
 33
0.0
 16
0.0
 26
0.0
 36
0.0
 17
0.0
 27
0.0
 37
0.0
 76
         0
330
B
331
0
345
0
346
0
  0
DICTIONARY
  5
1E
102
{ACAD_REACTORS
330
19
102
}
100
AcDbDictionary
280
         0
281
         1
  3
Layout1
350
21
  3
Model
350
20
  0
DICTIONARY
  5
22
102
{ACAD_REACTORS
330
19
102
}
100
AcDbDictionary
280
         0
281
         1
  0
WIPEOUTVARIABLES
  5
23
100
AcDbWipeoutVariables
 70
         1
  0
ENDSEC
  0
EOF
