  0
SECTION
  2
HEADER
  9
$ACADVER
  1
AC1015
  9
$ACADMAINTVER
 70
         6
  9
$DWGCODEPAGE
  3
ANSI_932
  9
$INSBASE
 10
0.0
 20
0.0
 30
0.0
  9
$EXTMIN
 10
1.0000000000E+20
 20
1.0000000000E+20
 30
1.0000000000E+20
  9
$EXTMAX
 10
-1.0000000000E+20
 20
-1.0000000000E+20
 30
-1.0000000000E+20
  9
$LIMMIN
 10
0.0
 20
0.0
  9
$LIMMAX
 10
0.0
 20
0.0
  9
$ORTHOMODE
 70
         0
  9
$REGENMODE
 70
         1
  9
$FILLMODE
 70
         1
  9
$QTEXTMODE
 70
         0
  9
$MIRRTEXT
 70
         1
  9
$LTSCALE
 40
1.0
  9
$ATTMODE
 70
         1
  9
$TEXTSIZE
 40
0.2
  9
$TRACEWID
 40
0.05
  9
$TEXTSTYLE
  7
Standard
  9
$CLAYER
  8
0
  9
$CELTYPE
  6
Continuous
  9
$CECOLOR
 62
       256
  9
$CELTSCALE
 40
1.0
  9
$DISPSILH
 70
         0
  9
$DIMSCALE
 40
1.0
  9
$DIMASZ
 40
0.18
  9
$DIMEXO
 40
0.0625
  9
$DIMDLI
 40
0.38
  9
$DIMRND
 40
0.0
  9
$DIMDLE
 40
0.0
  9
$DIMEXE
 40
0.18
  9
$DIMTP
 40
0.0
  9
$DIMTM
 40
0.0
  9
$DIMTXT
 40
0.18
  9
$DIMCEN
 40
0.09
  9
$DIMTSZ
 40
0.0
  9
$DIMTOL
 70
         0
  9
$DIMLIM
 70
         0
  9
$DIMTIH
 70
         1
  9
$DIMTOH
 70
         1
  9
$DIMSE1
 70
         0
  9
$DIMSE2
 70
         0
  9
$DIMTAD
 70
         0
  9
$DIMZIN
 70
         0
  9
$DIMBLK
  1

  9
$DIMASO
 70
         1
  9
$DIMSHO
 70
         1
  9
$DIMPOST
  1

  9
$DIMAPOST
  1

  9
$DIMALT
 70
         0
  9
$DIMALTD
 70
         2
  9
$DIMALTF
 40
25.4
  9
$DIMLFAC
 40
1.0
  9
$DIMTOFL
 70
         0
  9
$DIMTVP
 40
0.0
  9
$DIMTIX
 70
         0
  9
$DIMSOXD
 70
         0
  9
$DIMSAH
 70
         0
  9
$DIMBLK1
  1

  9
$DIMBLK2
  1

  9
$DIMSTYLE
  2
Standard
  9
$DIMCLRD
 70
         0
  9
$DIMCLRE
 70
         0
  9
$DIMCLRT
 70
         0
  9
$DIMTFAC
 40
1.0
  9
$DIMGAP
 40
0.09
  9
$DIMJUST
 70
         0
  9
$DIMSD1
 70
         0
  9
$DIMSD2
 70
         0
  9
$DIMTOLJ
 70
         1
  9
$DIMTZIN
 70
         0
  9
$DIMALTZ
 70
         0
  9
$DIMALTTZ
 70
         0
  9
$DIMUPT
 70
         0
  9
$DIMDEC
 70
         4
  9
$DIMTDEC
 70
         4
  9
$DIMALTU
 70
         2
  9
$DIMALTTD
 70
         2
  9
$DIMTXSTY
  7
Standard
  9
$DIMAUNIT
 70
         0
  9
$DIMADEC
 70
         0
  9
$DIMALTRND
 40
0.0
  9
$DIMAZIN
 70
         0
  9
$DIMDSEP
 70
         0
  9
$DIMATFIT
 70
         3
  9
$DIMFRAC
 70
         0
  9
$DIMLDRBLK
  1

  9
$DIMLUNIT
 70
         2
  9
$DIMLWD
 70
         0
  9
$DIMLWE
 70
         0
  9
$DIMTMOVE
 70
         0
  9
$LUNITS
 70
         2
  9
$LUPREC
 70
         4
  9
$SKETCHINC
 40
0.1
  9
$FILLETRAD
 40
0.0
  9
$AUNITS
 70
         0
  9
$AUPREC
 70
         0
  9
$MENU
  1
acad
  9
$ELEVATION
 40
0.0
  9
$PELEVATION
 40
0.0
  9
$THICKNESS
 40
0.0
  9
$LIMCHECK
 70
         0
  9
$CHAMFERA
 40
0.0
  9
$CHAMFERB
 40
0.0
  9
$CHAMFERC
 40
0.0
  9
$CHAMFERD
 40
0.0
  9
$SKPOLY
 70
         0
  9
$TDCREATE
 40
0.000000000
  9
$TDUCREATE
 40
0.000000000
  9
$TDUPDATE
 40
0.000000000
  9
$TDUUPDATE
 40
0.000000000
  9
$TDINDWG
 40
0.0000000000
  9
$TDUSRTIMER
 40
0.0000000000
  9
$USRTIMER
 70
         1
  9
$ANGBASE
 50
0.0
  9
$ANGDIR
 70
         0
  9
$PDMODE
 70
         3
  9
$PDSIZE
 40
-1.0
  9
$PLINEWID
 40
0.0
  9
$SPLFRAME
 70
         0
  9
$SPLINETYPE
 70
         6
  9
$SPLINESEGS
 70
         8
  9
$HANDSEED
  5
41B
  9
$SURFTAB1
 70
         6
  9
$SURFTAB2
 70
         6
  9
$SURFTYPE
 70
         6
  9
$SURFU
 70
         6
  9
$SURFV
 70
         6
  9
$UCSBASE
  2

  9
$UCSNAME
  2

  9
$UCSORG
 10
0.0
 20
0.0
 30
0.0
  9
$UCSXDIR
 10
1.0
 20
0.0
 30
0.0
  9
$UCSYDIR
 10
0.0
 20
1.0
 30
0.0
  9
$UCSORTHOREF
  2

  9
$UCSORTHOVIEW
 70
         0
  9
$UCSORGTOP
 10
0.0
 20
0.0
 30
0.0
  9
$UCSORGBOTTOM
 10
0.0
 20
0.0
 30
0.0
  9
$UCSORGLEFT
 10
0.0
 20
0.0
 30
0.0
  9
$UCSORGRIGHT
 10
0.0
 20
0.0
 30
0.0
  9
$UCSORGFRONT
 10
0.0
 20
0.0
 30
0.0
  9
$UCSORGBACK
 10
0.0
 20
0.0
 30
0.0
  9
$PUCSBASE
  2

  9
$PUCSNAME
  2

  9
$PUCSORG
 10
0.0
 20
0.0
 30
0.0
  9
$PUCSXDIR
 10
1.0
 20
0.0
 30
0.0
  9
$PUCSYDIR
 10
0.0
 20
1.0
 30
0.0
  9
$PUCSORTHOREF
  2

  9
$PUCSORTHOVIEW
 70
         0
  9
$PUCSORGTOP
 10
0.0
 20
0.0
 30
0.0
  9
$PUCSORGBOTTOM
 10
0.0
 20
0.0
 30
0.0
  9
$PUCSORGLEFT
 10
0.0
 20
0.0
 30
0.0
  9
$PUCSORGRIGHT
 10
0.0
 20
0.0
 30
0.0
  9
$PUCSORGFRONT
 10
0.0
 20
0.0
 30
0.0
  9
$PUCSORGBACK
 10
0.0
 20
0.0
 30
0.0
  9
$USERI1
 70
         0
  9
$USERI2
 70
         0
  9
$USERI3
 70
         0
  9
$USERI4
 70
         0
  9
$USERI5
 70
         0
  9
$USERR1
 40
0.0
  9
$USERR2
 40
0.0
  9
$USERR3
 40
0.0
  9
$USERR4
 40
0.0
  9
$USERR5
 40
0.0
  9
$WORLDVIEW
 70
         1
  9
$SHADEDGE
 70
         3
  9
$SHADEDIF
 70
        70
  9
$TILEMODE
 70
         1
  9
$MAXACTVP
 70
        16
  9
$PINSBASE
 10
0.0
 20
0.0
 30
0.0
  9
$PLIMCHECK
 70
         0
  9
$PEXTMIN
 10
1.0000000000E+20
 20
1.0000000000E+20
 30
1.0000000000E+20
  9
$PEXTMAX
 10
-1.0000000000E+20
 20
-1.0000000000E+20
 30
-1.0000000000E+20
  9
$PLIMMIN
 10
0.0
 20
0.0
  9
$PLIMMAX
 10
12.0
 20
9.0
  9
$UNITMODE
 70
         0
  9
$VISRETAIN
 70
         0
  9
$PLINEGEN
 70
         1
  9
$PSLTSCALE
 70
         0
  9
$TREEDEPTH
 70
      3020
  9
$CMLSTYLE
  2
Standard
  9
$CMLJUST
 70
         0
  9
$CMLSCALE
 40
1.0
  9
$PROXYGRAPHICS
 70
         0
  9
$MEASUREMENT
 70
         0
  9
$CELWEIGHT
370
         0
  9
$ENDCAPS
280
         0
  9
$JOINSTYLE
280
         0
  9
$LWDISPLAY
290
         0
  9
$INSUNITS
 70
         0
  9
$HYPERLINKBASE
  1

  9
$XEDIT
290
         1
  9
$CEPSNTYPE
380
         0
  9
$PSTYLEMODE
290
         0
  9
$FINGERPRINTGUID
  2

  9
$VERSIONGUID
  2

  9
$EXTNAMES
290
         1
  9
$PSVPSCALE
 40
0.0
  0
ENDSEC
  0
SECTION
  2
CLASSES
  0
CLASS
  1
LWPOLYLINE
  2
AcDbPolyline
  3
"AutoCAD"
 90
        0
280
         0
281
         1
  0
CLASS
  1
IMAGE
  2
AcDbRasterImage
  3
ISM
 90
      127
280
         0
281
         1
  0
CLASS
  1
OLE2FRAME
  2
AcDbOle2Frame
  3
""
 90
        0
280
         0
281
         1
  0
CLASS
  1
HATCH
  2
AcDbHatch
  3
"ACAD_SEDONA"
 90
        0
280
         0
281
         1
  0
CLASS
  1
DICTIONARYVAR
  2
AcDbDictionaryVar
  3
"AutoCAD"
 90
        0
280
         0
281
         0
  0
CLASS
  1
RASTERVARIABLES
  2
AcDbRasterVariables
  3
ISM
 90
        0
280
         0
281
         0
  0
CLASS
  1
IMAGEDEF
  2
AcDbRasterImageDef
  3
ISM
 90
        0
280
         0
281
         0
  0
CLASS
  1
IMAGEDEF_REACTOR
  2
AcDbRasterImageDefReactor
  3
ISM
 90
        1
280
         0
281
         0
  0
CLASS
  1
IDBUFFER
  2
AcDbIdBuffer
  3
"Acad"
 90
        0
280
         0
281
         0
  0
CLASS
  1
SPATIAL_FILTER
  2
AcDbSpatialFilter
  3
"Acad"
 90
        0
280
         0
281
         0
  0
CLASS
  1
XRECORD
  2
AcDbXrecord
  3
"<Built In>"
 90
        0
280
         0
281
         0
  0
CLASS
  1
SORTENTSTABLE
  2
AcDbSortentsTable
  3
"AutoCAD"
 90
        0
280
         0
281
         0
  0
CLASS
  1
LAYER_INDEX
  2
AcDbLayerIndex
  3
"Acad"
 90
        0
280
         0
281
         0
  0
CLASS
  1
SPATIAL_INDEX
  2
AcDbSpatialIndex
  3
"Acad"
 90
        0
280
         0
281
         0
  0
CLASS
  1
OBJECT_PTR
  2
CAseDLPNTableRecord
  3
"ASE-LPNTableRecord"
 90
        1
280
         0
281
         0
  0
CLASS
  1
LAYOUT
  2
AcDbLayout
  3
"AutoCAD 2000"
 90
        1
280
         0
281
         0
  0
CLASS
  1
PLOTSETTINGS
  2
AcDbPlotSettings
  3
"AutoCAD 2000"
 90
        1
280
         0
281
         0
  0
CLASS
  1
ACDBDICTIONARYWDFLT
  2
AcDbDictionaryWithDefault
  3
"AutoCAD 2000"
 90
        1
280
         0
281
         0
  0
CLASS
  1
ACDBPLACEHOLDER
  2
AcDbPlaceHolder
  3
"AutoCAD 2000"
 90
        1
280
         0
281
         0
  0
CLASS
  1
VBA_PROJECT
  2
AcDbVbaProject
  3
"acadvba"
 90
        1
280
         0
281
         0
  0
CLASS
  1
WIPEOUT
  2
AcDbWipeout
  3
WipeOut|AutoCAD Express Tool|expresstools@autodesk.com
 90
      127
280
         0
281
         1
  0
CLASS
  1
WIPEOUTVARIABLES
  2
AcDbWipeoutVariables
  3
WipeOut|AutoCAD Express Tool|expresstools@autodesk.com
 90
        0
280
         0
281
         0
  0
CLASS
  1
RTEXT
  2
RText
  3
RText|AutoCAD Express Tool|expresstools@autodesk.com
 90
        0
280
         0
281
         1
  0
CLASS
  1
ARCALIGNEDTEXT
  2
AcDbArcAlignedText
  3
ATEXT|AutoCAD Express Tool|expresstools@autodesk.com
 90
        0
280
         0
281
         1
  0
ENDSEC
  0
SECTION
  2
TABLES
  0
TABLE
  2
VPORT
  5
7
100
AcDbSymbolTable
 70
         1
  0
VPORT
  5
15
100
AcDbSymbolTableRecord
100
AcDbViewportTableRecord
  2
*ACTIVE
 70
         0
 10
0.0
 20
0.0
 11
1.0
 21
1.0
 12
6.591288
 22
4.579184
 13
0.0
 23
0.0
 14
1.0
 24
1.0
 15
0.0
 25
0.0
 16
0.0
 26
0.0
 36
1.0
 17
0.0
 27
0.0
 37
0.0
 40
9.158369
 41
0.688564
 42
50.0
 43
0.0
 44
0.0
 50
0.0
 51
0.0
 71
         0
 72
       100
 73
         1
 74
         1
 75
         0
 76
         0
 77
         0
 78
         0
281
         0
 65
         0
110
0.0
120
0.0
130
0.0
111
1.0
121
0.0
131
0.0
112
0.0
122
1.0
132
0.0
345
0
346
0
 79
         0
146
0.0
  0
ENDTAB
  0
TABLE
  2
LTYPE
  5
4
100
AcDbSymbolTable
 70
        13
  0
LTYPE
  5
11
100
AcDbSymbolTableRecord
100
AcDbLinetypeTableRecord
  2
ByBlock
 70
        64
  3

 72
        65
 73
         0
 40
0.0
  0
LTYPE
  5
12
100
AcDbSymbolTableRecord
100
AcDbLinetypeTableRecord
  2
ByLayer
 70
        64
  3

 72
        65
 73
         0
 40
0.0
  0
LTYPE
  5
13
100
AcDbSymbolTableRecord
100
AcDbLinetypeTableRecord
  2
Continuous
 70
        64
  3
Solid line
 72
        65
 73
         0
 40
0.0
  0
LTYPE
  5
24
100
AcDbSymbolTableRecord
100
AcDbLinetypeTableRecord
  2
DOT
 70
        64
  3
. . . . . . . . 
 72
        65
 73
         2
 40
1.0
 49
0.0
 74
         0
 49
-1.0
 74
         0
  0
LTYPE
  5
25
100
AcDbSymbolTableRecord
100
AcDbLinetypeTableRecord
  2
DASHED
 70
        64
  3
___  ___  ___  ___  
 72
        65
 73
         2
 40
4.0
 49
3.0
 74
         0
 49
-1.0
 74
         0
  0
LTYPE
  5
26
100
AcDbSymbolTableRecord
100
AcDbLinetypeTableRecord
  2
HIDDEN
 70
        64
  3
__ __ __ __ 
 72
        65
 73
         2
 40
3.0
 49
2.0
 74
         0
 49
-1.0
 74
         0
  0
LTYPE
  5
27
100
AcDbSymbolTableRecord
100
AcDbLinetypeTableRecord
  2
STITCH
 70
        64
  3
_ _ _ _ 
 72
        65
 73
         2
 40
2.0
 49
1.0
 74
         0
 49
-1.0
 74
         0
  0
LTYPE
  5
28
100
AcDbSymbolTableRecord
100
AcDbLinetypeTableRecord
  2
CENTER
 70
        64
  3
______  __  ______  __  
 72
        65
 73
         4
 40
43.0
 49
40.0
 74
         0
 49
-1.0
 74
         0
 49
1.0
 74
         0
 49
-1.0
 74
         0
  0
LTYPE
  5
29
100
AcDbSymbolTableRecord
100
AcDbLinetypeTableRecord
  2
DASHDOT
 70
        64
  3
____ . ____ . 
 72
        65
 73
         4
 40
32.0
 49
30.0
 74
         0
 49
-1.0
 74
         0
 49
0.0
 74
         0
 49
-1.0
 74
         0
  0
LTYPE
  5
2A
100
AcDbSymbolTableRecord
100
AcDbLinetypeTableRecord
  2
BORDER
 70
        64
  3
__ . __ . 
 72
        65
 73
         4
 40
22.0
 49
20.0
 74
         0
 49
-1.0
 74
         0
 49
0.0
 74
         0
 49
-1.0
 74
         0
  0
LTYPE
  5
2B
100
AcDbSymbolTableRecord
100
AcDbLinetypeTableRecord
  2
CUTTING
 70
        64
  3
________   ___   ___   
 72
        65
 73
         6
 40
45.0
 49
40.0
 74
         0
 49
-1.0
 74
         0
 49
1.0
 74
         0
 49
-1.0
 74
         0
 49
1.0
 74
         0
 49
-1.0
 74
         0
  0
LTYPE
  5
2C
100
AcDbSymbolTableRecord
100
AcDbLinetypeTableRecord
  2
PHANTOM
 70
        64
  3
______  __  __  
 72
        65
 73
         6
 40
35.0
 49
30.0
 74
         0
 49
-1.0
 74
         0
 49
1.0
 74
         0
 49
-1.0
 74
         0
 49
1.0
 74
         0
 49
-1.0
 74
         0
  0
LTYPE
  5
2D
100
AcDbSymbolTableRecord
100
AcDbLinetypeTableRecord
  2
DIVIDE
 70
        64
  3
____ . . ____ . . 
 72
        65
 73
         6
 40
23.0
 49
20.0
 74
         0
 49
-1.0
 74
         0
 49
0.0
 74
         0
 49
-1.0
 74
         0
 49
0.0
 74
         0
 49
-1.0
 74
         0
  0
ENDTAB
  0
TABLE
  2
LAYER
  5
2
100
AcDbSymbolTable
 70
         3
  0
LAYER
  5
14
100
AcDbSymbolTableRecord
100
AcDbLayerTableRecord
  2
0
 70
         0
 62
         7
  6
Continuous
290
         1
370
        -3
390
1D
  0
LAYER
  5
2E
100
AcDbSymbolTableRecord
100
AcDbLayerTableRecord
  2
LAYER3
 70
         0
 62
         7
  6
Continuous
290
         1
370
        -3
390
1F
  0
LAYER
  5
36
100
AcDbSymbolTableRecord
100
AcDbLayerTableRecord
  2
LAYER0
 70
         0
 62
         7
  6
Continuous
290
         1
370
        -3
390
1F
  0
ENDTAB
  0
TABLE
  2
STYLE
  5
3
100
AcDbSymbolTable
 70
         1
  0
STYLE
  5
17
100
AcDbSymbolTableRecord
100
AcDbTextStyleTableRecord
  2
Standard
 70
         0
 40
0.0
 41
1.0
 50
0.0
 71
         0
 42
0.0
  3
txt
  4
extfont
  0
ENDTAB
  0
TABLE
  2
VIEW
  5
5
100
AcDbSymbolTable
 70
         0
  0
ENDTAB
  0
TABLE
  2
UCS
  5
6
100
AcDbSymbolTable
 70
         0
  0
ENDTAB
  0
TABLE
  2
APPID
  5
8
100
AcDbSymbolTable
 70
         1
  0
APPID
  5
16
100
AcDbSymbolTableRecord
100
AcDbRegAppTableRecord
  2
ACAD
 70
         0
  0
ENDTAB
  0
TABLE
  2
DIMSTYLE
  5
9
100
AcDbSymbolTable
 70
         1
100
AcDbDimStyleTable
 71
         0
  0
DIMSTYLE
105
18
100
AcDbSymbolTableRecord
100
AcDbDimStyleTableRecord
  2
Standard
 70
         0
  3

  4

 40
1.0
 41
0.18
 42
0.0625
 43
0.38
 44
0.18
 45
0.0
 46
0.0
 47
0.0
 48
0.0
 71
         0
 72
         0
 73
         1
 74
         1
 75
         0
 76
         0
 77
         0
 78
         0
 79
         0
140
0.18
141
0.09
142
0.0
143
25.4
144
1.0
145
0.0
146
1.0
147
0.09
148
0.0
170
         0
171
         2
172
         0
173
         0
174
         0
175
         0
176
         0
177
         0
178
         0
179
         0
271
         4
272
         4
273
         2
274
         2
275
         0
276
         0
277
         2
278
        46
279
         0
280
         0
281
         0
282
         0
283
         1
284
         0
285
         0
286
         0
288
         0
340
17
341
0
342
0
343
0
344
0
371
        -2
372
        -2
  0
ENDTAB
  0
TABLE
  2
BLOCK_RECORD
  5
1
100
AcDbSymbolTable
 70
        76
  0
BLOCK_RECORD
  5
A
100
AcDbSymbolTableRecord
100
AcDbBlockTableRecord
  2
*MODEL_SPACE
340
20
  0
BLOCK_RECORD
  5
B
100
AcDbSymbolTableRecord
100
AcDbBlockTableRecord
  2
*PAPER_SPACE
340
21
  0
BLOCK_RECORD
  5
40
100
AcDbSymbolTableRecord
100
AcDbBlockTableRecord
  2
CLUMP0
340
0
  0
BLOCK_RECORD
  5
43
100
AcDbSymbolTableRecord
100
AcDbBlockTableRecord
  2
CLUMP1
340
0
  0
BLOCK_RECORD
  5
4A
100
AcDbSymbolTableRecord
100
AcDbBlockTableRecord
  2
CLUMP2
340
0
  0
BLOCK_RECORD
  5
4D
100
AcDbSymbolTableRecord
100
AcDbBlockTableRecord
  2
CLUMP3
340
0
  0
BLOCK_RECORD
  5
59
100
AcDbSymbolTableRecord
100
AcDbBlockTableRecord
  2
CLUMP4
340
0
  0
BLOCK_RECORD
  5
5C
100
AcDbSymbolTableRecord
100
AcDbBlockTableRecord
  2
CLUMP5
340
0
  0
BLOCK_RECORD
  5
63
100
AcDbSymbolTableRecord
100
AcDbBlockTableRecord
  2
CLUMP6
340
0
  0
BLOCK_RECORD
  5
66
100
AcDbSymbolTableRecord
100
AcDbBlockTableRecord
  2
CLUMP7
340
0
  0
BLOCK_RECORD
  5
6F
100
AcDbSymbolTableRecord
100
AcDbBlockTableRecord
  2
CLUMP8
340
0
  0
BLOCK_RECORD
  5
72
100
AcDbSymbolTableRecord
100
AcDbBlockTableRecord
  2
CLUMP9
340
0
  0
BLOCK_RECORD
  5
7E
100
AcDbSymbolTableRecord
100
AcDbBlockTableRecord
  2
CLUMP10
340
0
  0
BLOCK_RECORD
  5
81
100
AcDbSymbolTableRecord
100
AcDbBlockTableRecord
  2
CLUMP11
340
0
  0
BLOCK_RECORD
  5
8B
100
AcDbSymbolTableRecord
100
AcDbBlockTableRecord
  2
CLUMP12
340
0
  0
BLOCK_RECORD
  5
8E
100
AcDbSymbolTableRecord
100
AcDbBlockTableRecord
  2
CLUMP13
340
0
  0
BLOCK_RECORD
  5
9A
100
AcDbSymbolTableRecord
100
AcDbBlockTableRecord
  2
CLUMP14
340
0
  0
BLOCK_RECORD
  5
9D
100
AcDbSymbolTableRecord
100
AcDbBlockTableRecord
  2
CLUMP15
340
0
  0
BLOCK_RECORD
  5
A7
100
AcDbSymbolTableRecord
100
AcDbBlockTableRecord
  2
CLUMP16
340
0
  0
BLOCK_RECORD
  5
AA
100
AcDbSymbolTableRecord
100
AcDbBlockTableRecord
  2
CLUMP17
340
0
  0
BLOCK_RECORD
  5
BB
100
AcDbSymbolTableRecord
100
AcDbBlockTableRecord
  2
CLUMP18
340
0
  0
BLOCK_RECORD
  5
BE
100
AcDbSymbolTableRecord
100
AcDbBlockTableRecord
  2
CLUMP19
340
0
  0
BLOCK_RECORD
  5
CF
100
AcDbSymbolTableRecord
100
AcDbBlockTableRecord
  2
CLUMP20
340
0
  0
BLOCK_RECORD
  5
D2
100
AcDbSymbolTableRecord
100
AcDbBlockTableRecord
  2
CLUMP21
340
0
  0
BLOCK_RECORD
  5
DE
100
AcDbSymbolTableRecord
100
AcDbBlockTableRecord
  2
CLUMP22
340
0
  0
BLOCK_RECORD
  5
E1
100
AcDbSymbolTableRecord
100
AcDbBlockTableRecord
  2
CLUMP23
340
0
  0
BLOCK_RECORD
  5
EA
100
AcDbSymbolTableRecord
100
AcDbBlockTableRecord
  2
CLUMP24
340
0
  0
BLOCK_RECORD
  5
ED
100
AcDbSymbolTableRecord
100
AcDbBlockTableRecord
  2
CLUMP25
340
0
  0
BLOCK_RECORD
  5
F4
100
AcDbSymbolTableRecord
100
AcDbBlockTableRecord
  2
CLUMP26
340
0
  0
BLOCK_RECORD
  5
F7
100
AcDbSymbolTableRecord
100
AcDbBlockTableRecord
  2
CLUMP27
340
0
  0
BLOCK_RECORD
  5
11C
100
AcDbSymbolTableRecord
100
AcDbBlockTableRecord
  2
CLUMP28
340
0
  0
BLOCK_RECORD
  5
11F
100
AcDbSymbolTableRecord
100
AcDbBlockTableRecord
  2
CLUMP29
340
0
  0
BLOCK_RECORD
  5
135
100
AcDbSymbolTableRecord
100
AcDbBlockTableRecord
  2
CLUMP30
340
0
  0
BLOCK_RECORD
  5
138
100
AcDbSymbolTableRecord
100
AcDbBlockTableRecord
  2
CLUMP31
340
0
  0
BLOCK_RECORD
  5
14F
100
AcDbSymbolTableRecord
100
AcDbBlockTableRecord
  2
CLUMP32
340
0
  0
BLOCK_RECORD
  5
152
100
AcDbSymbolTableRecord
100
AcDbBlockTableRecord
  2
CLUMP33
340
0
  0
BLOCK_RECORD
  5
169
100
AcDbSymbolTableRecord
100
AcDbBlockTableRecord
  2
CLUMP34
340
0
  0
BLOCK_RECORD
  5
16C
100
AcDbSymbolTableRecord
100
AcDbBlockTableRecord
  2
CLUMP35
340
0
  0
BLOCK_RECORD
  5
181
100
AcDbSymbolTableRecord
100
AcDbBlockTableRecord
  2
CLUMP36
340
0
  0
BLOCK_RECORD
  5
184
100
AcDbSymbolTableRecord
100
AcDbBlockTableRecord
  2
CLUMP37
340
0
  0
BLOCK_RECORD
  5
199
100
AcDbSymbolTableRecord
100
AcDbBlockTableRecord
  2
CLUMP38
340
0
  0
BLOCK_RECORD
  5
19C
100
AcDbSymbolTableRecord
100
AcDbBlockTableRecord
  2
CLUMP39
340
0
  0
BLOCK_RECORD
  5
1FE
100
AcDbSymbolTableRecord
100
AcDbBlockTableRecord
  2
CLUMP40
340
0
  0
BLOCK_RECORD
  5
201
100
AcDbSymbolTableRecord
100
AcDbBlockTableRecord
  2
CLUMP41
340
0
  0
BLOCK_RECORD
  5
210
100
AcDbSymbolTableRecord
100
AcDbBlockTableRecord
  2
CLUMP42
340
0
  0
BLOCK_RECORD
  5
213
100
AcDbSymbolTableRecord
100
AcDbBlockTableRecord
  2
CLUMP43
340
0
  0
BLOCK_RECORD
  5
221
100
AcDbSymbolTableRecord
100
AcDbBlockTableRecord
  2
CLUMP44
340
0
  0
BLOCK_RECORD
  5
224
100
AcDbSymbolTableRecord
100
AcDbBlockTableRecord
  2
CLUMP45
340
0
  0
BLOCK_RECORD
  5
230
100
AcDbSymbolTableRecord
100
AcDbBlockTableRecord
  2
CLUMP46
340
0
  0
BLOCK_RECORD
  5
233
100
AcDbSymbolTableRecord
100
AcDbBlockTableRecord
  2
CLUMP47
340
0
  0
BLOCK_RECORD
  5
241
100
AcDbSymbolTableRecord
100
AcDbBlockTableRecord
  2
CLUMP48
340
0
  0
BLOCK_RECORD
  5
244
100
AcDbSymbolTableRecord
100
AcDbBlockTableRecord
  2
CLUMP49
340
0
  0
BLOCK_RECORD
  5
250
100
AcDbSymbolTableRecord
100
AcDbBlockTableRecord
  2
CLUMP50
340
0
  0
BLOCK_RECORD
  5
253
100
AcDbSymbolTableRecord
100
AcDbBlockTableRecord
  2
CLUMP51
340
0
  0
BLOCK_RECORD
  5
267
100
AcDbSymbolTableRecord
100
AcDbBlockTableRecord
  2
CLUMP52
340
0
  0
BLOCK_RECORD
  5
26A
100
AcDbSymbolTableRecord
100
AcDbBlockTableRecord
  2
CLUMP53
340
0
  0
BLOCK_RECORD
  5
27E
100
AcDbSymbolTableRecord
100
AcDbBlockTableRecord
  2
CLUMP54
340
0
  0
BLOCK_RECORD
  5
281
100
AcDbSymbolTableRecord
100
AcDbBlockTableRecord
  2
CLUMP55
340
0
  0
BLOCK_RECORD
  5
296
100
AcDbSymbolTableRecord
100
AcDbBlockTableRecord
  2
CLUMP56
340
0
  0
BLOCK_RECORD
  5
299
100
AcDbSymbolTableRecord
100
AcDbBlockTableRecord
  2
CLUMP57
340
0
  0
BLOCK_RECORD
  5
2AF
100
AcDbSymbolTableRecord
100
AcDbBlockTableRecord
  2
CLUMP58
340
0
  0
BLOCK_RECORD
  5
2B2
100
AcDbSymbolTableRecord
100
AcDbBlockTableRecord
  2
CLUMP59
340
0
  0
BLOCK_RECORD
  5
2CC
100
AcDbSymbolTableRecord
100
AcDbBlockTableRecord
  2
CLUMP60
340
0
  0
BLOCK_RECORD
  5
2CF
100
AcDbSymbolTableRecord
100
AcDbBlockTableRecord
  2
CLUMP61
340
0
  0
BLOCK_RECORD
  5
2E7
100
AcDbSymbolTableRecord
100
AcDbBlockTableRecord
  2
CLUMP62
340
0
  0
BLOCK_RECORD
  5
2EA
100
AcDbSymbolTableRecord
100
AcDbBlockTableRecord
  2
CLUMP63
340
0
  0
BLOCK_RECORD
  5
2FA
100
AcDbSymbolTableRecord
100
AcDbBlockTableRecord
  2
CLUMP64
340
0
  0
BLOCK_RECORD
  5
2FD
100
AcDbSymbolTableRecord
100
AcDbBlockTableRecord
  2
CLUMP65
340
0
  0
BLOCK_RECORD
  5
30D
100
AcDbSymbolTableRecord
100
AcDbBlockTableRecord
  2
CLUMP66
340
0
  0
BLOCK_RECORD
  5
310
100
AcDbSymbolTableRecord
100
AcDbBlockTableRecord
  2
CLUMP67
340
0
  0
BLOCK_RECORD
  5
37E
100
AcDbSymbolTableRecord
100
AcDbBlockTableRecord
  2
CLUMP68
340
0
  0
BLOCK_RECORD
  5
381
100
AcDbSymbolTableRecord
100
AcDbBlockTableRecord
  2
CLUMP69
340
0
  0
BLOCK_RECORD
  5
39B
100
AcDbSymbolTableRecord
100
AcDbBlockTableRecord
  2
CLUMP70
340
0
  0
BLOCK_RECORD
  5
39E
100
AcDbSymbolTableRecord
100
AcDbBlockTableRecord
  2
CLUMP71
340
0
  0
BLOCK_RECORD
  5
3B8
100
AcDbSymbolTableRecord
100
AcDbBlockTableRecord
  2
CLUMP72
340
0
  0
BLOCK_RECORD
  5
3BB
100
AcDbSymbolTableRecord
100
AcDbBlockTableRecord
  2
CLUMP73
340
0
  0
BLOCK_RECORD
  5
3CF
100
AcDbSymbolTableRecord
100
AcDbBlockTableRecord
  2
CLUMP74
340
0
  0
BLOCK_RECORD
  5
3D2
100
AcDbSymbolTableRecord
100
AcDbBlockTableRecord
  2
CLUMP75
340
0
  0
ENDTAB
  0
ENDSEC
  0
SECTION
  2
BLOCKS
  0
BLOCK
  5
D
100
AcDbEntity
  8
0
100
AcDbBlockBegin
  2
*MODEL_SPACE
 70
         0
 10
0.0
 20
0.0
 30
0.0
  3
*MODEL_SPACE
  1

  0
ENDBLK
  5
E
100
AcDbEntity
  8
0
100
AcDbBlockEnd
  0
BLOCK
  5
F
100
AcDbEntity
 67
         1
  8
0
100
AcDbBlockBegin
  2
*PAPER_SPACE
 70
         0
 10
0.0
 20
0.0
 30
0.0
  3
*PAPER_SPACE
  1

  0
ENDBLK
  5
10
100
AcDbEntity
 67
         1
  8
0
100
AcDbBlockEnd
  0
BLOCK
  5
42
100
AcDbEntity
  8
0
100
AcDbBlockBegin
  2
CLUMP0
 70
         0
 10
0.0
 20
0.0
 30
0.0
  3

  1

  0
INSERT
  5
44
100
AcDbEntity
  8
0
100
AcDbBlockReference
  2
CLUMP1
 10
0.0
 20
0.0
 30
0.0
  0
ENDBLK
  5
49
100
AcDbEntity
  8
0
100
AcDbBlockEnd
  0
BLOCK
  5
45
100
AcDbEntity
  8
0
100
AcDbBlockBegin
  2
CLUMP1
 70
         0
 10
0.0
 20
0.0
 30
0.0
  3

  1

  0
LINE
  5
46
100
AcDbEntity
  8
LAYER0
 62
         3
100
AcDbLine
 10
22.7772333268
 20
18.4601676701
 30
0.0
 11
22.8933279449
 21
18.4579188147
 31
0.0
  0
LINE
  5
47
100
AcDbEntity
  8
LAYER0
 62
         3
100
AcDbLine
 10
22.8933279449
 20
18.4579188147
 30
0.0
 11
22.7772333268
 21
18.4601676701
 31
0.0
  0
ENDBLK
  5
48
100
AcDbEntity
  8
0
100
AcDbBlockEnd
  0
BLOCK
  5
4C
100
AcDbEntity
  8
0
100
AcDbBlockBegin
  2
CLUMP2
 70
         0
 10
0.0
 20
0.0
 30
0.0
  3

  1

  0
INSERT
  5
4E
100
AcDbEntity
  8
0
100
AcDbBlockReference
  2
CLUMP3
 10
0.0
 20
0.0
 30
0.0
  0
ENDBLK
  5
58
100
AcDbEntity
  8
0
100
AcDbBlockEnd
  0
BLOCK
  5
4F
100
AcDbEntity
  8
0
100
AcDbBlockBegin
  2
CLUMP3
 70
         0
 10
0.0
 20
0.0
 30
0.0
  3

  1

  0
LINE
  5
50
100
AcDbEntity
  8
LAYER0
 62
         3
100
AcDbLine
 10
21.8245282785
 20
19.4579182041
 30
0.0
 11
21.8287173674
 21
19.4550609064
 31
0.0
  0
LINE
  5
51
100
AcDbEntity
  8
LAYER0
 62
         3
100
AcDbLine
 10
21.8287173674
 20
19.4550609064
 30
0.0
 11
21.9097455325
 21
19.4011535752
 31
0.0
  0
LINE
  5
52
100
AcDbEntity
  8
LAYER0
 62
         3
100
AcDbLine
 10
21.9097455325
 20
19.4011535752
 30
0.0
 11
21.9951884552
 21
19.3472800674
 31
0.0
  0
LINE
  5
53
100
AcDbEntity
  8
LAYER0
 62
         3
100
AcDbLine
 10
21.9951884552
 20
19.3472800674
 30
0.0
 11
22.0852710083
 21
19.2939023932
 31
0.0
  0
LINE
  5
54
100
AcDbEntity
  8
LAYER0
 62
         3
100
AcDbLine
 10
22.0852710083
 20
19.2939023932
 30
0.0
 11
22.1802180648
 21
19.241482563
 31
0.0
  0
LINE
  5
55
100
AcDbEntity
  8
LAYER0
 62
         3
100
AcDbLine
 10
22.1802180648
 20
19.241482563
 30
0.0
 11
22.3359958442
 21
19.1628123689
 31
0.0
  0
LINE
  5
56
100
AcDbEntity
  8
LAYER0
 62
         3
100
AcDbLine
 10
22.3359958442
 20
19.1628123689
 30
0.0
 11
22.4978591331
 21
19.0858399344
 31
0.0
  0
ENDBLK
  5
57
100
AcDbEntity
  8
0
100
AcDbBlockEnd
  0
BLOCK
  5
5B
100
AcDbEntity
  8
0
100
AcDbBlockBegin
  2
CLUMP4
 70
         0
 10
0.0
 20
0.0
 30
0.0
  3

  1

  0
INSERT
  5
5D
100
AcDbEntity
  8
0
100
AcDbBlockReference
  2
CLUMP5
 10
0.0
 20
0.0
 30
0.0
  0
ENDBLK
  5
62
100
AcDbEntity
  8
0
100
AcDbBlockEnd
  0
BLOCK
  5
5E
100
AcDbEntity
  8
0
100
AcDbBlockBegin
  2
CLUMP5
 70
         0
 10
0.0
 20
0.0
 30
0.0
  3

  1

  0
LINE
  5
5F
100
AcDbEntity
  8
LAYER0
 62
         3
100
AcDbLine
 10
23.0272333268
 20
18.9590432424
 30
0.0
 11
23.1433279449
 21
18.9579188147
 31
0.0
  0
LINE
  5
60
100
AcDbEntity
  8
LAYER0
 62
         3
100
AcDbLine
 10
23.1433279449
 20
18.9579188147
 30
0.0
 11
23.0272333268
 21
18.9590432424
 31
0.0
  0
ENDBLK
  5
61
100
AcDbEntity
  8
0
100
AcDbBlockEnd
  0
BLOCK
  5
65
100
AcDbEntity
  8
0
100
AcDbBlockBegin
  2
CLUMP6
 70
         0
 10
0.0
 20
0.0
 30
0.0
  3

  1

  0
INSERT
  5
67
100
AcDbEntity
  8
0
100
AcDbBlockReference
  2
CLUMP7
 10
0.0
 20
0.0
 30
0.0
  0
ENDBLK
  5
6E
100
AcDbEntity
  8
0
100
AcDbBlockEnd
  0
BLOCK
  5
68
100
AcDbEntity
  8
0
100
AcDbBlockBegin
  2
CLUMP7
 70
         0
 10
0.0
 20
0.0
 30
0.0
  3

  1

  0
LINE
  5
69
100
AcDbEntity
  8
LAYER0
 62
         3
100
AcDbLine
 10
22.4978591331
 20
19.0858399344
 30
0.0
 11
22.5894264713
 21
19.0437965907
 31
0.0
  0
LINE
  5
6A
100
AcDbEntity
  8
LAYER0
 62
         3
100
AcDbLine
 10
22.5894264713
 20
19.0437965907
 30
0.0
 11
22.6354165269
 21
19.0247817424
 31
0.0
  0
LINE
  5
6B
100
AcDbEntity
  8
LAYER0
 62
         3
100
AcDbLine
 10
22.6354165269
 20
19.0247817424
 30
0.0
 11
22.6816542462
 21
19.0081750822
 31
0.0
  0
LINE
  5
6C
100
AcDbEntity
  8
LAYER0
 62
         3
100
AcDbLine
 10
22.6816542462
 20
19.0081750822
 30
0.0
 11
22.740769481
 21
18.9906736684
 31
0.0
  0
ENDBLK
  5
6D
100
AcDbEntity
  8
0
100
AcDbBlockEnd
  0
BLOCK
  5
71
100
AcDbEntity
  8
0
100
AcDbBlockBegin
  2
CLUMP8
 70
         0
 10
0.0
 20
0.0
 30
0.0
  3

  1

  0
INSERT
  5
73
100
AcDbEntity
  8
0
100
AcDbBlockReference
  2
CLUMP9
 10
0.0
 20
0.0
 30
0.0
  0
ENDBLK
  5
7D
100
AcDbEntity
  8
0
100
AcDbBlockEnd
  0
BLOCK
  5
74
100
AcDbEntity
  8
0
100
AcDbBlockBegin
  2
CLUMP9
 70
         0
 10
0.0
 20
0.0
 30
0.0
  3

  1

  0
LINE
  5
75
100
AcDbEntity
  8
LAYER0
 62
         3
100
AcDbLine
 10
22.225708516
 20
18.7137653899
 30
0.0
 11
22.1221234437
 21
18.8680070632
 31
0.0
  0
LINE
  5
76
100
AcDbEntity
  8
LAYER0
 62
         3
100
AcDbLine
 10
22.1221234437
 20
18.8680070632
 30
0.0
 11
22.025250645
 21
19.025046922
 31
0.0
  0
LINE
  5
77
100
AcDbEntity
  8
LAYER0
 62
         3
100
AcDbLine
 10
22.025250645
 20
19.025046922
 30
0.0
 11
21.9683899042
 21
19.1302301058
 31
0.0
  0
LINE
  5
78
100
AcDbEntity
  8
LAYER0
 62
         3
100
AcDbLine
 10
21.9683899042
 20
19.1302301058
 30
0.0
 11
21.916710934
 21
19.2370130137
 31
0.0
  0
LINE
  5
79
100
AcDbEntity
  8
LAYER0
 62
         3
100
AcDbLine
 10
21.916710934
 20
19.2370130137
 30
0.0
 11
21.8696655857
 21
19.3446067041
 31
0.0
  0
LINE
  5
7A
100
AcDbEntity
  8
LAYER0
 62
         3
100
AcDbLine
 10
21.8696655857
 20
19.3446067041
 30
0.0
 11
21.8267057106
 21
19.4522222352
 31
0.0
  0
LINE
  5
7B
100
AcDbEntity
  8
LAYER0
 62
         3
100
AcDbLine
 10
21.8267057106
 20
19.4522222352
 30
0.0
 11
21.8245282785
 21
19.4579182041
 31
0.0
  0
ENDBLK
  5
7C
100
AcDbEntity
  8
0
100
AcDbBlockEnd
  0
BLOCK
  5
80
100
AcDbEntity
  8
0
100
AcDbBlockBegin
  2
CLUMP10
 70
         0
 10
0.0
 20
0.0
 30
0.0
  3

  1

  0
INSERT
  5
82
100
AcDbEntity
  8
0
100
AcDbBlockReference
  2
CLUMP11
 10
0.0
 20
0.0
 30
0.0
  0
ENDBLK
  5
8A
100
AcDbEntity
  8
0
100
AcDbBlockEnd
  0
BLOCK
  5
83
100
AcDbEntity
  8
0
100
AcDbBlockBegin
  2
CLUMP11
 70
         0
 10
0.0
 20
0.0
 30
0.0
  3

  1

  0
LINE
  5
84
100
AcDbEntity
  8
LAYER0
 62
         3
100
AcDbLine
 10
22.4155628138
 20
18.523432858
 30
0.0
 11
22.3710665495
 21
18.5584319604
 31
0.0
  0
LINE
  5
85
100
AcDbEntity
  8
LAYER0
 62
         3
100
AcDbLine
 10
22.3710665495
 20
18.5584319604
 30
0.0
 11
22.333122565
 21
18.5932796103
 31
0.0
  0
LINE
  5
86
100
AcDbEntity
  8
LAYER0
 62
         3
100
AcDbLine
 10
22.333122565
 20
18.5932796103
 30
0.0
 11
22.2965538458
 21
18.631543581
 31
0.0
  0
LINE
  5
87
100
AcDbEntity
  8
LAYER0
 62
         3
100
AcDbLine
 10
22.2965538458
 20
18.631543581
 30
0.0
 11
22.26090197
 21
18.6720850987
 31
0.0
  0
LINE
  5
88
100
AcDbEntity
  8
LAYER0
 62
         3
100
AcDbLine
 10
22.26090197
 20
18.6720850987
 30
0.0
 11
22.225708516
 21
18.7137653899
 31
0.0
  0
ENDBLK
  5
89
100
AcDbEntity
  8
0
100
AcDbBlockEnd
  0
BLOCK
  5
8D
100
AcDbEntity
  8
0
100
AcDbBlockBegin
  2
CLUMP12
 70
         0
 10
0.0
 20
0.0
 30
0.0
  3

  1

  0
INSERT
  5
8F
100
AcDbEntity
  8
0
100
AcDbBlockReference
  2
CLUMP13
 10
0.0
 20
0.0
 30
0.0
  0
ENDBLK
  5
99
100
AcDbEntity
  8
0
100
AcDbBlockEnd
  0
BLOCK
  5
90
100
AcDbEntity
  8
0
100
AcDbBlockBegin
  2
CLUMP13
 70
         0
 10
0.0
 20
0.0
 30
0.0
  3

  1

  0
LINE
  5
91
100
AcDbEntity
  8
LAYER0
 62
         3
100
AcDbLine
 10
38.1941784189
 20
19.4579182041
 30
0.0
 11
38.1920009867
 21
19.4522222352
 31
0.0
  0
LINE
  5
92
100
AcDbEntity
  8
LAYER0
 62
         3
100
AcDbLine
 10
38.1920009867
 20
19.4522222352
 30
0.0
 11
38.1490411116
 21
19.3446067041
 31
0.0
  0
LINE
  5
93
100
AcDbEntity
  8
LAYER0
 62
         3
100
AcDbLine
 10
38.1490411116
 20
19.3446067041
 30
0.0
 11
38.1019957633
 21
19.2370130137
 31
0.0
  0
LINE
  5
94
100
AcDbEntity
  8
LAYER0
 62
         3
100
AcDbLine
 10
38.1019957633
 20
19.2370130137
 30
0.0
 11
38.0503167931
 21
19.1302301058
 31
0.0
  0
LINE
  5
95
100
AcDbEntity
  8
LAYER0
 62
         3
100
AcDbLine
 10
38.0503167931
 20
19.1302301058
 30
0.0
 11
37.9934560523
 21
19.025046922
 31
0.0
  0
LINE
  5
96
100
AcDbEntity
  8
LAYER0
 62
         3
100
AcDbLine
 10
37.9934560523
 20
19.025046922
 30
0.0
 11
37.8965832536
 21
18.8680070632
 31
0.0
  0
LINE
  5
97
100
AcDbEntity
  8
LAYER0
 62
         3
100
AcDbLine
 10
37.8965832536
 20
18.8680070632
 30
0.0
 11
37.7929981813
 21
18.7137653899
 31
0.0
  0
ENDBLK
  5
98
100
AcDbEntity
  8
0
100
AcDbBlockEnd
  0
BLOCK
  5
9C
100
AcDbEntity
  8
0
100
AcDbBlockBegin
  2
CLUMP14
 70
         0
 10
0.0
 20
0.0
 30
0.0
  3

  1

  0
INSERT
  5
9E
100
AcDbEntity
  8
0
100
AcDbBlockReference
  2
CLUMP15
 10
0.0
 20
0.0
 30
0.0
  0
ENDBLK
  5
A6
100
AcDbEntity
  8
0
100
AcDbBlockEnd
  0
BLOCK
  5
9F
100
AcDbEntity
  8
0
100
AcDbBlockBegin
  2
CLUMP15
 70
         0
 10
0.0
 20
0.0
 30
0.0
  3

  1

  0
LINE
  5
A0
100
AcDbEntity
  8
LAYER0
 62
         3
100
AcDbLine
 10
37.7929981813
 20
18.7137653899
 30
0.0
 11
37.7578047273
 21
18.6720850987
 31
0.0
  0
LINE
  5
A1
100
AcDbEntity
  8
LAYER0
 62
         3
100
AcDbLine
 10
37.7578047273
 20
18.6720850987
 30
0.0
 11
37.7221528516
 21
18.631543581
 31
0.0
  0
LINE
  5
A2
100
AcDbEntity
  8
LAYER0
 62
         3
100
AcDbLine
 10
37.7221528516
 20
18.631543581
 30
0.0
 11
37.6855841323
 21
18.5932796103
 31
0.0
  0
LINE
  5
A3
100
AcDbEntity
  8
LAYER0
 62
         3
100
AcDbLine
 10
37.6855841323
 20
18.5932796103
 30
0.0
 11
37.6476401479
 21
18.5584319604
 31
0.0
  0
LINE
  5
A4
100
AcDbEntity
  8
LAYER0
 62
         3
100
AcDbLine
 10
37.6476401479
 20
18.5584319604
 30
0.0
 11
37.6031438835
 21
18.523432858
 31
0.0
  0
ENDBLK
  5
A5
100
AcDbEntity
  8
0
100
AcDbBlockEnd
  0
BLOCK
  5
A9
100
AcDbEntity
  8
0
100
AcDbBlockBegin
  2
CLUMP16
 70
         0
 10
0.0
 20
0.0
 30
0.0
  3

  1

  0
INSERT
  5
AB
100
AcDbEntity
  8
0
100
AcDbBlockReference
  2
CLUMP17
 10
0.0
 20
0.0
 30
0.0
  0
ENDBLK
  5
BA
100
AcDbEntity
  8
0
100
AcDbBlockEnd
  0
BLOCK
  5
AC
100
AcDbEntity
  8
0
100
AcDbBlockBegin
  2
CLUMP17
 70
         0
 10
0.0
 20
0.0
 30
0.0
  3

  1

  0
LINE
  5
AD
100
AcDbEntity
  8
LAYER0
 62
         3
100
AcDbLine
 10
20.0093535722
 20
20.3805683029
 30
0.0
 11
20.0292481652
 21
20.5495521606
 31
0.0
  0
LINE
  5
AE
100
AcDbEntity
  8
LAYER0
 62
         3
100
AcDbLine
 10
20.0292481652
 20
20.5495521606
 30
0.0
 11
20.0445030362
 21
20.6322262435
 31
0.0
  0
LINE
  5
AF
100
AcDbEntity
  8
LAYER0
 62
         3
100
AcDbLine
 10
20.0445030362
 20
20.6322262435
 30
0.0
 11
20.0661269963
 21
20.7127189112
 31
0.0
  0
LINE
  5
B0
100
AcDbEntity
  8
LAYER0
 62
         3
100
AcDbLine
 10
20.0661269963
 20
20.7127189112
 30
0.0
 11
20.0956778474
 21
20.7902414114
 31
0.0
  0
LINE
  5
B1
100
AcDbEntity
  8
LAYER0
 62
         3
100
AcDbLine
 10
20.0956778474
 20
20.7902414114
 30
0.0
 11
20.1327519889
 21
20.8645004857
 31
0.0
  0
LINE
  5
B2
100
AcDbEntity
  8
LAYER0
 62
         3
100
AcDbLine
 10
20.1327519889
 20
20.8645004857
 30
0.0
 11
20.1764077679
 21
20.9351319539
 31
0.0
  0
LINE
  5
B3
100
AcDbEntity
  8
LAYER0
 62
         3
100
AcDbLine
 10
20.1764077679
 20
20.9351319539
 30
0.0
 11
20.2257035316
 21
21.001771636
 31
0.0
  0
LINE
  5
B4
100
AcDbEntity
  8
LAYER0
 62
         3
100
AcDbLine
 10
20.2257035316
 20
21.001771636
 30
0.0
 11
20.2870747674
 21
21.0717118021
 31
0.0
  0
LINE
  5
B5
100
AcDbEntity
  8
LAYER0
 62
         3
100
AcDbLine
 10
20.2870747674
 20
21.0717118021
 30
0.0
 11
20.3540062887
 21
21.1355620355
 31
0.0
  0
LINE
  5
B6
100
AcDbEntity
  8
LAYER0
 62
         3
100
AcDbLine
 10
20.3540062887
 20
21.1355620355
 30
0.0
 11
20.4260765982
 21
21.1927782964
 31
0.0
  0
LINE
  5
B7
100
AcDbEntity
  8
LAYER0
 62
         3
100
AcDbLine
 10
20.4260765982
 20
21.1927782964
 30
0.0
 11
20.5028641984
 21
21.2428165448
 31
0.0
  0
LINE
  5
B8
100
AcDbEntity
  8
LAYER0
 62
         3
100
AcDbLine
 10
20.5028641984
 20
21.2428165448
 30
0.0
 11
20.5093536541
 21
21.2465939891
 31
0.0
  0
ENDBLK
  5
B9
100
AcDbEntity
  8
0
100
AcDbBlockEnd
  0
BLOCK
  5
BD
100
AcDbEntity
  8
0
100
AcDbBlockBegin
  2
CLUMP18
 70
         0
 10
0.0
 20
0.0
 30
0.0
  3

  1

  0
INSERT
  5
BF
100
AcDbEntity
  8
0
100
AcDbBlockReference
  2
CLUMP19
 10
0.0
 20
0.0
 30
0.0
  0
ENDBLK
  5
CE
100
AcDbEntity
  8
0
100
AcDbBlockEnd
  0
BLOCK
  5
C0
100
AcDbEntity
  8
0
100
AcDbBlockBegin
  2
CLUMP19
 70
         0
 10
0.0
 20
0.0
 30
0.0
  3

  1

  0
LINE
  5
C1
100
AcDbEntity
  8
LAYER0
 62
         3
100
AcDbLine
 10
39.5093530432
 20
21.2465939891
 30
0.0
 11
39.5158424989
 21
21.2428165448
 31
0.0
  0
LINE
  5
C2
100
AcDbEntity
  8
LAYER0
 62
         3
100
AcDbLine
 10
39.5158424989
 20
21.2428165448
 30
0.0
 11
39.5926300992
 21
21.1927782964
 31
0.0
  0
LINE
  5
C3
100
AcDbEntity
  8
LAYER0
 62
         3
100
AcDbLine
 10
39.5926300992
 20
21.1927782964
 30
0.0
 11
39.6647004086
 21
21.1355620355
 31
0.0
  0
LINE
  5
C4
100
AcDbEntity
  8
LAYER0
 62
         3
100
AcDbLine
 10
39.6647004086
 20
21.1355620355
 30
0.0
 11
39.7316319299
 21
21.0717118021
 31
0.0
  0
LINE
  5
C5
100
AcDbEntity
  8
LAYER0
 62
         3
100
AcDbLine
 10
39.7316319299
 20
21.0717118021
 30
0.0
 11
39.7930031658
 21
21.001771636
 31
0.0
  0
LINE
  5
C6
100
AcDbEntity
  8
LAYER0
 62
         3
100
AcDbLine
 10
39.7930031658
 20
21.001771636
 30
0.0
 11
39.8422989294
 21
20.9351319539
 31
0.0
  0
LINE
  5
C7
100
AcDbEntity
  8
LAYER0
 62
         3
100
AcDbLine
 10
39.8422989294
 20
20.9351319539
 30
0.0
 11
39.8859547084
 21
20.8645004857
 31
0.0
  0
LINE
  5
C8
100
AcDbEntity
  8
LAYER0
 62
         3
100
AcDbLine
 10
39.8859547084
 20
20.8645004857
 30
0.0
 11
39.9230288499
 21
20.7902414114
 31
0.0
  0
LINE
  5
C9
100
AcDbEntity
  8
LAYER0
 62
         3
100
AcDbLine
 10
39.9230288499
 20
20.7902414114
 30
0.0
 11
39.952579701
 21
20.7127189112
 31
0.0
  0
LINE
  5
CA
100
AcDbEntity
  8
LAYER0
 62
         3
100
AcDbLine
 10
39.952579701
 20
20.7127189112
 30
0.0
 11
39.9742036612
 21
20.6322262435
 31
0.0
  0
LINE
  5
CB
100
AcDbEntity
  8
LAYER0
 62
         3
100
AcDbLine
 10
39.9742036612
 20
20.6322262435
 30
0.0
 11
39.9894585321
 21
20.5495521606
 31
0.0
  0
LINE
  5
CC
100
AcDbEntity
  8
LAYER0
 62
         3
100
AcDbLine
 10
39.9894585321
 20
20.5495521606
 30
0.0
 11
40.0093531251
 21
20.3805683029
 31
0.0
  0
ENDBLK
  5
CD
100
AcDbEntity
  8
0
100
AcDbBlockEnd
  0
BLOCK
  5
D1
100
AcDbEntity
  8
0
100
AcDbBlockBegin
  2
CLUMP20
 70
         0
 10
0.0
 20
0.0
 30
0.0
  3

  1

  0
INSERT
  5
D3
100
AcDbEntity
  8
0
100
AcDbBlockReference
  2
CLUMP21
 10
0.0
 20
0.0
 30
0.0
  0
ENDBLK
  5
DD
100
AcDbEntity
  8
0
100
AcDbBlockEnd
  0
BLOCK
  5
D4
100
AcDbEntity
  8
0
100
AcDbBlockBegin
  2
CLUMP21
 70
         0
 10
0.0
 20
0.0
 30
0.0
  3

  1

  0
LINE
  5
D5
100
AcDbEntity
  8
LAYER0
 62
         3
100
AcDbLine
 10
37.5208475642
 20
19.0858399344
 30
0.0
 11
37.6827108531
 21
19.1628123689
 31
0.0
  0
LINE
  5
D6
100
AcDbEntity
  8
LAYER0
 62
         3
100
AcDbLine
 10
37.6827108531
 20
19.1628123689
 30
0.0
 11
37.8384886325
 21
19.241482563
 31
0.0
  0
LINE
  5
D7
100
AcDbEntity
  8
LAYER0
 62
         3
100
AcDbLine
 10
37.8384886325
 20
19.241482563
 30
0.0
 11
37.933435689
 21
19.2939023932
 31
0.0
  0
LINE
  5
D8
100
AcDbEntity
  8
LAYER0
 62
         3
100
AcDbLine
 10
37.933435689
 20
19.2939023932
 30
0.0
 11
38.0235182422
 21
19.3472800674
 31
0.0
  0
LINE
  5
D9
100
AcDbEntity
  8
LAYER0
 62
         3
100
AcDbLine
 10
38.0235182422
 20
19.3472800674
 30
0.0
 11
38.1089611648
 21
19.4011535752
 31
0.0
  0
LINE
  5
DA
100
AcDbEntity
  8
LAYER0
 62
         3
100
AcDbLine
 10
38.1089611648
 20
19.4011535752
 30
0.0
 11
38.1899893299
 21
19.4550609064
 31
0.0
  0
LINE
  5
DB
100
AcDbEntity
  8
LAYER0
 62
         3
100
AcDbLine
 10
38.1899893299
 20
19.4550609064
 30
0.0
 11
38.1941784189
 21
19.4579182041
 31
0.0
  0
ENDBLK
  5
DC
100
AcDbEntity
  8
0
100
AcDbBlockEnd
  0
BLOCK
  5
E0
100
AcDbEntity
  8
0
100
AcDbBlockBegin
  2
CLUMP22
 70
         0
 10
0.0
 20
0.0
 30
0.0
  3

  1

  0
INSERT
  5
E2
100
AcDbEntity
  8
0
100
AcDbBlockReference
  2
CLUMP23
 10
0.0
 20
0.0
 30
0.0
  0
ENDBLK
  5
E9
100
AcDbEntity
  8
0
100
AcDbBlockEnd
  0
BLOCK
  5
E3
100
AcDbEntity
  8
0
100
AcDbBlockBegin
  2
CLUMP23
 70
         0
 10
0.0
 20
0.0
 30
0.0
  3

  1

  0
LINE
  5
E4
100
AcDbEntity
  8
LAYER0
 62
         3
100
AcDbLine
 10
37.2779372164
 20
18.9906736684
 30
0.0
 11
37.3370524511
 21
19.0081750822
 31
0.0
  0
LINE
  5
E5
100
AcDbEntity
  8
LAYER0
 62
         3
100
AcDbLine
 10
37.3370524511
 20
19.0081750822
 30
0.0
 11
37.3832901704
 21
19.0247817424
 31
0.0
  0
LINE
  5
E6
100
AcDbEntity
  8
LAYER0
 62
         3
100
AcDbLine
 10
37.3832901704
 20
19.0247817424
 30
0.0
 11
37.429280226
 21
19.0437965907
 31
0.0
  0
LINE
  5
E7
100
AcDbEntity
  8
LAYER0
 62
         3
100
AcDbLine
 10
37.429280226
 20
19.0437965907
 30
0.0
 11
37.5208475642
 21
19.0858399344
 31
0.0
  0
ENDBLK
  5
E8
100
AcDbEntity
  8
0
100
AcDbBlockEnd
  0
BLOCK
  5
EC
100
AcDbEntity
  8
0
100
AcDbBlockBegin
  2
CLUMP24
 70
         0
 10
0.0
 20
0.0
 30
0.0
  3

  1

  0
INSERT
  5
EE
100
AcDbEntity
  8
0
100
AcDbBlockReference
  2
CLUMP25
 10
0.0
 20
0.0
 30
0.0
  0
ENDBLK
  5
F3
100
AcDbEntity
  8
0
100
AcDbBlockEnd
  0
BLOCK
  5
EF
100
AcDbEntity
  8
0
100
AcDbBlockBegin
  2
CLUMP25
 70
         0
 10
0.0
 20
0.0
 30
0.0
  3

  1

  0
LINE
  5
F0
100
AcDbEntity
  8
LAYER0
 62
         3
100
AcDbLine
 10
36.8753787524
 20
18.9579188147
 30
0.0
 11
36.9914733705
 21
18.9590432424
 31
0.0
  0
LINE
  5
F1
100
AcDbEntity
  8
LAYER0
 62
         3
100
AcDbLine
 10
36.9914733705
 20
18.9590432424
 30
0.0
 11
36.8753787524
 21
18.9579188147
 31
0.0
  0
ENDBLK
  5
F2
100
AcDbEntity
  8
0
100
AcDbBlockEnd
  0
BLOCK
  5
F6
100
AcDbEntity
  8
0
100
AcDbBlockBegin
  2
CLUMP26
 70
         0
 10
0.0
 20
0.0
 30
0.0
  3

  1

  0
INSERT
  5
F8
100
AcDbEntity
  8
0
100
AcDbBlockReference
  2
CLUMP27
 10
0.0
 20
0.0
 30
0.0
  0
ENDBLK
  5
FD
100
AcDbEntity
  8
0
100
AcDbBlockEnd
  0
BLOCK
  5
F9
100
AcDbEntity
  8
0
100
AcDbBlockBegin
  2
CLUMP27
 70
         0
 10
0.0
 20
0.0
 30
0.0
  3

  1

  0
LINE
  5
FA
100
AcDbEntity
  8
LAYER0
 62
         3
100
AcDbLine
 10
37.1253787524
 20
18.4579188147
 30
0.0
 11
37.2414733705
 21
18.4601676701
 31
0.0
  0
LINE
  5
FB
100
AcDbEntity
  8
LAYER0
 62
         3
100
AcDbLine
 10
37.2414733705
 20
18.4601676701
 30
0.0
 11
37.1253787524
 21
18.4579188147
 31
0.0
  0
ENDBLK
  5
FC
100
AcDbEntity
  8
0
100
AcDbBlockEnd
  0
BLOCK
  5
11E
100
AcDbEntity
  8
0
100
AcDbBlockBegin
  2
CLUMP28
 70
         0
 10
0.0
 20
0.0
 30
0.0
  3

  1

  0
INSERT
  5
120
100
AcDbEntity
  8
0
100
AcDbBlockReference
  2
CLUMP29
 10
0.0
 20
0.0
 30
0.0
  0
ENDBLK
  5
134
100
AcDbEntity
  8
0
100
AcDbBlockEnd
  0
BLOCK
  5
121
100
AcDbEntity
  8
0
100
AcDbBlockBegin
  2
CLUMP29
 70
         0
 10
0.0
 20
0.0
 30
0.0
  3

  1

  0
LINE
  5
122
100
AcDbEntity
  8
LAYER0
 62
         3
100
AcDbLine
 10
22.4155628138
 20
3.4579193068
 30
0.0
 11
22.4454680085
 21
3.1352432331
 31
0.0
  0
LINE
  5
123
100
AcDbEntity
  8
LAYER0
 62
         3
100
AcDbLine
 10
22.4454680085
 20
3.1352432331
 30
0.0
 11
22.502486875
 21
2.8221314621
 31
0.0
  0
LINE
  5
124
100
AcDbEntity
  8
LAYER0
 62
         3
100
AcDbLine
 10
22.502486875
 20
2.8221314621
 30
0.0
 11
22.5491660269
 21
2.671275382
 31
0.0
  0
LINE
  5
125
100
AcDbEntity
  8
LAYER0
 62
         3
100
AcDbLine
 10
22.5491660269
 20
2.671275382
 30
0.0
 11
22.6082808734
 21
2.5262925773
 31
0.0
  0
LINE
  5
126
100
AcDbEntity
  8
LAYER0
 62
         3
100
AcDbLine
 10
22.6082808734
 20
2.5262925773
 30
0.0
 11
22.6785540397
 21
2.388219061
 31
0.0
  0
LINE
  5
127
100
AcDbEntity
  8
LAYER0
 62
         3
100
AcDbLine
 10
22.6785540397
 20
2.388219061
 30
0.0
 11
22.7587081507
 21
2.2580908459
 31
0.0
  0
LINE
  5
128
100
AcDbEntity
  8
LAYER0
 62
         3
100
AcDbLine
 10
22.7587081507
 20
2.2580908459
 30
0.0
 11
22.8495796479
 21
2.1343449515
 31
0.0
  0
LINE
  5
129
100
AcDbEntity
  8
LAYER0
 62
         3
100
AcDbLine
 10
22.8495796479
 20
2.1343449515
 30
0.0
 11
22.9489705934
 21
2.0202325991
 31
0.0
  0
LINE
  5
12A
100
AcDbEntity
  8
LAYER0
 62
         3
100
AcDbLine
 10
22.9489705934
 20
2.0202325991
 30
0.0
 11
23.0564287751
 21
1.9160217646
 31
0.0
  0
LINE
  5
12B
100
AcDbEntity
  8
LAYER0
 62
         3
100
AcDbLine
 10
23.0564287751
 20
1.9160217646
 30
0.0
 11
23.1715019808
 21
1.8219804239
 31
0.0
  0
LINE
  5
12C
100
AcDbEntity
  8
LAYER0
 62
         3
100
AcDbLine
 10
23.1715019808
 20
1.8219804239
 30
0.0
 11
23.3007013368
 21
1.7340908393
 31
0.0
  0
LINE
  5
12D
100
AcDbEntity
  8
LAYER0
 62
         3
100
AcDbLine
 10
23.3007013368
 20
1.7340908393
 30
0.0
 11
23.4370017194
 21
1.6585475517
 31
0.0
  0
LINE
  5
12E
100
AcDbEntity
  8
LAYER0
 62
         3
100
AcDbLine
 10
23.4370017194
 20
1.6585475517
 30
0.0
 11
23.5795197635
 21
1.596062203
 31
0.0
  0
LINE
  5
12F
100
AcDbEntity
  8
LAYER0
 62
         3
100
AcDbLine
 10
23.5795197635
 20
1.596062203
 30
0.0
 11
23.727372104
 21
1.5473464352
 31
0.0
  0
LINE
  5
130
100
AcDbEntity
  8
LAYER0
 62
         3
100
AcDbLine
 10
23.727372104
 20
1.5473464352
 30
0.0
 11
23.8842224236
 21
1.5115545586
 31
0.0
  0
LINE
  5
131
100
AcDbEntity
  8
LAYER0
 62
         3
100
AcDbLine
 10
23.8842224236
 20
1.5115545586
 30
0.0
 11
24.0446122028
 21
1.487278407
 31
0.0
  0
LINE
  5
132
100
AcDbEntity
  8
LAYER0
 62
         3
100
AcDbLine
 10
24.0446122028
 20
1.487278407
 30
0.0
 11
24.3712908604
 21
1.4579189789
 31
0.0
  0
ENDBLK
  5
133
100
AcDbEntity
  8
0
100
AcDbBlockEnd
  0
BLOCK
  5
137
100
AcDbEntity
  8
0
100
AcDbBlockBegin
  2
CLUMP30
 70
         0
 10
0.0
 20
0.0
 30
0.0
  3

  1

  0
INSERT
  5
139
100
AcDbEntity
  8
0
100
AcDbBlockReference
  2
CLUMP31
 10
0.0
 20
0.0
 30
0.0
  0
ENDBLK
  5
14E
100
AcDbEntity
  8
0
100
AcDbBlockEnd
  0
BLOCK
  5
13A
100
AcDbEntity
  8
0
100
AcDbBlockBegin
  2
CLUMP31
 70
         0
 10
0.0
 20
0.0
 30
0.0
  3

  1

  0
LINE
  5
13B
100
AcDbEntity
  8
LAYER0
 62
         3
100
AcDbLine
 10
24.1261579112
 20
0.9579179657
 30
0.0
 11
23.7443189152
 21
0.9854106081
 31
0.0
  0
LINE
  5
13C
100
AcDbEntity
  8
LAYER0
 62
         3
100
AcDbLine
 10
23.7443189152
 20
0.9854106081
 30
0.0
 11
23.5583463501
 21
1.0195592246
 31
0.0
  0
LINE
  5
13D
100
AcDbEntity
  8
LAYER0
 62
         3
100
AcDbLine
 10
23.5583463501
 20
1.0195592246
 30
0.0
 11
23.3771082029
 21
1.0697027516
 31
0.0
  0
LINE
  5
13E
100
AcDbEntity
  8
LAYER0
 62
         3
100
AcDbLine
 10
23.3771082029
 20
1.0697027516
 30
0.0
 11
23.2036736929
 21
1.1335018973
 31
0.0
  0
LINE
  5
13F
100
AcDbEntity
  8
LAYER0
 62
         3
100
AcDbLine
 10
23.2036736929
 20
1.1335018973
 30
0.0
 11
23.0363670752
 21
1.2117424828
 31
0.0
  0
LINE
  5
140
100
AcDbEntity
  8
LAYER0
 62
         3
100
AcDbLine
 10
23.0363670752
 20
1.2117424828
 30
0.0
 11
22.8761886746
 21
1.3048596378
 31
0.0
  0
LINE
  5
141
100
AcDbEntity
  8
LAYER0
 62
         3
100
AcDbLine
 10
22.8761886746
 20
1.3048596378
 30
0.0
 11
22.7241355941
 21
1.4129957032
 31
0.0
  0
LINE
  5
142
100
AcDbEntity
  8
LAYER0
 62
         3
100
AcDbLine
 10
22.7241355941
 20
1.4129957032
 30
0.0
 11
22.5874917339
 21
1.5301864576
 31
0.0
  0
LINE
  5
143
100
AcDbEntity
  8
LAYER0
 62
         3
100
AcDbLine
 10
22.5874917339
 20
1.5301864576
 30
0.0
 11
22.459890043
 21
1.6604984027
 31
0.0
  0
LINE
  5
144
100
AcDbEntity
  8
LAYER0
 62
         3
100
AcDbLine
 10
22.459890043
 20
1.6604984027
 30
0.0
 11
22.3420401137
 21
1.8033000668
 31
0.0
  0
LINE
  5
145
100
AcDbEntity
  8
LAYER0
 62
         3
100
AcDbLine
 10
22.3420401137
 20
1.8033000668
 30
0.0
 11
22.2347502612
 21
1.9581341964
 31
0.0
  0
LINE
  5
146
100
AcDbEntity
  8
LAYER0
 62
         3
100
AcDbLine
 10
22.2347502612
 20
1.9581341964
 30
0.0
 11
22.1407157335
 21
2.120847136
 31
0.0
  0
LINE
  5
147
100
AcDbEntity
  8
LAYER0
 62
         3
100
AcDbLine
 10
22.1407157335
 20
2.120847136
 30
0.0
 11
22.058149615
 21
2.293406598
 31
0.0
  0
LINE
  5
148
100
AcDbEntity
  8
LAYER0
 62
         3
100
AcDbLine
 10
22.058149615
 20
2.293406598
 30
0.0
 11
21.9874653335
 21
2.4745539029
 31
0.0
  0
LINE
  5
149
100
AcDbEntity
  8
LAYER0
 62
         3
100
AcDbLine
 10
21.9874653335
 20
2.4745539029
 30
0.0
 11
21.9287637637
 21
2.6631882262
 31
0.0
  0
LINE
  5
14A
100
AcDbEntity
  8
LAYER0
 62
         3
100
AcDbLine
 10
21.9287637637
 20
2.6631882262
 30
0.0
 11
21.8828069109
 21
2.8564438001
 31
0.0
  0
LINE
  5
14B
100
AcDbEntity
  8
LAYER0
 62
         3
100
AcDbLine
 10
21.8828069109
 20
2.8564438001
 30
0.0
 11
21.8509322048
 21
3.0543697846
 31
0.0
  0
LINE
  5
14C
100
AcDbEntity
  8
LAYER0
 62
         3
100
AcDbLine
 10
21.8509322048
 20
3.0543697846
 30
0.0
 11
21.8245282785
 21
3.4579193068
 31
0.0
  0
ENDBLK
  5
14D
100
AcDbEntity
  8
0
100
AcDbBlockEnd
  0
BLOCK
  5
151
100
AcDbEntity
  8
0
100
AcDbBlockBegin
  2
CLUMP32
 70
         0
 10
0.0
 20
0.0
 30
0.0
  3

  1

  0
INSERT
  5
153
100
AcDbEntity
  8
0
100
AcDbBlockReference
  2
CLUMP33
 10
0.0
 20
0.0
 30
0.0
  0
ENDBLK
  5
168
100
AcDbEntity
  8
0
100
AcDbBlockEnd
  0
BLOCK
  5
154
100
AcDbEntity
  8
0
100
AcDbBlockBegin
  2
CLUMP33
 70
         0
 10
0.0
 20
0.0
 30
0.0
  3

  1

  0
LINE
  5
155
100
AcDbEntity
  8
LAYER0
 62
         3
100
AcDbLine
 10
20.0093535722
 20
-2.0420806634
 30
0.0
 11
20.0276360973
 21
-2.2046040145
 31
0.0
  0
LINE
  5
156
100
AcDbEntity
  8
LAYER0
 62
         3
100
AcDbLine
 10
20.0276360973
 20
-2.2046040145
 30
0.0
 11
20.0418220945
 21
-2.2844057724
 31
0.0
  0
LINE
  5
157
100
AcDbEntity
  8
LAYER0
 62
         3
100
AcDbLine
 10
20.0418220945
 20
-2.2844057724
 30
0.0
 11
20.0620617733
 21
-2.3624556291
 31
0.0
  0
LINE
  5
158
100
AcDbEntity
  8
LAYER0
 62
         3
100
AcDbLine
 10
20.0620617733
 20
-2.3624556291
 30
0.0
 11
20.0898680643
 21
-2.4381424984
 31
0.0
  0
LINE
  5
159
100
AcDbEntity
  8
LAYER0
 62
         3
100
AcDbLine
 10
20.0898680643
 20
-2.4381424984
 30
0.0
 11
20.1248463576
 21
-2.5110357447
 31
0.0
  0
LINE
  5
15A
100
AcDbEntity
  8
LAYER0
 62
         3
100
AcDbLine
 10
20.1248463576
 20
-2.5110357447
 30
0.0
 11
20.1661073837
 21
-2.5806746312
 31
0.0
  0
LINE
  5
15B
100
AcDbEntity
  8
LAYER0
 62
         3
100
AcDbLine
 10
20.1661073837
 20
-2.5806746312
 30
0.0
 11
20.2127618731
 21
-2.6465984213
 31
0.0
  0
LINE
  5
15C
100
AcDbEntity
  8
LAYER0
 62
         3
100
AcDbLine
 10
20.2127618731
 20
-2.6465984213
 30
0.0
 11
20.2649850074
 21
-2.7094433019
 31
0.0
  0
LINE
  5
15D
100
AcDbEntity
  8
LAYER0
 62
         3
100
AcDbLine
 10
20.2649850074
 20
-2.7094433019
 30
0.0
 11
20.3215977224
 21
-2.767649291
 31
0.0
  0
LINE
  5
15E
100
AcDbEntity
  8
LAYER0
 62
         3
100
AcDbLine
 10
20.3215977224
 20
-2.767649291
 30
0.0
 11
20.3823221784
 21
-2.8209046573
 31
0.0
  0
LINE
  5
15F
100
AcDbEntity
  8
LAYER0
 62
         3
100
AcDbLine
 10
20.3823221784
 20
-2.8209046573
 30
0.0
 11
20.4468805358
 21
-2.8688976693
 31
0.0
  0
LINE
  5
160
100
AcDbEntity
  8
LAYER0
 62
         3
100
AcDbLine
 10
20.4468805358
 20
-2.8688976693
 30
0.0
 11
20.5177922329
 21
-2.9129510775
 31
0.0
  0
LINE
  5
161
100
AcDbEntity
  8
LAYER0
 62
         3
100
AcDbLine
 10
20.5177922329
 20
-2.9129510775
 30
0.0
 11
20.5919771849
 21
-2.950807154
 31
0.0
  0
LINE
  5
162
100
AcDbEntity
  8
LAYER0
 62
         3
100
AcDbLine
 10
20.5919771849
 20
-2.950807154
 30
0.0
 11
20.6688574586
 21
-2.9823052592
 31
0.0
  0
LINE
  5
163
100
AcDbEntity
  8
LAYER0
 62
         3
100
AcDbLine
 10
20.6688574586
 20
-2.9823052592
 30
0.0
 11
20.7478551209
 21
-3.0072847533
 31
0.0
  0
LINE
  5
164
100
AcDbEntity
  8
LAYER0
 62
         3
100
AcDbLine
 10
20.7478551209
 20
-3.0072847533
 30
0.0
 11
20.873779759
 21
-3.0328902915
 31
0.0
  0
LINE
  5
165
100
AcDbEntity
  8
LAYER0
 62
         3
100
AcDbLine
 10
20.873779759
 20
-3.0328902915
 30
0.0
 11
21.0014002413
 21
-3.0420491624
 31
0.0
  0
LINE
  5
166
100
AcDbEntity
  8
LAYER0
 62
         3
100
AcDbLine
 10
21.0014002413
 20
-3.0420491624
 30
0.0
 11
21.0093537361
 21
-3.0420808273
 31
0.0
  0
ENDBLK
  5
167
100
AcDbEntity
  8
0
100
AcDbBlockEnd
  0
BLOCK
  5
16B
100
AcDbEntity
  8
0
100
AcDbBlockBegin
  2
CLUMP34
 70
         0
 10
0.0
 20
0.0
 30
0.0
  3

  1

  0
INSERT
  5
16D
100
AcDbEntity
  8
0
100
AcDbBlockReference
  2
CLUMP35
 10
0.0
 20
0.0
 30
0.0
  0
ENDBLK
  5
180
100
AcDbEntity
  8
0
100
AcDbBlockEnd
  0
BLOCK
  5
16E
100
AcDbEntity
  8
0
100
AcDbBlockBegin
  2
CLUMP35
 70
         0
 10
0.0
 20
0.0
 30
0.0
  3

  1

  0
LINE
  5
16F
100
AcDbEntity
  8
LAYER0
 62
         3
100
AcDbLine
 10
35.6474158369
 20
1.4579189789
 30
0.0
 11
36.0240478084
 21
1.4868737978
 31
0.0
  0
LINE
  5
170
100
AcDbEntity
  8
LAYER0
 62
         3
100
AcDbLine
 10
36.0240478084
 20
1.4868737978
 30
0.0
 11
36.2113898535
 21
1.5245963492
 31
0.0
  0
LINE
  5
171
100
AcDbEntity
  8
LAYER0
 62
         3
100
AcDbLine
 10
36.2113898535
 20
1.5245963492
 30
0.0
 11
36.3928510823
 21
1.5806672943
 31
0.0
  0
LINE
  5
172
100
AcDbEntity
  8
LAYER0
 62
         3
100
AcDbLine
 10
36.3928510823
 20
1.5806672943
 30
0.0
 11
36.5591333088
 21
1.649899051
 31
0.0
  0
LINE
  5
173
100
AcDbEntity
  8
LAYER0
 62
         3
100
AcDbLine
 10
36.5591333088
 20
1.649899051
 30
0.0
 11
36.7176014014
 21
1.7350209725
 31
0.0
  0
LINE
  5
174
100
AcDbEntity
  8
LAYER0
 62
         3
100
AcDbLine
 10
36.7176014014
 20
1.7350209725
 30
0.0
 11
36.8719042032
 21
1.8405728946
 31
0.0
  0
LINE
  5
175
100
AcDbEntity
  8
LAYER0
 62
         3
100
AcDbLine
 10
36.8719042032
 20
1.8405728946
 30
0.0
 11
37.0147603579
 21
1.963511653
 31
0.0
  0
LINE
  5
176
100
AcDbEntity
  8
LAYER0
 62
         3
100
AcDbLine
 10
37.0147603579
 20
1.963511653
 30
0.0
 11
37.1259234548
 21
2.0810109992
 31
0.0
  0
LINE
  5
177
100
AcDbEntity
  8
LAYER0
 62
         3
100
AcDbLine
 10
37.1259234548
 20
2.0810109992
 30
0.0
 11
37.2268453256
 21
2.2098762763
 31
0.0
  0
LINE
  5
178
100
AcDbEntity
  8
LAYER0
 62
         3
100
AcDbLine
 10
37.2268453256
 20
2.2098762763
 30
0.0
 11
37.3196763276
 21
2.3543844985
 31
0.0
  0
LINE
  5
179
100
AcDbEntity
  8
LAYER0
 62
         3
100
AcDbLine
 10
37.3196763276
 20
2.3543844985
 30
0.0
 11
37.4005127714
 21
2.5094343197
 31
0.0
  0
LINE
  5
17A
100
AcDbEntity
  8
LAYER0
 62
         3
100
AcDbLine
 10
37.4005127714
 20
2.5094343197
 30
0.0
 11
37.4627897846
 21
2.6571319289
 31
0.0
  0
LINE
  5
17B
100
AcDbEntity
  8
LAYER0
 62
         3
100
AcDbLine
 10
37.4627897846
 20
2.6571319289
 30
0.0
 11
37.5143063133
 21
2.8112677734
 31
0.0
  0
LINE
  5
17C
100
AcDbEntity
  8
LAYER0
 62
         3
100
AcDbLine
 10
37.5143063133
 20
2.8112677734
 30
0.0
 11
37.5540592435
 21
2.9704219551
 31
0.0
  0
LINE
  5
17D
100
AcDbEntity
  8
LAYER0
 62
         3
100
AcDbLine
 10
37.5540592435
 20
2.9704219551
 30
0.0
 11
37.5810454615
 21
3.1331745756
 31
0.0
  0
LINE
  5
17E
100
AcDbEntity
  8
LAYER0
 62
         3
100
AcDbLine
 10
37.5810454615
 20
3.1331745756
 30
0.0
 11
37.6031438835
 21
3.4579193068
 31
0.0
  0
ENDBLK
  5
17F
100
AcDbEntity
  8
0
100
AcDbBlockEnd
  0
BLOCK
  5
183
100
AcDbEntity
  8
0
100
AcDbBlockBegin
  2
CLUMP36
 70
         0
 10
0.0
 20
0.0
 30
0.0
  3

  1

  0
INSERT
  5
185
100
AcDbEntity
  8
0
100
AcDbBlockReference
  2
CLUMP37
 10
0.0
 20
0.0
 30
0.0
  0
ENDBLK
  5
198
100
AcDbEntity
  8
0
100
AcDbBlockEnd
  0
BLOCK
  5
186
100
AcDbEntity
  8
0
100
AcDbBlockBegin
  2
CLUMP37
 70
         0
 10
0.0
 20
0.0
 30
0.0
  3

  1

  0
LINE
  5
187
100
AcDbEntity
  8
LAYER0
 62
         3
100
AcDbLine
 10
38.1941784189
 20
3.4579193068
 30
0.0
 11
38.1676571459
 21
3.0519893241
 31
0.0
  0
LINE
  5
188
100
AcDbEntity
  8
LAYER0
 62
         3
100
AcDbLine
 10
38.1676571459
 20
3.0519893241
 30
0.0
 11
38.1341965635
 21
2.8481396904
 31
0.0
  0
LINE
  5
189
100
AcDbEntity
  8
LAYER0
 62
         3
100
AcDbLine
 10
38.1341965635
 20
2.8481396904
 30
0.0
 11
38.0858795733
 21
2.6492407394
 31
0.0
  0
LINE
  5
18A
100
AcDbEntity
  8
LAYER0
 62
         3
100
AcDbLine
 10
38.0858795733
 20
2.6492407394
 30
0.0
 11
38.0249653497
 21
2.4567665557
 31
0.0
  0
LINE
  5
18B
100
AcDbEntity
  8
LAYER0
 62
         3
100
AcDbLine
 10
38.0249653497
 20
2.4567665557
 30
0.0
 11
37.9515353606
 21
2.272310279
 31
0.0
  0
LINE
  5
18C
100
AcDbEntity
  8
LAYER0
 62
         3
100
AcDbLine
 10
37.9515353606
 20
2.272310279
 30
0.0
 11
37.8569397858
 21
2.0819354243
 31
0.0
  0
LINE
  5
18D
100
AcDbEntity
  8
LAYER0
 62
         3
100
AcDbLine
 10
37.8569397858
 20
2.0819354243
 30
0.0
 11
37.7482360244
 21
1.9040318054
 31
0.0
  0
LINE
  5
18E
100
AcDbEntity
  8
LAYER0
 62
         3
100
AcDbLine
 10
37.7482360244
 20
1.9040318054
 30
0.0
 11
37.626580513
 21
1.7396123863
 31
0.0
  0
LINE
  5
18F
100
AcDbEntity
  8
LAYER0
 62
         3
100
AcDbLine
 10
37.626580513
 20
1.7396123863
 30
0.0
 11
37.4927155689
 21
1.5899097395
 31
0.0
  0
LINE
  5
190
100
AcDbEntity
  8
LAYER0
 62
         3
100
AcDbLine
 10
37.4927155689
 20
1.5899097395
 30
0.0
 11
37.3274041842
 21
1.4394722889
 31
0.0
  0
LINE
  5
191
100
AcDbEntity
  8
LAYER0
 62
         3
100
AcDbLine
 10
37.3274041842
 20
1.4394722889
 30
0.0
 11
37.1491250597
 21
1.3096021336
 31
0.0
  0
LINE
  5
192
100
AcDbEntity
  8
LAYER0
 62
         3
100
AcDbLine
 10
37.1491250597
 20
1.3096021336
 30
0.0
 11
36.9595762254
 21
1.2003301369
 31
0.0
  0
LINE
  5
193
100
AcDbEntity
  8
LAYER0
 62
         3
100
AcDbLine
 10
36.9595762254
 20
1.2003301369
 30
0.0
 11
36.7603784442
 21
1.1113552225
 31
0.0
  0
LINE
  5
194
100
AcDbEntity
  8
LAYER0
 62
         3
100
AcDbLine
 10
36.7603784442
 20
1.1113552225
 30
0.0
 11
36.5523610548
 21
1.0424469071
 31
0.0
  0
LINE
  5
195
100
AcDbEntity
  8
LAYER0
 62
         3
100
AcDbLine
 10
36.5523610548
 20
1.0424469071
 30
0.0
 11
36.3372432083
 21
0.9956160408
 31
0.0
  0
LINE
  5
196
100
AcDbEntity
  8
LAYER0
 62
         3
100
AcDbLine
 10
36.3372432083
 20
0.9956160408
 30
0.0
 11
35.8925487862
 21
0.9579179657
 31
0.0
  0
ENDBLK
  5
197
100
AcDbEntity
  8
0
100
AcDbBlockEnd
  0
BLOCK
  5
19B
100
AcDbEntity
  8
0
100
AcDbBlockBegin
  2
CLUMP38
 70
         0
 10
0.0
 20
0.0
 30
0.0
  3

  1

  0
INSERT
  5
19D
100
AcDbEntity
  8
0
100
AcDbBlockReference
  2
CLUMP39
 10
0.0
 20
0.0
 30
0.0
  0
ENDBLK
  5
1B2
100
AcDbEntity
  8
0
100
AcDbBlockEnd
  0
BLOCK
  5
19E
100
AcDbEntity
  8
0
100
AcDbBlockBegin
  2
CLUMP39
 70
         0
 10
0.0
 20
0.0
 30
0.0
  3

  1

  0
LINE
  5
19F
100
AcDbEntity
  8
LAYER0
 62
         3
100
AcDbLine
 10
39.0093529612
 20
-3.0420808273
 30
0.0
 11
39.017306456
 21
-3.0420491624
 31
0.0
  0
LINE
  5
1A0
100
AcDbEntity
  8
LAYER0
 62
         3
100
AcDbLine
 10
39.017306456
 20
-3.0420491624
 30
0.0
 11
39.1449269383
 21
-3.0328902915
 31
0.0
  0
LINE
  5
1A1
100
AcDbEntity
  8
LAYER0
 62
         3
100
AcDbLine
 10
39.1449269383
 20
-3.0328902915
 30
0.0
 11
39.2708515764
 21
-3.0072847533
 31
0.0
  0
LINE
  5
1A2
100
AcDbEntity
  8
LAYER0
 62
         3
100
AcDbLine
 10
39.2708515764
 20
-3.0072847533
 30
0.0
 11
39.3498492388
 21
-2.9823052592
 31
0.0
  0
LINE
  5
1A3
100
AcDbEntity
  8
LAYER0
 62
         3
100
AcDbLine
 10
39.3498492388
 20
-2.9823052592
 30
0.0
 11
39.4267295125
 21
-2.950807154
 31
0.0
  0
LINE
  5
1A4
100
AcDbEntity
  8
LAYER0
 62
         3
100
AcDbLine
 10
39.4267295125
 20
-2.950807154
 30
0.0
 11
39.5009144644
 21
-2.9129510775
 31
0.0
  0
LINE
  5
1A5
100
AcDbEntity
  8
LAYER0
 62
         3
100
AcDbLine
 10
39.5009144644
 20
-2.9129510775
 30
0.0
 11
39.5718261615
 21
-2.8688976693
 31
0.0
  0
LINE
  5
1A6
100
AcDbEntity
  8
LAYER0
 62
         3
100
AcDbLine
 10
39.5718261615
 20
-2.8688976693
 30
0.0
 11
39.636384519
 21
-2.8209046573
 31
0.0
  0
LINE
  5
1A7
100
AcDbEntity
  8
LAYER0
 62
         3
100
AcDbLine
 10
39.636384519
 20
-2.8209046573
 30
0.0
 11
39.697108975
 21
-2.767649291
 31
0.0
  0
LINE
  5
1A8
100
AcDbEntity
  8
LAYER0
 62
         3
100
AcDbLine
 10
39.697108975
 20
-2.767649291
 30
0.0
 11
39.7537216899
 21
-2.7094433019
 31
0.0
  0
LINE
  5
1A9
100
AcDbEntity
  8
LAYER0
 62
         3
100
AcDbLine
 10
39.7537216899
 20
-2.7094433019
 30
0.0
 11
39.8059448243
 21
-2.6465984213
 31
0.0
  0
LINE
  5
1AA
100
AcDbEntity
  8
LAYER0
 62
         3
100
AcDbLine
 10
39.8059448243
 20
-2.6465984213
 30
0.0
 11
39.8525993136
 21
-2.5806746312
 31
0.0
  0
LINE
  5
1AB
100
AcDbEntity
  8
LAYER0
 62
         3
100
AcDbLine
 10
39.8525993136
 20
-2.5806746312
 30
0.0
 11
39.8938603397
 21
-2.5110357447
 31
0.0
  0
LINE
  5
1AC
100
AcDbEntity
  8
LAYER0
 62
         3
100
AcDbLine
 10
39.8938603397
 20
-2.5110357447
 30
0.0
 11
39.9288386331
 21
-2.4381424984
 31
0.0
  0
LINE
  5
1AD
100
AcDbEntity
  8
LAYER0
 62
         3
100
AcDbLine
 10
39.9288386331
 20
-2.4381424984
 30
0.0
 11
39.956644924
 21
-2.3624556291
 31
0.0
  0
LINE
  5
1AE
100
AcDbEntity
  8
LAYER0
 62
         3
100
AcDbLine
 10
39.956644924
 20
-2.3624556291
 30
0.0
 11
39.9768846028
 21
-2.2844057724
 31
0.0
  0
LINE
  5
1AF
100
AcDbEntity
  8
LAYER0
 62
         3
100
AcDbLine
 10
39.9768846028
 20
-2.2844057724
 30
0.0
 11
39.9910706
 21
-2.2046040145
 31
0.0
  0
LINE
  5
1B0
100
AcDbEntity
  8
LAYER0
 62
         3
100
AcDbLine
 10
39.9910706
 20
-2.2046040145
 30
0.0
 11
40.0093531251
 21
-2.0420806634
 31
0.0
  0
ENDBLK
  5
1B1
100
AcDbEntity
  8
0
100
AcDbBlockEnd
  0
BLOCK
  5
200
100
AcDbEntity
  8
0
100
AcDbBlockBegin
  2
CLUMP40
 70
         0
 10
0.0
 20
0.0
 30
0.0
  3

  1

  0
INSERT
  5
202
100
AcDbEntity
  8
0
100
AcDbBlockReference
  2
CLUMP41
 10
0.0
 20
0.0
 30
0.0
  0
ENDBLK
  5
20F
100
AcDbEntity
  8
0
100
AcDbBlockEnd
  0
BLOCK
  5
203
100
AcDbEntity
  8
0
100
AcDbBlockBegin
  2
CLUMP41
 70
         0
 10
0.0
 20
0.0
 30
0.0
  3

  1

  0
LINE
  5
204
100
AcDbEntity
  8
LAYER0
 62
         3
100
AcDbLine
 10
-34.0529210111
 20
19.0858399344
 30
0.0
 11
-34.0522990982
 21
19.0644168821
 31
0.0
  0
LINE
  5
205
100
AcDbEntity
  8
LAYER0
 62
         3
100
AcDbLine
 10
-34.0522990982
 20
19.0644168821
 30
0.0
 11
-34.0516110753
 21
19.0539562109
 31
0.0
  0
LINE
  5
206
100
AcDbEntity
  8
LAYER0
 62
         3
100
AcDbLine
 10
-34.0516110753
 20
19.0539562109
 30
0.0
 11
-34.0504705726
 21
19.0437965656
 31
0.0
  0
LINE
  5
207
100
AcDbEntity
  8
LAYER0
 62
         3
100
AcDbLine
 10
-34.0504705726
 20
19.0437965656
 30
0.0
 11
-34.0487267637
 21
19.0340382881
 31
0.0
  0
LINE
  5
208
100
AcDbEntity
  8
LAYER0
 62
         3
100
AcDbLine
 10
-34.0487267637
 20
19.0340382881
 30
0.0
 11
-34.0462288219
 21
19.0247817204
 31
0.0
  0
LINE
  5
209
100
AcDbEntity
  8
LAYER0
 62
         3
100
AcDbLine
 10
-34.0462288219
 20
19.0247817204
 30
0.0
 11
-34.0428259206
 21
19.0161272045
 31
0.0
  0
LINE
  5
20A
100
AcDbEntity
  8
LAYER0
 62
         3
100
AcDbLine
 10
-34.0428259206
 20
19.0161272045
 30
0.0
 11
-34.0383672333
 21
19.0081750822
 31
0.0
  0
LINE
  5
20B
100
AcDbEntity
  8
LAYER0
 62
         3
100
AcDbLine
 10
-34.0383672333
 20
19.0081750822
 30
0.0
 11
-34.0349443711
 21
19.0035162786
 31
0.0
  0
LINE
  5
20C
100
AcDbEntity
  8
LAYER0
 62
         3
100
AcDbLine
 10
-34.0349443711
 20
19.0035162786
 30
0.0
 11
-34.0311563136
 21
18.9991004323
 31
0.0
  0
LINE
  5
20D
100
AcDbEntity
  8
LAYER0
 62
         3
100
AcDbLine
 10
-34.0311563136
 20
18.9991004323
 30
0.0
 11
-34.0229715398
 21
18.9906736684
 31
0.0
  0
ENDBLK
  5
20E
100
AcDbEntity
  8
0
100
AcDbBlockEnd
  0
BLOCK
  5
212
100
AcDbEntity
  8
0
100
AcDbBlockBegin
  2
CLUMP42
 70
         0
 10
0.0
 20
0.0
 30
0.0
  3

  1

  0
INSERT
  5
214
100
AcDbEntity
  8
0
100
AcDbBlockReference
  2
CLUMP43
 10
0.0
 20
0.0
 30
0.0
  0
ENDBLK
  5
220
100
AcDbEntity
  8
0
100
AcDbBlockEnd
  0
BLOCK
  5
215
100
AcDbEntity
  8
0
100
AcDbBlockBegin
  2
CLUMP43
 70
         0
 10
0.0
 20
0.0
 30
0.0
  3

  1

  0
LINE
  5
216
100
AcDbEntity
  8
LAYER0
 62
         3
100
AcDbLine
 10
-25.7640066734
 20
19.0858399344
 30
0.0
 11
-25.8158750583
 21
19.1628123689
 31
0.0
  0
LINE
  5
217
100
AcDbEntity
  8
LAYER0
 62
         3
100
AcDbLine
 10
-25.8158750583
 20
19.1628123689
 30
0.0
 11
-25.845442716
 21
19.201829136
 31
0.0
  0
LINE
  5
218
100
AcDbEntity
  8
LAYER0
 62
         3
100
AcDbLine
 10
-25.845442716
 20
19.201829136
 30
0.0
 11
-25.879370532
 21
19.241482563
 31
0.0
  0
LINE
  5
219
100
AcDbEntity
  8
LAYER0
 62
         3
100
AcDbLine
 10
-25.879370532
 20
19.241482563
 30
0.0
 11
-25.904214554
 21
19.267543872
 31
0.0
  0
LINE
  5
21A
100
AcDbEntity
  8
LAYER0
 62
         3
100
AcDbLine
 10
-25.904214554
 20
19.267543872
 30
0.0
 11
-25.9312862469
 21
19.2939023932
 31
0.0
  0
LINE
  5
21B
100
AcDbEntity
  8
LAYER0
 62
         3
100
AcDbLine
 10
-25.9312862469
 20
19.2939023932
 30
0.0
 11
-25.991299472
 21
19.3472800674
 31
0.0
  0
LINE
  5
21C
100
AcDbEntity
  8
LAYER0
 62
         3
100
AcDbLine
 10
-25.991299472
 20
19.3472800674
 30
0.0
 11
-26.0577838597
 21
19.4011535752
 31
0.0
  0
LINE
  5
21D
100
AcDbEntity
  8
LAYER0
 62
         3
100
AcDbLine
 10
-26.0577838597
 20
19.4011535752
 30
0.0
 11
-26.1291130623
 21
19.4550609064
 31
0.0
  0
LINE
  5
21E
100
AcDbEntity
  8
LAYER0
 62
         3
100
AcDbLine
 10
-26.1291130623
 20
19.4550609064
 30
0.0
 11
-26.133006922
 21
19.4579182041
 31
0.0
  0
ENDBLK
  5
21F
100
AcDbEntity
  8
0
100
AcDbBlockEnd
  0
BLOCK
  5
223
100
AcDbEntity
  8
0
100
AcDbBlockBegin
  2
CLUMP44
 70
         0
 10
0.0
 20
0.0
 30
0.0
  3

  1

  0
INSERT
  5
225
100
AcDbEntity
  8
0
100
AcDbBlockReference
  2
CLUMP45
 10
0.0
 20
0.0
 30
0.0
  0
ENDBLK
  5
22F
100
AcDbEntity
  8
0
100
AcDbBlockEnd
  0
BLOCK
  5
226
100
AcDbEntity
  8
0
100
AcDbBlockBegin
  2
CLUMP45
 70
         0
 10
0.0
 20
0.0
 30
0.0
  3

  1

  0
LINE
  5
227
100
AcDbEntity
  8
LAYER0
 62
         3
100
AcDbLine
 10
-26.133006922
 20
19.4579182041
 30
0.0
 11
-26.1309878147
 21
19.4522222352
 31
0.0
  0
LINE
  5
228
100
AcDbEntity
  8
LAYER0
 62
         3
100
AcDbLine
 10
-26.1309878147
 20
19.4522222352
 30
0.0
 11
-26.0944630203
 21
19.3445256022
 31
0.0
  0
LINE
  5
229
100
AcDbEntity
  8
LAYER0
 62
         3
100
AcDbLine
 10
-26.0944630203
 20
19.3445256022
 30
0.0
 11
-26.0622471105
 21
19.2368004051
 31
0.0
  0
LINE
  5
22A
100
AcDbEntity
  8
LAYER0
 62
         3
100
AcDbLine
 10
-26.0622471105
 20
19.2368004051
 30
0.0
 11
-26.0363401051
 21
19.1299922948
 31
0.0
  0
LINE
  5
22B
100
AcDbEntity
  8
LAYER0
 62
         3
100
AcDbLine
 10
-26.0363401051
 20
19.1299922948
 30
0.0
 11
-26.018742024
 21
19.025046922
 31
0.0
  0
LINE
  5
22C
100
AcDbEntity
  8
LAYER0
 62
         3
100
AcDbLine
 10
-26.018742024
 20
19.025046922
 30
0.0
 11
-26.0099645772
 21
18.914748537
 31
0.0
  0
LINE
  5
22D
100
AcDbEntity
  8
LAYER0
 62
         3
100
AcDbLine
 10
-26.0099645772
 20
18.914748537
 30
0.0
 11
-26.0071628904
 21
18.8060780835
 31
0.0
  0
ENDBLK
  5
22E
100
AcDbEntity
  8
0
100
AcDbBlockEnd
  0
BLOCK
  5
232
100
AcDbEntity
  8
0
100
AcDbBlockBegin
  2
CLUMP46
 70
         0
 10
0.0
 20
0.0
 30
0.0
  3

  1

  0
INSERT
  5
234
100
AcDbEntity
  8
0
100
AcDbBlockReference
  2
CLUMP47
 10
0.0
 20
0.0
 30
0.0
  0
ENDBLK
  5
240
100
AcDbEntity
  8
0
100
AcDbBlockEnd
  0
BLOCK
  5
235
100
AcDbEntity
  8
0
100
AcDbBlockBegin
  2
CLUMP47
 70
         0
 10
0.0
 20
0.0
 30
0.0
  3

  1

  0
LINE
  5
236
100
AcDbEntity
  8
LAYER0
 62
         3
100
AcDbLine
 10
-33.6839202969
 20
19.4579182041
 30
0.0
 11
-33.6878141566
 21
19.4550609064
 31
0.0
  0
LINE
  5
237
100
AcDbEntity
  8
LAYER0
 62
         3
100
AcDbLine
 10
-33.6878141566
 20
19.4550609064
 30
0.0
 11
-33.7591434375
 21
19.4011535613
 31
0.0
  0
LINE
  5
238
100
AcDbEntity
  8
LAYER0
 62
         3
100
AcDbLine
 10
-33.7591434375
 20
19.4011535613
 30
0.0
 11
-33.8256279561
 21
19.3472800568
 31
0.0
  0
LINE
  5
239
100
AcDbEntity
  8
LAYER0
 62
         3
100
AcDbLine
 10
-33.8256279561
 20
19.3472800568
 30
0.0
 11
-33.8856413239
 21
19.2939023912
 31
0.0
  0
LINE
  5
23A
100
AcDbEntity
  8
LAYER0
 62
         3
100
AcDbLine
 10
-33.8856413239
 20
19.2939023912
 30
0.0
 11
-33.9127130799
 21
19.2675438726
 31
0.0
  0
LINE
  5
23B
100
AcDbEntity
  8
LAYER0
 62
         3
100
AcDbLine
 10
-33.9127130799
 20
19.2675438726
 30
0.0
 11
-33.9375571525
 21
19.241482563
 31
0.0
  0
LINE
  5
23C
100
AcDbEntity
  8
LAYER0
 62
         3
100
AcDbLine
 10
-33.9375571525
 20
19.241482563
 30
0.0
 11
-33.9714849999
 21
19.2018291465
 31
0.0
  0
LINE
  5
23D
100
AcDbEntity
  8
LAYER0
 62
         3
100
AcDbLine
 10
-33.9714849999
 20
19.2018291465
 30
0.0
 11
-34.0010526621
 21
19.1628123809
 31
0.0
  0
LINE
  5
23E
100
AcDbEntity
  8
LAYER0
 62
         3
100
AcDbLine
 10
-34.0010526621
 20
19.1628123809
 30
0.0
 11
-34.0529210111
 21
19.0858399344
 31
0.0
  0
ENDBLK
  5
23F
100
AcDbEntity
  8
0
100
AcDbBlockEnd
  0
BLOCK
  5
243
100
AcDbEntity
  8
0
100
AcDbBlockBegin
  2
CLUMP48
 70
         0
 10
0.0
 20
0.0
 30
0.0
  3

  1

  0
INSERT
  5
245
100
AcDbEntity
  8
0
100
AcDbBlockReference
  2
CLUMP49
 10
0.0
 20
0.0
 30
0.0
  0
ENDBLK
  5
24F
100
AcDbEntity
  8
0
100
AcDbBlockEnd
  0
BLOCK
  5
246
100
AcDbEntity
  8
0
100
AcDbBlockBegin
  2
CLUMP49
 70
         0
 10
0.0
 20
0.0
 30
0.0
  3

  1

  0
LINE
  5
247
100
AcDbEntity
  8
LAYER0
 62
         3
100
AcDbLine
 10
-33.8097638628
 20
18.8060780835
 30
0.0
 11
-33.8069624448
 21
18.9147485385
 31
0.0
  0
LINE
  5
248
100
AcDbEntity
  8
LAYER0
 62
         3
100
AcDbLine
 10
-33.8069624448
 20
18.9147485385
 30
0.0
 11
-33.7981851949
 21
19.025046922
 31
0.0
  0
LINE
  5
249
100
AcDbEntity
  8
LAYER0
 62
         3
100
AcDbLine
 10
-33.7981851949
 20
19.025046922
 30
0.0
 11
-33.780587185
 21
19.1299922974
 31
0.0
  0
LINE
  5
24A
100
AcDbEntity
  8
LAYER0
 62
         3
100
AcDbLine
 10
-33.780587185
 20
19.1299922974
 30
0.0
 11
-33.7546801721
 21
19.2368004074
 31
0.0
  0
LINE
  5
24B
100
AcDbEntity
  8
LAYER0
 62
         3
100
AcDbLine
 10
-33.7546801721
 20
19.2368004074
 30
0.0
 11
-33.7224642229
 21
19.344525603
 31
0.0
  0
LINE
  5
24C
100
AcDbEntity
  8
LAYER0
 62
         3
100
AcDbLine
 10
-33.7224642229
 20
19.344525603
 30
0.0
 11
-33.6859394042
 21
19.4522222352
 31
0.0
  0
LINE
  5
24D
100
AcDbEntity
  8
LAYER0
 62
         3
100
AcDbLine
 10
-33.6859394042
 20
19.4522222352
 30
0.0
 11
-33.6839202969
 21
19.4579182041
 31
0.0
  0
ENDBLK
  5
24E
100
AcDbEntity
  8
0
100
AcDbBlockEnd
  0
BLOCK
  5
252
100
AcDbEntity
  8
0
100
AcDbBlockBegin
  2
CLUMP50
 70
         0
 10
0.0
 20
0.0
 30
0.0
  3

  1

  0
INSERT
  5
254
100
AcDbEntity
  8
0
100
AcDbBlockReference
  2
CLUMP51
 10
0.0
 20
0.0
 30
0.0
  0
ENDBLK
  5
266
100
AcDbEntity
  8
0
100
AcDbBlockEnd
  0
BLOCK
  5
255
100
AcDbEntity
  8
0
100
AcDbBlockBegin
  2
CLUMP51
 70
         0
 10
0.0
 20
0.0
 30
0.0
  3

  1

  0
LINE
  5
256
100
AcDbEntity
  8
LAYER0
 62
         3
100
AcDbLine
 10
-25.8698207503
 20
18.9594780874
 30
0.0
 11
-25.8701734763
 21
18.9594538461
 31
0.0
  0
LINE
  5
257
100
AcDbEntity
  8
LAYER0
 62
         3
100
AcDbLine
 10
-25.8701734763
 20
18.9594538461
 30
0.0
 11
-25.8704824151
 21
18.9593742214
 31
0.0
  0
LINE
  5
258
100
AcDbEntity
  8
LAYER0
 62
         3
100
AcDbLine
 10
-25.8704824151
 20
18.9593742214
 30
0.0
 11
-25.8709504446
 21
18.9592135918
 31
0.0
  0
LINE
  5
259
100
AcDbEntity
  8
LAYER0
 62
         3
100
AcDbLine
 10
-25.8709504446
 20
18.9592135918
 30
0.0
 11
-25.8716632924
 21
18.9589326706
 31
0.0
  0
LINE
  5
25A
100
AcDbEntity
  8
LAYER0
 62
         3
100
AcDbLine
 10
-25.8716632924
 20
18.9589326706
 30
0.0
 11
-25.8725979719
 21
18.9585387987
 31
0.0
  0
LINE
  5
25B
100
AcDbEntity
  8
LAYER0
 62
         3
100
AcDbLine
 10
-25.8725979719
 20
18.9585387987
 30
0.0
 11
-25.8737396943
 21
18.958039506
 31
0.0
  0
LINE
  5
25C
100
AcDbEntity
  8
LAYER0
 62
         3
100
AcDbLine
 10
-25.8737396943
 20
18.958039506
 30
0.0
 11
-25.8750736708
 21
18.9574423226
 31
0.0
  0
LINE
  5
25D
100
AcDbEntity
  8
LAYER0
 62
         3
100
AcDbLine
 10
-25.8750736708
 20
18.9574423226
 30
0.0
 11
-25.8765851126
 21
18.9567547787
 31
0.0
  0
LINE
  5
25E
100
AcDbEntity
  8
LAYER0
 62
         3
100
AcDbLine
 10
-25.8765851126
 20
18.9567547787
 30
0.0
 11
-25.8782592309
 21
18.9559844041
 31
0.0
  0
LINE
  5
25F
100
AcDbEntity
  8
LAYER0
 62
         3
100
AcDbLine
 10
-25.8782592309
 20
18.9559844041
 30
0.0
 11
-25.880081237
 21
18.9551387291
 31
0.0
  0
LINE
  5
260
100
AcDbEntity
  8
LAYER0
 62
         3
100
AcDbLine
 10
-25.880081237
 20
18.9551387291
 30
0.0
 11
-25.8820363421
 21
18.9542252836
 31
0.0
  0
LINE
  5
261
100
AcDbEntity
  8
LAYER0
 62
         3
100
AcDbLine
 10
-25.8820363421
 20
18.9542252836
 30
0.0
 11
-25.8862866943
 21
18.9522252013
 31
0.0
  0
LINE
  5
262
100
AcDbEntity
  8
LAYER0
 62
         3
100
AcDbLine
 10
-25.8862866943
 20
18.9522252013
 30
0.0
 11
-25.890891977
 21
18.9500443979
 31
0.0
  0
LINE
  5
263
100
AcDbEntity
  8
LAYER0
 62
         3
100
AcDbLine
 10
-25.890891977
 20
18.9500443979
 30
0.0
 11
-25.8957338803
 21
18.9477431136
 31
0.0
  0
LINE
  5
264
100
AcDbEntity
  8
LAYER0
 62
         3
100
AcDbLine
 10
-25.8957338803
 20
18.9477431136
 30
0.0
 11
-25.9006940937
 21
18.9453815889
 31
0.0
  0
ENDBLK
  5
265
100
AcDbEntity
  8
0
100
AcDbBlockEnd
  0
BLOCK
  5
269
100
AcDbEntity
  8
0
100
AcDbBlockBegin
  2
CLUMP52
 70
         0
 10
0.0
 20
0.0
 30
0.0
  3

  1

  0
INSERT
  5
26B
100
AcDbEntity
  8
0
100
AcDbBlockReference
  2
CLUMP53
 10
0.0
 20
0.0
 30
0.0
  0
ENDBLK
  5
27D
100
AcDbEntity
  8
0
100
AcDbBlockEnd
  0
BLOCK
  5
26C
100
AcDbEntity
  8
0
100
AcDbBlockBegin
  2
CLUMP53
 70
         0
 10
0.0
 20
0.0
 30
0.0
  3

  1

  0
LINE
  5
26D
100
AcDbEntity
  8
LAYER0
 62
         3
100
AcDbLine
 10
-33.9197972967
 20
18.9474193227
 30
0.0
 11
-33.9277749589
 21
18.9511119256
 31
0.0
  0
LINE
  5
26E
100
AcDbEntity
  8
LAYER0
 62
         3
100
AcDbLine
 10
-33.9277749589
 20
18.9511119256
 30
0.0
 11
-33.931529641
 21
18.9528506706
 31
0.0
  0
LINE
  5
26F
100
AcDbEntity
  8
LAYER0
 62
         3
100
AcDbLine
 10
-33.931529641
 20
18.9528506706
 30
0.0
 11
-33.9350033443
 21
18.954460348
 31
0.0
  0
LINE
  5
270
100
AcDbEntity
  8
LAYER0
 62
         3
100
AcDbLine
 10
-33.9350033443
 20
18.954460348
 30
0.0
 11
-33.9381024093
 21
18.9558979353
 31
0.0
  0
LINE
  5
271
100
AcDbEntity
  8
LAYER0
 62
         3
100
AcDbLine
 10
-33.9381024093
 20
18.9558979353
 30
0.0
 11
-33.9394821837
 21
18.9565387506
 31
0.0
  0
LINE
  5
272
100
AcDbEntity
  8
LAYER0
 62
         3
100
AcDbLine
 10
-33.9394821837
 20
18.9565387506
 30
0.0
 11
-33.9407331762
 21
18.9571204098
 31
0.0
  0
LINE
  5
273
100
AcDbEntity
  8
LAYER0
 62
         3
100
AcDbLine
 10
-33.9407331762
 20
18.9571204098
 30
0.0
 11
-33.9418436792
 21
18.9576375353
 31
0.0
  0
LINE
  5
274
100
AcDbEntity
  8
LAYER0
 62
         3
100
AcDbLine
 10
-33.9418436792
 20
18.9576375353
 30
0.0
 11
-33.9428019855
 21
18.9580847491
 31
0.0
  0
LINE
  5
275
100
AcDbEntity
  8
LAYER0
 62
         3
100
AcDbLine
 10
-33.9428019855
 20
18.9580847491
 30
0.0
 11
-33.9435963874
 21
18.9584566734
 31
0.0
  0
LINE
  5
276
100
AcDbEntity
  8
LAYER0
 62
         3
100
AcDbLine
 10
-33.9435963874
 20
18.9584566734
 30
0.0
 11
-33.9442151776
 21
18.9587479305
 31
0.0
  0
LINE
  5
277
100
AcDbEntity
  8
LAYER0
 62
         3
100
AcDbLine
 10
-33.9442151776
 20
18.9587479305
 30
0.0
 11
-33.9446151507
 21
18.9589379399
 31
0.0
  0
LINE
  5
278
100
AcDbEntity
  8
LAYER0
 62
         3
100
AcDbLine
 10
-33.9446151507
 20
18.9589379399
 30
0.0
 11
-33.9448837262
 21
18.9590675917
 31
0.0
  0
LINE
  5
279
100
AcDbEntity
  8
LAYER0
 62
         3
100
AcDbLine
 10
-33.9448837262
 20
18.9590675917
 30
0.0
 11
-33.9451017686
 21
18.9591803128
 31
0.0
  0
LINE
  5
27A
100
AcDbEntity
  8
LAYER0
 62
         3
100
AcDbLine
 10
-33.9451017686
 20
18.9591803128
 30
0.0
 11
-33.9450194735
 21
18.9591550739
 31
0.0
  0
LINE
  5
27B
100
AcDbEntity
  8
LAYER0
 62
         3
100
AcDbLine
 10
-33.9450194735
 20
18.9591550739
 30
0.0
 11
-33.9447870096
 21
18.9590608549
 31
0.0
  0
ENDBLK
  5
27C
100
AcDbEntity
  8
0
100
AcDbBlockEnd
  0
BLOCK
  5
280
100
AcDbEntity
  8
0
100
AcDbBlockBegin
  2
CLUMP54
 70
         0
 10
0.0
 20
0.0
 30
0.0
  3

  1

  0
INSERT
  5
282
100
AcDbEntity
  8
0
100
AcDbBlockReference
  2
CLUMP55
 10
0.0
 20
0.0
 30
0.0
  0
ENDBLK
  5
295
100
AcDbEntity
  8
0
100
AcDbBlockEnd
  0
BLOCK
  5
283
100
AcDbEntity
  8
0
100
AcDbBlockBegin
  2
CLUMP55
 70
         0
 10
0.0
 20
0.0
 30
0.0
  3

  1

  0
LINE
  5
284
100
AcDbEntity
  8
LAYER0
 62
         3
100
AcDbLine
 10
-25.9024924776
 20
18.9423231256
 30
0.0
 11
-25.9096449217
 21
18.938389591
 31
0.0
  0
LINE
  5
285
100
AcDbEntity
  8
LAYER0
 62
         3
100
AcDbLine
 10
-25.9096449217
 20
18.938389591
 30
0.0
 11
-25.9172781548
 21
18.9333898795
 31
0.0
  0
LINE
  5
286
100
AcDbEntity
  8
LAYER0
 62
         3
100
AcDbLine
 10
-25.9172781548
 20
18.9333898795
 30
0.0
 11
-25.9240845733
 21
18.9279398667
 31
0.0
  0
LINE
  5
287
100
AcDbEntity
  8
LAYER0
 62
         3
100
AcDbLine
 10
-25.9240845733
 20
18.9279398667
 30
0.0
 11
-25.9313440989
 21
18.9212694232
 31
0.0
  0
LINE
  5
288
100
AcDbEntity
  8
LAYER0
 62
         3
100
AcDbLine
 10
-25.9313440989
 20
18.9212694232
 30
0.0
 11
-25.9388765498
 21
18.9135624723
 31
0.0
  0
LINE
  5
289
100
AcDbEntity
  8
LAYER0
 62
         3
100
AcDbLine
 10
-25.9388765498
 20
18.9135624723
 30
0.0
 11
-25.946501744
 21
18.9050029373
 31
0.0
  0
LINE
  5
28A
100
AcDbEntity
  8
LAYER0
 62
         3
100
AcDbLine
 10
-25.946501744
 20
18.9050029373
 30
0.0
 11
-25.9613096356
 21
18.8860618079
 31
0.0
  0
LINE
  5
28B
100
AcDbEntity
  8
LAYER0
 62
         3
100
AcDbLine
 10
-25.9613096356
 20
18.8860618079
 30
0.0
 11
-25.9743263191
 21
18.8659174216
 31
0.0
  0
LINE
  5
28C
100
AcDbEntity
  8
LAYER0
 62
         3
100
AcDbLine
 10
-25.9743263191
 20
18.8659174216
 30
0.0
 11
-25.9829490286
 21
18.8492455186
 31
0.0
  0
LINE
  5
28D
100
AcDbEntity
  8
LAYER0
 62
         3
100
AcDbLine
 10
-25.9829490286
 20
18.8492455186
 30
0.0
 11
-25.986444981
 21
18.8413093858
 31
0.0
  0
LINE
  5
28E
100
AcDbEntity
  8
LAYER0
 62
         3
100
AcDbLine
 10
-25.986444981
 20
18.8413093858
 30
0.0
 11
-25.9894147244
 21
18.8338155222
 31
0.0
  0
LINE
  5
28F
100
AcDbEntity
  8
LAYER0
 62
         3
100
AcDbLine
 10
-25.9894147244
 20
18.8338155222
 30
0.0
 11
-25.9918713031
 21
18.8268957202
 31
0.0
  0
LINE
  5
290
100
AcDbEntity
  8
LAYER0
 62
         3
100
AcDbLine
 10
-25.9918713031
 20
18.8268957202
 30
0.0
 11
-25.9938277612
 21
18.8206817724
 31
0.0
  0
LINE
  5
291
100
AcDbEntity
  8
LAYER0
 62
         3
100
AcDbLine
 10
-25.9938277612
 20
18.8206817724
 30
0.0
 11
-25.9952971432
 21
18.8153054712
 31
0.0
  0
LINE
  5
292
100
AcDbEntity
  8
LAYER0
 62
         3
100
AcDbLine
 10
-25.9952971432
 20
18.8153054712
 30
0.0
 11
-25.9962924933
 21
18.8108986092
 31
0.0
  0
LINE
  5
293
100
AcDbEntity
  8
LAYER0
 62
         3
100
AcDbLine
 10
-25.9962924933
 20
18.8108986092
 30
0.0
 11
-25.9969434878
 21
18.8070913625
 31
0.0
  0
ENDBLK
  5
294
100
AcDbEntity
  8
0
100
AcDbBlockEnd
  0
BLOCK
  5
298
100
AcDbEntity
  8
0
100
AcDbBlockBegin
  2
CLUMP56
 70
         0
 10
0.0
 20
0.0
 30
0.0
  3

  1

  0
INSERT
  5
29A
100
AcDbEntity
  8
0
100
AcDbBlockReference
  2
CLUMP57
 10
0.0
 20
0.0
 30
0.0
  0
ENDBLK
  5
2AE
100
AcDbEntity
  8
0
100
AcDbBlockEnd
  0
BLOCK
  5
29B
100
AcDbEntity
  8
0
100
AcDbBlockBegin
  2
CLUMP57
 70
         0
 10
0.0
 20
0.0
 30
0.0
  3

  1

  0
LINE
  5
29C
100
AcDbEntity
  8
LAYER0
 62
         3
100
AcDbLine
 10
-33.8208447388
 20
18.8095277023
 30
0.0
 11
-33.8217167383
 21
18.8143887437
 31
0.0
  0
LINE
  5
29D
100
AcDbEntity
  8
LAYER0
 62
         3
100
AcDbLine
 10
-33.8217167383
 20
18.8143887437
 30
0.0
 11
-33.8229835211
 21
18.8199808669
 31
0.0
  0
LINE
  5
29E
100
AcDbEntity
  8
LAYER0
 62
         3
100
AcDbLine
 10
-33.8229835211
 20
18.8199808669
 30
0.0
 11
-33.824462204
 21
18.8252147593
 31
0.0
  0
LINE
  5
29F
100
AcDbEntity
  8
LAYER0
 62
         3
100
AcDbLine
 10
-33.824462204
 20
18.8252147593
 30
0.0
 11
-33.8264327496
 21
18.831219537
 31
0.0
  0
LINE
  5
2A0
100
AcDbEntity
  8
LAYER0
 62
         3
100
AcDbLine
 10
-33.8264327496
 20
18.831219537
 30
0.0
 11
-33.828911622
 21
18.837885715
 31
0.0
  0
LINE
  5
2A1
100
AcDbEntity
  8
LAYER0
 62
         3
100
AcDbLine
 10
-33.828911622
 20
18.837885715
 30
0.0
 11
-33.8319152849
 21
18.8451038083
 31
0.0
  0
LINE
  5
2A2
100
AcDbEntity
  8
LAYER0
 62
         3
100
AcDbLine
 10
-33.8319152849
 20
18.8451038083
 30
0.0
 11
-33.8395628386
 21
18.8607578008
 31
0.0
  0
LINE
  5
2A3
100
AcDbEntity
  8
LAYER0
 62
         3
100
AcDbLine
 10
-33.8395628386
 20
18.8607578008
 30
0.0
 11
-33.8495071223
 21
18.877305634
 31
0.0
  0
LINE
  5
2A4
100
AcDbEntity
  8
LAYER0
 62
         3
100
AcDbLine
 10
-33.8495071223
 20
18.877305634
 30
0.0
 11
-33.8573959829
 21
18.8883756608
 31
0.0
  0
LINE
  5
2A5
100
AcDbEntity
  8
LAYER0
 62
         3
100
AcDbLine
 10
-33.8573959829
 20
18.8883756608
 30
0.0
 11
-33.8660323277
 21
18.8992017125
 31
0.0
  0
LINE
  5
2A6
100
AcDbEntity
  8
LAYER0
 62
         3
100
AcDbLine
 10
-33.8660323277
 20
18.8992017125
 30
0.0
 11
-33.8750895912
 21
18.9095318705
 31
0.0
  0
LINE
  5
2A7
100
AcDbEntity
  8
LAYER0
 62
         3
100
AcDbLine
 10
-33.8750895912
 20
18.9095318705
 30
0.0
 11
-33.8842412077
 21
18.9191142163
 31
0.0
  0
LINE
  5
2A8
100
AcDbEntity
  8
LAYER0
 62
         3
100
AcDbLine
 10
-33.8842412077
 20
18.9191142163
 30
0.0
 11
-33.8931606118
 21
18.9276968311
 31
0.0
  0
LINE
  5
2A9
100
AcDbEntity
  8
LAYER0
 62
         3
100
AcDbLine
 10
-33.8931606118
 20
18.9276968311
 30
0.0
 11
-33.9015212377
 21
18.9350277963
 31
0.0
  0
LINE
  5
2AA
100
AcDbEntity
  8
LAYER0
 62
         3
100
AcDbLine
 10
-33.9015212377
 20
18.9350277963
 30
0.0
 11
-33.90899652
 21
18.9408551934
 31
0.0
  0
LINE
  5
2AB
100
AcDbEntity
  8
LAYER0
 62
         3
100
AcDbLine
 10
-33.90899652
 20
18.9408551934
 30
0.0
 11
-33.9152598931
 21
18.9449271035
 31
0.0
  0
LINE
  5
2AC
100
AcDbEntity
  8
LAYER0
 62
         3
100
AcDbLine
 10
-33.9152598931
 20
18.9449271035
 30
0.0
 11
-33.9185786611
 21
18.9466332865
 31
0.0
  0
ENDBLK
  5
2AD
100
AcDbEntity
  8
0
100
AcDbBlockEnd
  0
BLOCK
  5
2B1
100
AcDbEntity
  8
0
100
AcDbBlockBegin
  2
CLUMP58
 70
         0
 10
0.0
 20
0.0
 30
0.0
  3

  1

  0
INSERT
  5
2B3
100
AcDbEntity
  8
0
100
AcDbBlockReference
  2
CLUMP59
 10
0.0
 20
0.0
 30
0.0
  0
ENDBLK
  5
2CB
100
AcDbEntity
  8
0
100
AcDbBlockEnd
  0
BLOCK
  5
2B4
100
AcDbEntity
  8
0
100
AcDbBlockBegin
  2
CLUMP59
 70
         0
 10
0.0
 20
0.0
 30
0.0
  3

  1

  0
LINE
  5
2B5
100
AcDbEntity
  8
LAYER0
 62
         3
100
AcDbLine
 10
-25.9969714275
 20
18.8061972928
 30
0.0
 11
-25.9974541843
 21
18.8044439936
 31
0.0
  0
LINE
  5
2B6
100
AcDbEntity
  8
LAYER0
 62
         3
100
AcDbLine
 10
-25.9974541843
 20
18.8044439936
 30
0.0
 11
-25.9976816766
 21
18.803622403
 31
0.0
  0
LINE
  5
2B7
100
AcDbEntity
  8
LAYER0
 62
         3
100
AcDbLine
 10
-25.9976816766
 20
18.803622403
 30
0.0
 11
-25.9978925055
 21
18.8028668833
 31
0.0
  0
LINE
  5
2B8
100
AcDbEntity
  8
LAYER0
 62
         3
100
AcDbLine
 10
-25.9978925055
 20
18.8028668833
 30
0.0
 11
-25.9980372958
 21
18.8023533168
 31
0.0
  0
LINE
  5
2B9
100
AcDbEntity
  8
LAYER0
 62
         3
100
AcDbLine
 10
-25.9980372958
 20
18.8023533168
 30
0.0
 11
-25.9981698931
 21
18.801888096
 31
0.0
  0
LINE
  5
2BA
100
AcDbEntity
  8
LAYER0
 62
         3
100
AcDbLine
 10
-25.9981698931
 20
18.801888096
 30
0.0
 11
-25.9982906907
 21
18.8014696613
 31
0.0
  0
LINE
  5
2BB
100
AcDbEntity
  8
LAYER0
 62
         3
100
AcDbLine
 10
-25.9982906907
 20
18.8014696613
 30
0.0
 11
-25.9984000819
 21
18.8010964532
 31
0.0
  0
LINE
  5
2BC
100
AcDbEntity
  8
LAYER0
 62
         3
100
AcDbLine
 10
-25.9984000819
 20
18.8010964532
 30
0.0
 11
-25.9984984601
 21
18.8007669121
 31
0.0
  0
LINE
  5
2BD
100
AcDbEntity
  8
LAYER0
 62
         3
100
AcDbLine
 10
-25.9984984601
 20
18.8007669121
 30
0.0
 11
-25.9985862187
 21
18.8004794785
 31
0.0
  0
LINE
  5
2BE
100
AcDbEntity
  8
LAYER0
 62
         3
100
AcDbLine
 10
-25.9985862187
 20
18.8004794785
 30
0.0
 11
-25.9986637508
 21
18.8002325929
 31
0.0
  0
LINE
  5
2BF
100
AcDbEntity
  8
LAYER0
 62
         3
100
AcDbLine
 10
-25.9986637508
 20
18.8002325929
 30
0.0
 11
-25.9987314499
 21
18.8000246956
 31
0.0
  0
LINE
  5
2C0
100
AcDbEntity
  8
LAYER0
 62
         3
100
AcDbLine
 10
-25.9987314499
 20
18.8000246956
 30
0.0
 11
-25.9988389221
 21
18.7997196283
 31
0.0
  0
LINE
  5
2C1
100
AcDbEntity
  8
LAYER0
 62
         3
100
AcDbLine
 10
-25.9988389221
 20
18.7997196283
 30
0.0
 11
-25.998911782
 21
18.7995518003
 31
0.0
  0
LINE
  5
2C2
100
AcDbEntity
  8
LAYER0
 62
         3
100
AcDbLine
 10
-25.998911782
 20
18.7995518003
 30
0.0
 11
-25.998953176
 21
18.7995087352
 31
0.0
  0
LINE
  5
2C3
100
AcDbEntity
  8
LAYER0
 62
         3
100
AcDbLine
 10
-25.998953176
 20
18.7995087352
 30
0.0
 11
-25.9989662509
 21
18.7995779567
 31
0.0
  0
LINE
  5
2C4
100
AcDbEntity
  8
LAYER0
 62
         3
100
AcDbLine
 10
-25.9989662509
 20
18.7995779567
 30
0.0
 11
-25.9989541531
 21
18.7997469887
 31
0.0
  0
LINE
  5
2C5
100
AcDbEntity
  8
LAYER0
 62
         3
100
AcDbLine
 10
-25.9989541531
 20
18.7997469887
 30
0.0
 11
-25.9989200292
 21
18.8000033546
 31
0.0
  0
LINE
  5
2C6
100
AcDbEntity
  8
LAYER0
 62
         3
100
AcDbLine
 10
-25.9989200292
 20
18.8000033546
 30
0.0
 11
-25.9988670259
 21
18.8003345784
 31
0.0
  0
LINE
  5
2C7
100
AcDbEntity
  8
LAYER0
 62
         3
100
AcDbLine
 10
-25.9988670259
 20
18.8003345784
 30
0.0
 11
-25.9987982896
 21
18.8007281837
 31
0.0
  0
LINE
  5
2C8
100
AcDbEntity
  8
LAYER0
 62
         3
100
AcDbLine
 10
-25.9987982896
 20
18.8007281837
 30
0.0
 11
-25.9986262048
 21
18.8016526334
 31
0.0
  0
LINE
  5
2C9
100
AcDbEntity
  8
LAYER0
 62
         3
100
AcDbLine
 10
-25.9986262048
 20
18.8016526334
 30
0.0
 11
-25.9984289473
 21
18.8026768935
 31
0.0
  0
ENDBLK
  5
2CA
100
AcDbEntity
  8
0
100
AcDbBlockEnd
  0
BLOCK
  5
2CE
100
AcDbEntity
  8
0
100
AcDbBlockBegin
  2
CLUMP60
 70
         0
 10
0.0
 20
0.0
 30
0.0
  3

  1

  0
INSERT
  5
2D0
100
AcDbEntity
  8
0
100
AcDbBlockReference
  2
CLUMP61
 10
0.0
 20
0.0
 30
0.0
  0
ENDBLK
  5
2E6
100
AcDbEntity
  8
0
100
AcDbBlockEnd
  0
BLOCK
  5
2D1
100
AcDbEntity
  8
0
100
AcDbBlockBegin
  2
CLUMP61
 70
         0
 10
0.0
 20
0.0
 30
0.0
  3

  1

  0
LINE
  5
2D2
100
AcDbEntity
  8
LAYER0
 62
         3
100
AcDbLine
 10
-33.8184531024
 20
18.8022112322
 30
0.0
 11
-33.8182833116
 21
18.8012770065
 31
0.0
  0
LINE
  5
2D3
100
AcDbEntity
  8
LAYER0
 62
         3
100
AcDbLine
 10
-33.8182833116
 20
18.8012770065
 30
0.0
 11
-33.818135102
 21
18.8004301138
 31
0.0
  0
LINE
  5
2D4
100
AcDbEntity
  8
LAYER0
 62
         3
100
AcDbLine
 10
-33.818135102
 20
18.8004301138
 30
0.0
 11
-33.8180758341
 21
18.8000667089
 31
0.0
  0
LINE
  5
2D5
100
AcDbEntity
  8
LAYER0
 62
         3
100
AcDbLine
 10
-33.8180758341
 20
18.8000667089
 30
0.0
 11
-33.8180300545
 21
18.7997578871
 31
0.0
  0
LINE
  5
2D6
100
AcDbEntity
  8
LAYER0
 62
         3
100
AcDbLine
 10
-33.8180300545
 20
18.7997578871
 30
0.0
 11
-33.8180004606
 21
18.799514565
 31
0.0
  0
LINE
  5
2D7
100
AcDbEntity
  8
LAYER0
 62
         3
100
AcDbLine
 10
-33.8180004606
 20
18.799514565
 30
0.0
 11
-33.8179897502
 21
18.7993476592
 31
0.0
  0
LINE
  5
2D8
100
AcDbEntity
  8
LAYER0
 62
         3
100
AcDbLine
 10
-33.8179897502
 20
18.7993476592
 30
0.0
 11
-33.8180006209
 21
18.7992680865
 31
0.0
  0
LINE
  5
2D9
100
AcDbEntity
  8
LAYER0
 62
         3
100
AcDbLine
 10
-33.8180006209
 20
18.7992680865
 30
0.0
 11
-33.8180357704
 21
18.7992867633
 31
0.0
  0
LINE
  5
2DA
100
AcDbEntity
  8
LAYER0
 62
         3
100
AcDbLine
 10
-33.8180357704
 20
18.7992867633
 30
0.0
 11
-33.8180978962
 21
18.7994146063
 31
0.0
  0
LINE
  5
2DB
100
AcDbEntity
  8
LAYER0
 62
         3
100
AcDbLine
 10
-33.8180978962
 20
18.7994146063
 30
0.0
 11
-33.8181896959
 21
18.7996625322
 31
0.0
  0
LINE
  5
2DC
100
AcDbEntity
  8
LAYER0
 62
         3
100
AcDbLine
 10
-33.8181896959
 20
18.7996625322
 30
0.0
 11
-33.8183138674
 21
18.8000414575
 31
0.0
  0
LINE
  5
2DD
100
AcDbEntity
  8
LAYER0
 62
         3
100
AcDbLine
 10
-33.8183138674
 20
18.8000414575
 30
0.0
 11
-33.8184731081
 21
18.8005622989
 31
0.0
  0
LINE
  5
2DE
100
AcDbEntity
  8
LAYER0
 62
         3
100
AcDbLine
 10
-33.8184731081
 20
18.8005622989
 30
0.0
 11
-33.8186701157
 21
18.801235973
 31
0.0
  0
LINE
  5
2DF
100
AcDbEntity
  8
LAYER0
 62
         3
100
AcDbLine
 10
-33.8186701157
 20
18.801235973
 30
0.0
 11
-33.8187836251
 21
18.8016335338
 31
0.0
  0
LINE
  5
2E0
100
AcDbEntity
  8
LAYER0
 62
         3
100
AcDbLine
 10
-33.8187836251
 20
18.8016335338
 30
0.0
 11
-33.8189075878
 21
18.8020733965
 31
0.0
  0
LINE
  5
2E1
100
AcDbEntity
  8
LAYER0
 62
         3
100
AcDbLine
 10
-33.8189075878
 20
18.8020733965
 30
0.0
 11
-33.8191851625
 21
18.8030734408
 31
0.0
  0
LINE
  5
2E2
100
AcDbEntity
  8
LAYER0
 62
         3
100
AcDbLine
 10
-33.8191851625
 20
18.8030734408
 30
0.0
 11
-33.8194949329
 21
18.8042037723
 31
0.0
  0
LINE
  5
2E3
100
AcDbEntity
  8
LAYER0
 62
         3
100
AcDbLine
 10
-33.8194949329
 20
18.8042037723
 30
0.0
 11
-33.819826167
 21
18.8054209619
 31
0.0
  0
LINE
  5
2E4
100
AcDbEntity
  8
LAYER0
 62
         3
100
AcDbLine
 10
-33.819826167
 20
18.8054209619
 30
0.0
 11
-33.8201681329
 21
18.8066815806
 31
0.0
  0
ENDBLK
  5
2E5
100
AcDbEntity
  8
0
100
AcDbBlockEnd
  0
BLOCK
  5
2E9
100
AcDbEntity
  8
0
100
AcDbBlockBegin
  2
CLUMP62
 70
         0
 10
0.0
 20
0.0
 30
0.0
  3

  1

  0
INSERT
  5
2EB
100
AcDbEntity
  8
0
100
AcDbBlockReference
  2
CLUMP63
 10
0.0
 20
0.0
 30
0.0
  0
ENDBLK
  5
2F9
100
AcDbEntity
  8
0
100
AcDbBlockEnd
  0
BLOCK
  5
2EC
100
AcDbEntity
  8
0
100
AcDbBlockBegin
  2
CLUMP63
 70
         0
 10
0.0
 20
0.0
 30
0.0
  3

  1

  0
LINE
  5
2ED
100
AcDbEntity
  8
LAYER0
 62
         3
100
AcDbLine
 10
-28.5839080056
 20
21.2465939891
 30
0.0
 11
-28.5812453544
 21
21.2428165448
 31
0.0
  0
LINE
  5
2EE
100
AcDbEntity
  8
LAYER0
 62
         3
100
AcDbLine
 10
-28.5812453544
 20
21.2428165448
 30
0.0
 11
-28.5488728331
 21
21.1927782964
 31
0.0
  0
LINE
  5
2EF
100
AcDbEntity
  8
LAYER0
 62
         3
100
AcDbLine
 10
-28.5488728331
 20
21.1927782964
 30
0.0
 11
-28.5168229926
 21
21.1355620355
 31
0.0
  0
LINE
  5
2F0
100
AcDbEntity
  8
LAYER0
 62
         3
100
AcDbLine
 10
-28.5168229926
 20
21.1355620355
 30
0.0
 11
-28.4853123805
 21
21.0717118021
 31
0.0
  0
LINE
  5
2F1
100
AcDbEntity
  8
LAYER0
 62
         3
100
AcDbLine
 10
-28.4853123805
 20
21.0717118021
 30
0.0
 11
-28.4545575446
 21
21.001771636
 31
0.0
  0
LINE
  5
2F2
100
AcDbEntity
  8
LAYER0
 62
         3
100
AcDbLine
 10
-28.4545575446
 20
21.001771636
 30
0.0
 11
-28.4281370112
 21
20.9351319539
 31
0.0
  0
LINE
  5
2F3
100
AcDbEntity
  8
LAYER0
 62
         3
100
AcDbLine
 10
-28.4281370112
 20
20.9351319539
 30
0.0
 11
-28.4028115643
 21
20.8645004857
 31
0.0
  0
LINE
  5
2F4
100
AcDbEntity
  8
LAYER0
 62
         3
100
AcDbLine
 10
-28.4028115643
 20
20.8645004857
 30
0.0
 11
-28.3789125884
 21
20.7902414114
 31
0.0
  0
LINE
  5
2F5
100
AcDbEntity
  8
LAYER0
 62
         3
100
AcDbLine
 10
-28.3789125884
 20
20.7902414114
 30
0.0
 11
-28.3567714682
 21
20.7127189112
 31
0.0
  0
LINE
  5
2F6
100
AcDbEntity
  8
LAYER0
 62
         3
100
AcDbLine
 10
-28.3567714682
 20
20.7127189112
 30
0.0
 11
-28.3178934014
 21
20.5495521606
 31
0.0
  0
LINE
  5
2F7
100
AcDbEntity
  8
LAYER0
 62
         3
100
AcDbLine
 10
-28.3178934014
 20
20.5495521606
 30
0.0
 11
-28.2832072294
 21
20.3805683029
 31
0.0
  0
ENDBLK
  5
2F8
100
AcDbEntity
  8
0
100
AcDbBlockEnd
  0
BLOCK
  5
2FC
100
AcDbEntity
  8
0
100
AcDbBlockBegin
  2
CLUMP64
 70
         0
 10
0.0
 20
0.0
 30
0.0
  3

  1

  0
INSERT
  5
2FE
100
AcDbEntity
  8
0
100
AcDbBlockReference
  2
CLUMP65
 10
0.0
 20
0.0
 30
0.0
  0
ENDBLK
  5
30C
100
AcDbEntity
  8
0
100
AcDbBlockEnd
  0
BLOCK
  5
2FF
100
AcDbEntity
  8
0
100
AcDbBlockBegin
  2
CLUMP65
 70
         0
 10
0.0
 20
0.0
 30
0.0
  3

  1

  0
LINE
  5
300
100
AcDbEntity
  8
LAYER0
 62
         3
100
AcDbLine
 10
-31.2330192132
 20
21.2465939891
 30
0.0
 11
-31.2356818645
 21
21.2428165448
 31
0.0
  0
LINE
  5
301
100
AcDbEntity
  8
LAYER0
 62
         3
100
AcDbLine
 10
-31.2356818645
 20
21.2428165448
 30
0.0
 11
-31.2680543888
 21
21.1927782971
 31
0.0
  0
LINE
  5
302
100
AcDbEntity
  8
LAYER0
 62
         3
100
AcDbLine
 10
-31.2680543888
 20
21.1927782971
 30
0.0
 11
-31.3001042342
 21
21.1355620373
 31
0.0
  0
LINE
  5
303
100
AcDbEntity
  8
LAYER0
 62
         3
100
AcDbLine
 10
-31.3001042342
 20
21.1355620373
 30
0.0
 11
-31.3316148471
 21
21.071711804
 31
0.0
  0
LINE
  5
304
100
AcDbEntity
  8
LAYER0
 62
         3
100
AcDbLine
 10
-31.3316148471
 20
21.071711804
 30
0.0
 11
-31.3623696743
 21
21.001771636
 31
0.0
  0
LINE
  5
305
100
AcDbEntity
  8
LAYER0
 62
         3
100
AcDbLine
 10
-31.3623696743
 20
21.001771636
 30
0.0
 11
-31.3887901903
 21
20.93513195
 31
0.0
  0
LINE
  5
306
100
AcDbEntity
  8
LAYER0
 62
         3
100
AcDbLine
 10
-31.3887901903
 20
20.93513195
 30
0.0
 11
-31.4141156218
 21
20.8645004784
 31
0.0
  0
LINE
  5
307
100
AcDbEntity
  8
LAYER0
 62
         3
100
AcDbLine
 10
-31.4141156218
 20
20.8645004784
 30
0.0
 11
-31.4380145987
 21
20.7902414043
 31
0.0
  0
LINE
  5
308
100
AcDbEntity
  8
LAYER0
 62
         3
100
AcDbLine
 10
-31.4380145987
 20
20.7902414043
 30
0.0
 11
-31.4601557507
 21
20.7127189112
 31
0.0
  0
LINE
  5
309
100
AcDbEntity
  8
LAYER0
 62
         3
100
AcDbLine
 10
-31.4601557507
 20
20.7127189112
 30
0.0
 11
-31.4990340064
 21
20.5495521522
 31
0.0
  0
LINE
  5
30A
100
AcDbEntity
  8
LAYER0
 62
         3
100
AcDbLine
 10
-31.4990340064
 20
20.5495521522
 30
0.0
 11
-31.5337204552
 21
20.3805683029
 31
0.0
  0
ENDBLK
  5
30B
100
AcDbEntity
  8
0
100
AcDbBlockEnd
  0
BLOCK
  5
30F
100
AcDbEntity
  8
0
100
AcDbBlockBegin
  2
CLUMP66
 70
         0
 10
0.0
 20
0.0
 30
0.0
  3

  1

  0
INSERT
  5
311
100
AcDbEntity
  8
0
100
AcDbBlockReference
  2
CLUMP67
 10
0.0
 20
0.0
 30
0.0
  0
ENDBLK
  5
31E
100
AcDbEntity
  8
0
100
AcDbBlockEnd
  0
BLOCK
  5
312
100
AcDbEntity
  8
0
100
AcDbBlockBegin
  2
CLUMP67
 70
         0
 10
0.0
 20
0.0
 30
0.0
  3

  1

  0
LINE
  5
313
100
AcDbEntity
  8
LAYER0
 62
         3
100
AcDbLine
 10
-25.7939552134
 20
18.9906736684
 30
0.0
 11
-25.785770948
 21
18.9991004371
 31
0.0
  0
LINE
  5
314
100
AcDbEntity
  8
LAYER0
 62
         3
100
AcDbLine
 10
-25.785770948
 20
18.9991004371
 30
0.0
 11
-25.781983118
 21
19.0035162829
 31
0.0
  0
LINE
  5
315
100
AcDbEntity
  8
LAYER0
 62
         3
100
AcDbLine
 10
-25.781983118
 20
19.0035162829
 30
0.0
 11
-25.7785604513
 21
19.0081750822
 31
0.0
  0
LINE
  5
316
100
AcDbEntity
  8
LAYER0
 62
         3
100
AcDbLine
 10
-25.7785604513
 20
19.0081750822
 30
0.0
 11
-25.7741019765
 21
19.0161272182
 31
0.0
  0
LINE
  5
317
100
AcDbEntity
  8
LAYER0
 62
         3
100
AcDbLine
 10
-25.7741019765
 20
19.0161272182
 30
0.0
 11
-25.7706992027
 21
19.0247817424
 31
0.0
  0
LINE
  5
318
100
AcDbEntity
  8
LAYER0
 62
         3
100
AcDbLine
 10
-25.7706992027
 20
19.0247817424
 30
0.0
 11
-25.7682013155
 21
19.0340383136
 31
0.0
  0
LINE
  5
319
100
AcDbEntity
  8
LAYER0
 62
         3
100
AcDbLine
 10
-25.7682013155
 20
19.0340383136
 30
0.0
 11
-25.7664575005
 21
19.0437965907
 31
0.0
  0
LINE
  5
31A
100
AcDbEntity
  8
LAYER0
 62
         3
100
AcDbLine
 10
-25.7664575005
 20
19.0437965907
 30
0.0
 11
-25.7653169432
 21
19.0539562325
 31
0.0
  0
LINE
  5
31B
100
AcDbEntity
  8
LAYER0
 62
         3
100
AcDbLine
 10
-25.7653169432
 20
19.0539562325
 30
0.0
 11
-25.7646288292
 21
19.0644168978
 31
0.0
  0
LINE
  5
31C
100
AcDbEntity
  8
LAYER0
 62
         3
100
AcDbLine
 10
-25.7646288292
 20
19.0644168978
 30
0.0
 11
-25.7640066734
 21
19.0858399344
 31
0.0
  0
ENDBLK
  5
31D
100
AcDbEntity
  8
0
100
AcDbBlockEnd
  0
BLOCK
  5
380
100
AcDbEntity
  8
0
100
AcDbBlockBegin
  2
CLUMP68
 70
         0
 10
0.0
 20
0.0
 30
0.0
  3

  1

  0
INSERT
  5
382
100
AcDbEntity
  8
0
100
AcDbBlockReference
  2
CLUMP69
 10
0.0
 20
0.0
 30
0.0
  0
ENDBLK
  5
39A
100
AcDbEntity
  8
0
100
AcDbBlockEnd
  0
BLOCK
  5
383
100
AcDbEntity
  8
0
100
AcDbBlockBegin
  2
CLUMP69
 70
         0
 10
0.0
 20
0.0
 30
0.0
  3

  1

  0
LINE
  5
384
100
AcDbEntity
  8
LAYER0
 62
         3
100
AcDbLine
 10
-34.928565397
 20
1.4596419257
 30
0.0
 11
-34.9180121152
 21
1.4582188648
 31
0.0
  0
LINE
  5
385
100
AcDbEntity
  8
LAYER0
 62
         3
100
AcDbLine
 10
-34.9180121152
 20
1.4582188648
 30
0.0
 11
-34.8732891345
 21
1.4616572566
 31
0.0
  0
LINE
  5
386
100
AcDbEntity
  8
LAYER0
 62
         3
100
AcDbLine
 10
-34.8732891345
 20
1.4616572566
 30
0.0
 11
-34.8179252064
 21
1.4759959501
 31
0.0
  0
LINE
  5
387
100
AcDbEntity
  8
LAYER0
 62
         3
100
AcDbLine
 10
-34.8179252064
 20
1.4759959501
 30
0.0
 11
-34.7622736752
 21
1.4959740942
 31
0.0
  0
LINE
  5
388
100
AcDbEntity
  8
LAYER0
 62
         3
100
AcDbLine
 10
-34.7622736752
 20
1.4959740942
 30
0.0
 11
-34.7012672751
 21
1.5245513839
 31
0.0
  0
LINE
  5
389
100
AcDbEntity
  8
LAYER0
 62
         3
100
AcDbLine
 10
-34.7012672751
 20
1.5245513839
 30
0.0
 11
-34.6380543211
 21
1.5618060184
 31
0.0
  0
LINE
  5
38A
100
AcDbEntity
  8
LAYER0
 62
         3
100
AcDbLine
 10
-34.6380543211
 20
1.5618060184
 30
0.0
 11
-34.5706180847
 21
1.6094842774
 31
0.0
  0
LINE
  5
38B
100
AcDbEntity
  8
LAYER0
 62
         3
100
AcDbLine
 10
-34.5706180847
 20
1.6094842774
 30
0.0
 11
-34.4969380559
 21
1.6708227003
 31
0.0
  0
LINE
  5
38C
100
AcDbEntity
  8
LAYER0
 62
         3
100
AcDbLine
 10
-34.4969380559
 20
1.6708227003
 30
0.0
 11
-34.4215557156
 21
1.7442187142
 31
0.0
  0
LINE
  5
38D
100
AcDbEntity
  8
LAYER0
 62
         3
100
AcDbLine
 10
-34.4215557156
 20
1.7442187142
 30
0.0
 11
-34.3459627127
 21
1.8297398396
 31
0.0
  0
LINE
  5
38E
100
AcDbEntity
  8
LAYER0
 62
         3
100
AcDbLine
 10
-34.3459627127
 20
1.8297398396
 30
0.0
 11
-34.2711429289
 21
1.9272906554
 31
0.0
  0
LINE
  5
38F
100
AcDbEntity
  8
LAYER0
 62
         3
100
AcDbLine
 10
-34.2711429289
 20
1.9272906554
 30
0.0
 11
-34.2013496238
 21
2.0315980161
 31
0.0
  0
LINE
  5
390
100
AcDbEntity
  8
LAYER0
 62
         3
100
AcDbLine
 10
-34.2013496238
 20
2.0315980161
 30
0.0
 11
-34.1346902019
 21
2.1460378391
 31
0.0
  0
LINE
  5
391
100
AcDbEntity
  8
LAYER0
 62
         3
100
AcDbLine
 10
-34.1346902019
 20
2.1460378391
 30
0.0
 11
-34.0720988453
 21
2.2705982528
 31
0.0
  0
LINE
  5
392
100
AcDbEntity
  8
LAYER0
 62
         3
100
AcDbLine
 10
-34.0720988453
 20
2.2705982528
 30
0.0
 11
-34.014615248
 21
2.4040067417
 31
0.0
  0
LINE
  5
393
100
AcDbEntity
  8
LAYER0
 62
         3
100
AcDbLine
 10
-34.014615248
 20
2.4040067417
 30
0.0
 11
-33.9640081093
 21
2.5423287498
 31
0.0
  0
LINE
  5
394
100
AcDbEntity
  8
LAYER0
 62
         3
100
AcDbLine
 10
-33.9640081093
 20
2.5423287498
 30
0.0
 11
-33.9201423517
 21
2.6873094809
 31
0.0
  0
LINE
  5
395
100
AcDbEntity
  8
LAYER0
 62
         3
100
AcDbLine
 10
-33.9201423517
 20
2.6873094809
 30
0.0
 11
-33.8547108872
 21
2.9934389365
 31
0.0
  0
LINE
  5
396
100
AcDbEntity
  8
LAYER0
 62
         3
100
AcDbLine
 10
-33.8547108872
 20
2.9934389365
 30
0.0
 11
-33.8328645935
 21
3.1514397065
 31
0.0
  0
LINE
  5
397
100
AcDbEntity
  8
LAYER0
 62
         3
100
AcDbLine
 10
-33.8328645935
 20
3.1514397065
 30
0.0
 11
-33.8219292639
 21
3.3116830361
 31
0.0
  0
LINE
  5
398
100
AcDbEntity
  8
LAYER0
 62
         3
100
AcDbLine
 10
-33.8219292639
 20
3.3116830361
 30
0.0
 11
-33.8226524359
 21
3.4578857791
 31
0.0
  0
ENDBLK
  5
399
100
AcDbEntity
  8
0
100
AcDbBlockEnd
  0
BLOCK
  5
39D
100
AcDbEntity
  8
0
100
AcDbBlockBegin
  2
CLUMP70
 70
         0
 10
0.0
 20
0.0
 30
0.0
  3

  1

  0
INSERT
  5
39F
100
AcDbEntity
  8
0
100
AcDbBlockReference
  2
CLUMP71
 10
0.0
 20
0.0
 30
0.0
  0
ENDBLK
  5
3B7
100
AcDbEntity
  8
0
100
AcDbBlockEnd
  0
BLOCK
  5
3A0
100
AcDbEntity
  8
0
100
AcDbBlockBegin
  2
CLUMP71
 70
         0
 10
0.0
 20
0.0
 30
0.0
  3

  1

  0
LINE
  5
3A1
100
AcDbEntity
  8
LAYER0
 62
         3
100
AcDbLine
 10
-25.9947157642
 20
3.4577255917
 30
0.0
 11
-25.9966594344
 21
3.3487981033
 31
0.0
  0
LINE
  5
3A2
100
AcDbEntity
  8
LAYER0
 62
         3
100
AcDbLine
 10
-25.9966594344
 20
3.3487981033
 30
0.0
 11
-25.9880653537
 21
3.1885116197
 31
0.0
  0
LINE
  5
3A3
100
AcDbEntity
  8
LAYER0
 62
         3
100
AcDbLine
 10
-25.9880653537
 20
3.1885116197
 30
0.0
 11
-25.967896468
 21
3.0301479471
 31
0.0
  0
LINE
  5
3A4
100
AcDbEntity
  8
LAYER0
 62
         3
100
AcDbLine
 10
-25.967896468
 20
3.0301479471
 30
0.0
 11
-25.9067719048
 21
2.725653894
 31
0.0
  0
LINE
  5
3A5
100
AcDbEntity
  8
LAYER0
 62
         3
100
AcDbLine
 10
-25.9067719048
 20
2.725653894
 30
0.0
 11
-25.8648558842
 21
2.578892967
 31
0.0
  0
LINE
  5
3A6
100
AcDbEntity
  8
LAYER0
 62
         3
100
AcDbLine
 10
-25.8648558842
 20
2.578892967
 30
0.0
 11
-25.8159679538
 21
2.4386314523
 31
0.0
  0
LINE
  5
3A7
100
AcDbEntity
  8
LAYER0
 62
         3
100
AcDbLine
 10
-25.8159679538
 20
2.4386314523
 30
0.0
 11
-25.761726054
 21
2.3076363041
 31
0.0
  0
LINE
  5
3A8
100
AcDbEntity
  8
LAYER0
 62
         3
100
AcDbLine
 10
-25.761726054
 20
2.3076363041
 30
0.0
 11
-25.7023810586
 21
2.1845852804
 31
0.0
  0
LINE
  5
3A9
100
AcDbEntity
  8
LAYER0
 62
         3
100
AcDbLine
 10
-25.7023810586
 20
2.1845852804
 30
0.0
 11
-25.6366918301
 21
2.0664240956
 31
0.0
  0
LINE
  5
3AA
100
AcDbEntity
  8
LAYER0
 62
         3
100
AcDbLine
 10
-25.6366918301
 20
2.0664240956
 30
0.0
 11
-25.5676810807
 21
1.9583670271
 31
0.0
  0
LINE
  5
3AB
100
AcDbEntity
  8
LAYER0
 62
         3
100
AcDbLine
 10
-25.5676810807
 20
1.9583670271
 30
0.0
 11
-25.4976175998
 21
1.8627852644
 31
0.0
  0
LINE
  5
3AC
100
AcDbEntity
  8
LAYER0
 62
         3
100
AcDbLine
 10
-25.4976175998
 20
1.8627852644
 30
0.0
 11
-25.4262942067
 21
1.7778972012
 31
0.0
  0
LINE
  5
3AD
100
AcDbEntity
  8
LAYER0
 62
         3
100
AcDbLine
 10
-25.4262942067
 20
1.7778972012
 30
0.0
 11
-25.3533544719
 21
1.7023135101
 31
0.0
  0
LINE
  5
3AE
100
AcDbEntity
  8
LAYER0
 62
         3
100
AcDbLine
 10
-25.3533544719
 20
1.7023135101
 30
0.0
 11
-25.2814875162
 21
1.6377592307
 31
0.0
  0
LINE
  5
3AF
100
AcDbEntity
  8
LAYER0
 62
         3
100
AcDbLine
 10
-25.2814875162
 20
1.6377592307
 30
0.0
 11
-25.2094784631
 21
1.5824462213
 31
0.0
  0
LINE
  5
3B0
100
AcDbEntity
  8
LAYER0
 62
         3
100
AcDbLine
 10
-25.2094784631
 20
1.5824462213
 30
0.0
 11
-25.1416093847
 21
1.5389161033
 31
0.0
  0
LINE
  5
3B1
100
AcDbEntity
  8
LAYER0
 62
         3
100
AcDbLine
 10
-25.1416093847
 20
1.5389161033
 30
0.0
 11
-25.0790784057
 21
1.5065649897
 31
0.0
  0
LINE
  5
3B2
100
AcDbEntity
  8
LAYER0
 62
         3
100
AcDbLine
 10
-25.0790784057
 20
1.5065649897
 30
0.0
 11
-25.0215255833
 21
1.4833422226
 31
0.0
  0
LINE
  5
3B3
100
AcDbEntity
  8
LAYER0
 62
         3
100
AcDbLine
 10
-25.0215255833
 20
1.4833422226
 30
0.0
 11
-24.9643423273
 21
1.4664860381
 31
0.0
  0
LINE
  5
3B4
100
AcDbEntity
  8
LAYER0
 62
         3
100
AcDbLine
 10
-24.9643423273
 20
1.4664860381
 30
0.0
 11
-24.9167843899
 21
1.4595003647
 31
0.0
  0
LINE
  5
3B5
100
AcDbEntity
  8
LAYER0
 62
         3
100
AcDbLine
 10
-24.9167843899
 20
1.4595003647
 30
0.0
 11
-24.8878016314
 21
1.4605304074
 31
0.0
  0
ENDBLK
  5
3B6
100
AcDbEntity
  8
0
100
AcDbBlockEnd
  0
BLOCK
  5
3BA
100
AcDbEntity
  8
0
100
AcDbBlockBegin
  2
CLUMP72
 70
         0
 10
0.0
 20
0.0
 30
0.0
  3

  1

  0
INSERT
  5
3BC
100
AcDbEntity
  8
0
100
AcDbBlockReference
  2
CLUMP73
 10
0.0
 20
0.0
 30
0.0
  0
ENDBLK
  5
3CE
100
AcDbEntity
  8
0
100
AcDbBlockEnd
  0
BLOCK
  5
3BD
100
AcDbEntity
  8
0
100
AcDbBlockBegin
  2
CLUMP73
 70
         0
 10
0.0
 20
0.0
 30
0.0
  3

  1

  0
LINE
  5
3BE
100
AcDbEntity
  8
LAYER0
 62
         3
100
AcDbLine
 10
-28.5839080056
 20
-3.0420808273
 30
0.0
 11
-28.581394366
 21
-3.0420491624
 31
0.0
  0
LINE
  5
3BF
100
AcDbEntity
  8
LAYER0
 62
         3
100
AcDbLine
 10
-28.581394366
 20
-3.0420491624
 30
0.0
 11
-28.5411851326
 21
-3.0328902915
 31
0.0
  0
LINE
  5
3C0
100
AcDbEntity
  8
LAYER0
 62
         3
100
AcDbLine
 10
-28.5411851326
 20
-3.0328902915
 30
0.0
 11
-28.5017485908
 21
-3.0072847533
 31
0.0
  0
LINE
  5
3C1
100
AcDbEntity
  8
LAYER0
 62
         3
100
AcDbLine
 10
-28.5017485908
 20
-3.0072847533
 30
0.0
 11
-28.4771349526
 21
-2.9823052592
 31
0.0
  0
LINE
  5
3C2
100
AcDbEntity
  8
LAYER0
 62
         3
100
AcDbLine
 10
-28.4771349526
 20
-2.9823052592
 30
0.0
 11
-28.4532723137
 21
-2.950807154
 31
0.0
  0
LINE
  5
3C3
100
AcDbEntity
  8
LAYER0
 62
         3
100
AcDbLine
 10
-28.4532723137
 20
-2.950807154
 30
0.0
 11
-28.4303286602
 21
-2.9129510775
 31
0.0
  0
LINE
  5
3C4
100
AcDbEntity
  8
LAYER0
 62
         3
100
AcDbLine
 10
-28.4303286602
 20
-2.9129510775
 30
0.0
 11
-28.4084719783
 21
-2.8688976693
 31
0.0
  0
LINE
  5
3C5
100
AcDbEntity
  8
LAYER0
 62
         3
100
AcDbLine
 10
-28.4084719783
 20
-2.8688976693
 30
0.0
 11
-28.3886372993
 21
-2.8209046573
 31
0.0
  0
LINE
  5
3C6
100
AcDbEntity
  8
LAYER0
 62
         3
100
AcDbLine
 10
-28.3886372993
 20
-2.8209046573
 30
0.0
 11
-28.3700358079
 21
-2.767649291
 31
0.0
  0
LINE
  5
3C7
100
AcDbEntity
  8
LAYER0
 62
         3
100
AcDbLine
 10
-28.3700358079
 20
-2.767649291
 30
0.0
 11
-28.3527419045
 21
-2.7094433019
 31
0.0
  0
LINE
  5
3C8
100
AcDbEntity
  8
LAYER0
 62
         3
100
AcDbLine
 10
-28.3527419045
 20
-2.7094433019
 30
0.0
 11
-28.3368299892
 21
-2.6465984213
 31
0.0
  0
LINE
  5
3C9
100
AcDbEntity
  8
LAYER0
 62
         3
100
AcDbLine
 10
-28.3368299892
 20
-2.6465984213
 30
0.0
 11
-28.3101303022
 21
-2.5110357447
 31
0.0
  0
LINE
  5
3CA
100
AcDbEntity
  8
LAYER0
 62
         3
100
AcDbLine
 10
-28.3101303022
 20
-2.5110357447
 30
0.0
 11
-28.2911253339
 21
-2.3624556291
 31
0.0
  0
LINE
  5
3CB
100
AcDbEntity
  8
LAYER0
 62
         3
100
AcDbLine
 10
-28.2911253339
 20
-2.3624556291
 30
0.0
 11
-28.2807244868
 21
-2.2046040145
 31
0.0
  0
LINE
  5
3CC
100
AcDbEntity
  8
LAYER0
 62
         3
100
AcDbLine
 10
-28.2807244868
 20
-2.2046040145
 30
0.0
 11
-28.2752136877
 21
-2.0420806634
 31
0.0
  0
ENDBLK
  5
3CD
100
AcDbEntity
  8
0
100
AcDbBlockEnd
  0
BLOCK
  5
3D1
100
AcDbEntity
  8
0
100
AcDbBlockBegin
  2
CLUMP74
 70
         0
 10
0.0
 20
0.0
 30
0.0
  3

  1

  0
INSERT
  5
3D3
100
AcDbEntity
  8
0
100
AcDbBlockReference
  2
CLUMP75
 10
0.0
 20
0.0
 30
0.0
  0
ENDBLK
  5
3E5
100
AcDbEntity
  8
0
100
AcDbBlockEnd
  0
BLOCK
  5
3D4
100
AcDbEntity
  8
0
100
AcDbBlockBegin
  2
CLUMP75
 70
         0
 10
0.0
 20
0.0
 30
0.0
  3

  1

  0
LINE
  5
3D5
100
AcDbEntity
  8
LAYER0
 62
         3
100
AcDbLine
 10
-31.2330192132
 20
-3.0420808273
 30
0.0
 11
-31.2355333185
 21
-3.0420491624
 31
0.0
  0
LINE
  5
3D6
100
AcDbEntity
  8
LAYER0
 62
         3
100
AcDbLine
 10
-31.2355333185
 20
-3.0420491624
 30
0.0
 11
-31.2757442846
 21
-3.0328902831
 31
0.0
  0
LINE
  5
3D7
100
AcDbEntity
  8
LAYER0
 62
         3
100
AcDbLine
 10
-31.2757442846
 20
-3.0328902831
 30
0.0
 11
-31.3151781624
 21
-3.0072847533
 31
0.0
  0
LINE
  5
3D8
100
AcDbEntity
  8
LAYER0
 62
         3
100
AcDbLine
 10
-31.3151781624
 20
-3.0072847533
 30
0.0
 11
-31.33979098
 21
-2.9823052567
 31
0.0
  0
LINE
  5
3D9
100
AcDbEntity
  8
LAYER0
 62
         3
100
AcDbLine
 10
-31.33979098
 20
-2.9823052567
 30
0.0
 11
-31.3636537224
 21
-2.9508071548
 31
0.0
  0
LINE
  5
3DA
100
AcDbEntity
  8
LAYER0
 62
         3
100
AcDbLine
 10
-31.3636537224
 20
-2.9508071548
 30
0.0
 11
-31.3865979543
 21
-2.9129510811
 31
0.0
  0
LINE
  5
3DB
100
AcDbEntity
  8
LAYER0
 62
         3
100
AcDbLine
 10
-31.3865979543
 20
-2.9129510811
 30
0.0
 11
-31.4084552406
 21
-2.8688976693
 31
0.0
  0
LINE
  5
3DC
100
AcDbEntity
  8
LAYER0
 62
         3
100
AcDbLine
 10
-31.4084552406
 20
-2.8688976693
 30
0.0
 11
-31.4282901877
 21
-2.8209046621
 31
0.0
  0
LINE
  5
3DD
100
AcDbEntity
  8
LAYER0
 62
         3
100
AcDbLine
 10
-31.4282901877
 20
-2.8209046621
 30
0.0
 11
-31.446891684
 21
-2.7676492958
 31
0.0
  0
LINE
  5
3DE
100
AcDbEntity
  8
LAYER0
 62
         3
100
AcDbLine
 10
-31.446891684
 20
-2.7676492958
 30
0.0
 11
-31.4641854559
 21
-2.7094433043
 31
0.0
  0
LINE
  5
3DF
100
AcDbEntity
  8
LAYER0
 62
         3
100
AcDbLine
 10
-31.4641854559
 20
-2.7094433043
 30
0.0
 11
-31.4800972296
 21
-2.6465984213
 31
0.0
  0
LINE
  5
3E0
100
AcDbEntity
  8
LAYER0
 62
         3
100
AcDbLine
 10
-31.4800972296
 20
-2.6465984213
 30
0.0
 11
-31.5067968758
 21
-2.511035745
 31
0.0
  0
LINE
  5
3E1
100
AcDbEntity
  8
LAYER0
 62
         3
100
AcDbLine
 10
-31.5067968758
 20
-2.511035745
 30
0.0
 11
-31.525801885
 21
-2.3624556291
 31
0.0
  0
LINE
  5
3E2
100
AcDbEntity
  8
LAYER0
 62
         3
100
AcDbLine
 10
-31.525801885
 20
-2.3624556291
 30
0.0
 11
-31.5362025707
 21
-2.204604017
 31
0.0
  0
LINE
  5
3E3
100
AcDbEntity
  8
LAYER0
 62
         3
100
AcDbLine
 10
-31.5362025707
 20
-2.204604017
 30
0.0
 11
-31.5417130655
 21
-2.0420806634
 31
0.0
  0
ENDBLK
  5
3E4
100
AcDbEntity
  8
0
100
AcDbBlockEnd
  0
ENDSEC
  0
SECTION
  2
ENTITIES
  0
MTEXT
  5
2F
100
AcDbEntity
  8
LAYER3
100
AcDbMText
 10
27.6093533486
 20
48.3430859431
 30
0.0
 40
2.1473683357
 41
2.5646459961
 71
         1
 72
         1
  1
\W0.8;20
  0
LINE
  5
30
100
AcDbEntity
  8
LAYER3
 62
         4
100
AcDbLine
 10
40.0093531251
 20
44.5554272517
 30
0.0
 11
37.0749103229
 21
43.9316921793
 31
0.0
  0
LINE
  5
31
100
AcDbEntity
  8
LAYER3
 62
         4
100
AcDbLine
 10
40.0093531251
 20
44.5554272517
 30
0.0
 11
37.0749103229
 21
45.1791623242
 31
0.0
  0
LINE
  5
32
100
AcDbEntity
  8
LAYER3
 62
         4
100
AcDbLine
 10
20.0093535722
 20
44.5554272517
 30
0.0
 11
22.9437963744
 21
45.1791623242
 31
0.0
  0
LINE
  5
33
100
AcDbEntity
  8
LAYER3
 62
         4
100
AcDbLine
 10
20.0093535722
 20
44.5554272517
 30
0.0
 11
22.9437963744
 21
43.9316921793
 31
0.0
  0
LINE
  5
34
100
AcDbEntity
  8
LAYER3
 62
         4
100
AcDbLine
 10
20.0093535722
 20
44.5554272517
 30
0.0
 11
40.0093531251
 21
44.5554272517
 31
0.0
  0
LINE
  5
35
100
AcDbEntity
  8
LAYER3
 62
         4
100
AcDbLine
 10
40.0093531251
 20
21.2843440545
 30
0.0
 11
40.0093531251
 21
45.5554272517
 31
0.0
  0
LINE
  5
37
100
AcDbEntity
  8
LAYER0
 62
         3
100
AcDbLine
 10
38.903130965
 20
21.5965961886
 30
0.0
 11
39.5093530432
 21
21.2465939891
 31
0.0
  0
LINE
  5
38
100
AcDbEntity
  8
LAYER0
 62
         3
100
AcDbLine
 10
38.2286764697
 20
21.9859933329
 30
0.0
 11
38.903130965
 21
21.5965961886
 31
0.0
  0
LINE
  5
39
100
AcDbEntity
  8
LAYER0
 62
         3
100
AcDbLine
 10
37.4914731846
 20
22.4116189253
 30
0.0
 11
38.2286764697
 21
21.9859933329
 31
0.0
  0
LINE
  5
3A
100
AcDbEntity
  8
LAYER0
 62
         3
100
AcDbLine
 10
38.2940497265
 20
21.1921451461
 30
0.0
 11
37.6262113467
 21
21.5455932391
 31
0.0
  0
LINE
  5
3B
100
AcDbEntity
  8
LAYER0
 62
         3
100
AcDbLine
 10
38.9160996318
 20
20.8629337919
 30
0.0
 11
38.2940497265
 21
21.1921451461
 31
0.0
  0
LINE
  5
3C
100
AcDbEntity
  8
LAYER0
 62
         3
100
AcDbLine
 10
39.4889226199
 20
20.5597733927
 30
0.0
 11
38.9160996318
 21
20.8629337919
 31
0.0
  0
LINE
  5
3D
100
AcDbEntity
  8
LAYER0
 62
         3
100
AcDbLine
 10
40.0093531251
 20
20.2843440545
 30
0.0
 11
39.4889226199
 21
20.5597733927
 31
0.0
  0
LINE
  5
3E
100
AcDbEntity
  8
LAYER0
 62
         3
100
AcDbLine
 10
37.4914731846
 20
22.4116189253
 30
0.0
 11
37.4818661266
 21
22.3949780536
 31
0.0
  0
CIRCLE
  5
3F
100
AcDbEntity
  8
LAYER0
 62
         3
100
AcDbCircle
 10
30.0093533487
 20
20.9579188147
 30
0.0
 40
6.6
210
0.0
220
0.0
230
1.0
  0
INSERT
  5
41
100
AcDbEntity
  8
0
100
AcDbBlockReference
  2
CLUMP0
 10
0.0
 20
0.0
 30
0.0
  0
INSERT
  5
4B
100
AcDbEntity
  8
0
100
AcDbBlockReference
  2
CLUMP2
 10
0.0
 20
0.0
 30
0.0
  0
INSERT
  5
5A
100
AcDbEntity
  8
0
100
AcDbBlockReference
  2
CLUMP4
 10
0.0
 20
0.0
 30
0.0
  0
INSERT
  5
64
100
AcDbEntity
  8
0
100
AcDbBlockReference
  2
CLUMP6
 10
0.0
 20
0.0
 30
0.0
  0
INSERT
  5
70
100
AcDbEntity
  8
0
100
AcDbBlockReference
  2
CLUMP8
 10
0.0
 20
0.0
 30
0.0
  0
INSERT
  5
7F
100
AcDbEntity
  8
0
100
AcDbBlockReference
  2
CLUMP10
 10
0.0
 20
0.0
 30
0.0
  0
INSERT
  5
8C
100
AcDbEntity
  8
0
100
AcDbBlockReference
  2
CLUMP12
 10
0.0
 20
0.0
 30
0.0
  0
INSERT
  5
9B
100
AcDbEntity
  8
0
100
AcDbBlockReference
  2
CLUMP14
 10
0.0
 20
0.0
 30
0.0
  0
INSERT
  5
A8
100
AcDbEntity
  8
0
100
AcDbBlockReference
  2
CLUMP16
 10
0.0
 20
0.0
 30
0.0
  0
INSERT
  5
BC
100
AcDbEntity
  8
0
100
AcDbBlockReference
  2
CLUMP18
 10
0.0
 20
0.0
 30
0.0
  0
INSERT
  5
D0
100
AcDbEntity
  8
0
100
AcDbBlockReference
  2
CLUMP20
 10
0.0
 20
0.0
 30
0.0
  0
INSERT
  5
DF
100
AcDbEntity
  8
0
100
AcDbBlockReference
  2
CLUMP22
 10
0.0
 20
0.0
 30
0.0
  0
INSERT
  5
EB
100
AcDbEntity
  8
0
100
AcDbBlockReference
  2
CLUMP24
 10
0.0
 20
0.0
 30
0.0
  0
INSERT
  5
F5
100
AcDbEntity
  8
0
100
AcDbBlockReference
  2
CLUMP26
 10
0.0
 20
0.0
 30
0.0
  0
LINE
  5
FE
100
AcDbEntity
  8
LAYER3
 62
         4
100
AcDbLine
 10
20.0093535722
 20
21.2843440545
 30
0.0
 11
20.0093535722
 21
45.5554272517
 31
0.0
  0
LINE
  5
FF
100
AcDbEntity
  8
LAYER3
 62
         4
100
AcDbLine
 10
29.0093533487
 20
14.3579188147
 30
0.0
 11
5.0787236268
 21
14.3579188147
 31
0.0
  0
LINE
  5
100
100
AcDbEntity
  8
LAYER0
 62
         3
100
AcDbLine
 10
21.8245282785
 20
19.4579182041
 30
0.0
 11
22.3924953506
 21
19.4579182041
 31
0.0
  0
LINE
  5
101
100
AcDbEntity
  8
LAYER0
 62
         3
100
AcDbLine
 10
22.3924953506
 20
19.4579182041
 30
0.0
 11
22.3924953506
 21
21.5455932391
 31
0.0
  0
LINE
  5
102
100
AcDbEntity
  8
LAYER0
 62
         3
100
AcDbLine
 10
37.6031438835
 20
18.523432858
 30
0.0
 11
37.2414731436
 21
18.4601662529
 31
0.0
  0
LINE
  5
103
100
AcDbEntity
  8
LAYER0
 62
         3
100
AcDbLine
 10
20.0093535722
 20
20.2843440545
 30
0.0
 11
20.0093535722
 21
20.3805683029
 31
0.0
  0
LINE
  5
104
100
AcDbEntity
  8
LAYER0
 62
         3
100
AcDbLine
 10
36.2403051012
 20
23.1339787912
 30
0.0
 11
37.4914731846
 21
22.4116189253
 31
0.0
  0
CIRCLE
  5
105
100
AcDbEntity
  8
LAYER0
 62
         3
100
AcDbCircle
 10
30.0093533487
 20
20.9579188147
 30
0.0
 40
3.9
210
0.0
220
0.0
230
1.0
  0
LINE
  5
106
100
AcDbEntity
  8
LAYER0
 62
         3
100
AcDbLine
 10
40.0093531251
 20
20.3805683029
 30
0.0
 11
40.0093531251
 21
20.2843440545
 31
0.0
  0
LINE
  5
107
100
AcDbEntity
  8
LAYER0
 62
         3
100
AcDbLine
 10
37.6262113467
 20
21.5455932391
 30
0.0
 11
37.6262113467
 21
19.4579182041
 31
0.0
  0
LINE
  5
108
100
AcDbEntity
  8
LAYER0
 62
         3
100
AcDbLine
 10
22.7772335537
 20
18.4601662529
 30
0.0
 11
22.4155628138
 21
18.523432858
 31
0.0
  0
LINE
  5
109
100
AcDbEntity
  8
LAYER0
 62
         3
100
AcDbLine
 10
23.7196793795
 20
18.9579171908
 30
0.0
 11
23.1433280759
 21
18.9579171908
 31
0.0
  0
LINE
  5
10A
100
AcDbEntity
  8
LAYER0
 62
         3
100
AcDbLine
 10
22.5272335127
 20
22.4116189253
 30
0.0
 11
23.7784015961
 21
23.1339787912
 31
0.0
  0
CIRCLE
  5
10B
100
AcDbEntity
  8
LAYER0
 62
         3
100
AcDbCircle
 10
30.0093533487
 20
20.9579188147
 30
0.0
 40
4.2
210
0.0
220
0.0
230
1.0
  0
LINE
  5
10C
100
AcDbEntity
  8
LAYER0
 62
         3
100
AcDbLine
 10
22.740769481
 20
18.9906736684
 30
0.0
 11
23.027233129
 21
18.9590422285
 31
0.0
  0
LINE
  5
10D
100
AcDbEntity
  8
LAYER0
 62
         3
100
AcDbLine
 10
22.3924953506
 20
19.4579182041
 30
0.0
 11
23.027233129
 21
19.4579182041
 31
0.0
  0
LINE
  5
10E
100
AcDbEntity
  8
LAYER0
 62
         3
100
AcDbLine
 10
23.4629263185
 20
21.7971397412
 30
0.0
 11
23.027233129
 21
21.5455932391
 31
0.0
  0
LINE
  5
10F
100
AcDbEntity
  8
LAYER0
 62
         3
100
AcDbLine
 10
23.027233129
 20
21.5455932391
 30
0.0
 11
23.027233129
 21
19.4579182041
 31
0.0
  0
LINE
  5
110
100
AcDbEntity
  8
LAYER0
 62
         3
100
AcDbLine
 10
21.7900302276
 20
21.9859933329
 30
0.0
 11
22.5272335127
 21
22.4116189253
 31
0.0
  0
LINE
  5
111
100
AcDbEntity
  8
LAYER0
 62
         3
100
AcDbLine
 10
21.1155757323
 20
21.5965961886
 30
0.0
 11
21.7900302276
 21
21.9859933329
 31
0.0
  0
LINE
  5
112
100
AcDbEntity
  8
LAYER0
 62
         3
100
AcDbLine
 10
20.5093536541
 20
21.2465939891
 30
0.0
 11
21.1155757323
 21
21.5965961886
 31
0.0
  0
LINE
  5
113
100
AcDbEntity
  8
LAYER0
 62
         3
100
AcDbLine
 10
22.5368405708
 20
22.3949780536
 30
0.0
 11
22.5272335127
 21
22.4116189253
 31
0.0
  0
LINE
  5
114
100
AcDbEntity
  8
LAYER0
 62
         3
100
AcDbLine
 10
23.0945551783
 20
18.9483096671
 30
0.0
 11
23.1433280759
 21
18.9579171908
 31
0.0
  0
LINE
  5
115
100
AcDbEntity
  8
LAYER0
 62
         3
100
AcDbLine
 10
20.5297840775
 20
20.5597733927
 30
0.0
 11
20.0093535722
 21
20.2843440545
 31
0.0
  0
LINE
  5
116
100
AcDbEntity
  8
LAYER0
 62
         3
100
AcDbLine
 10
21.1026070655
 20
20.8629337919
 30
0.0
 11
20.5297840775
 21
20.5597733927
 31
0.0
  0
LINE
  5
117
100
AcDbEntity
  8
LAYER0
 62
         3
100
AcDbLine
 10
21.7246569708
 20
21.1921451461
 30
0.0
 11
21.1026070655
 21
20.8629337919
 31
0.0
  0
LINE
  5
118
100
AcDbEntity
  8
LAYER0
 62
         3
100
AcDbLine
 10
22.3924953506
 20
21.5455932391
 30
0.0
 11
21.7246569708
 21
21.1921451461
 31
0.0
  0
LINE
  5
119
100
AcDbEntity
  8
LAYER0
 62
         3
100
AcDbLine
 10
24.6483156259
 20
1.6101597497
 30
0.0
 11
25.0704001242
 21
1.4963482539
 31
0.0
  0
LINE
  5
11A
100
AcDbEntity
  8
LAYER0
 62
         3
100
AcDbLine
 10
24.2593203244
 20
1.7949795901
 30
0.0
 11
24.6483156259
 21
1.6101597497
 31
0.0
  0
LINE
  5
11B
100
AcDbEntity
  8
LAYER0
 62
         3
100
AcDbLine
 10
23.918363091
 20
2.0437052523
 30
0.0
 11
24.2593203244
 21
1.7949795901
 31
0.0
  0
INSERT
  5
11D
100
AcDbEntity
  8
0
100
AcDbBlockReference
  2
CLUMP28
 10
0.0
 20
0.0
 30
0.0
  0
INSERT
  5
136
100
AcDbEntity
  8
0
100
AcDbBlockReference
  2
CLUMP30
 10
0.0
 20
0.0
 30
0.0
  0
INSERT
  5
150
100
AcDbEntity
  8
0
100
AcDbBlockReference
  2
CLUMP32
 10
0.0
 20
0.0
 30
0.0
  0
INSERT
  5
16A
100
AcDbEntity
  8
0
100
AcDbBlockReference
  2
CLUMP34
 10
0.0
 20
0.0
 30
0.0
  0
INSERT
  5
182
100
AcDbEntity
  8
0
100
AcDbBlockReference
  2
CLUMP36
 10
0.0
 20
0.0
 30
0.0
  0
INSERT
  5
19A
100
AcDbEntity
  8
0
100
AcDbBlockReference
  2
CLUMP38
 10
0.0
 20
0.0
 30
0.0
  0
MTEXT
  5
1B3
100
AcDbEntity
  8
LAYER3
100
AcDbMText
 10
2.2910649354
 20
-8.14208126
 30
0.0
 40
2.1473683357
 41
5.1292919922
 71
         1
 72
         1
  1
\W0.8;35.5
 11
-0.0000000268
 21
1.0
 31
0.0
  0
LINE
  5
1B4
100
AcDbEntity
  8
LAYER3
 62
         4
100
AcDbLine
 10
6.0787236268
 20
-21.0420811853
 30
0.0
 11
5.4549885544
 21
-18.1076383831
 31
0.0
  0
LINE
  5
1B5
100
AcDbEntity
  8
LAYER3
 62
         4
100
AcDbLine
 10
6.0787236268
 20
-21.0420811853
 30
0.0
 11
6.7024586993
 21
-18.1076383831
 31
0.0
  0
LINE
  5
1B6
100
AcDbEntity
  8
LAYER3
 62
         4
100
AcDbLine
 10
29.0093533486
 20
-21.0420811853
 30
0.0
 11
5.0787236268
 21
-21.0420811853
 31
0.0
  0
LINE
  5
1B7
100
AcDbEntity
  8
LAYER0
 62
         3
100
AcDbLine
 10
37.6262113467
 20
19.4579182041
 30
0.0
 11
38.1941784189
 21
19.4579182041
 31
0.0
  0
LINE
  5
1B8
100
AcDbEntity
  8
LAYER0
 62
         3
100
AcDbLine
 10
36.9914735683
 20
18.9590422285
 30
0.0
 11
37.2779372164
 21
18.9906736684
 31
0.0
  0
LINE
  5
1B9
100
AcDbEntity
  8
LAYER0
 62
         3
100
AcDbLine
 10
36.9914735683
 20
19.4579182041
 30
0.0
 11
37.6262113467
 21
19.4579182041
 31
0.0
  0
LINE
  5
1BA
100
AcDbEntity
  8
LAYER0
 62
         3
100
AcDbLine
 10
36.9914735683
 20
21.5455932391
 30
0.0
 11
37.6262113467
 21
21.5455932391
 31
0.0
  0
LINE
  5
1BB
100
AcDbEntity
  8
LAYER0
 62
         3
100
AcDbLine
 10
36.4366390758
 20
19.4579182041
 30
0.0
 11
36.9914735683
 21
19.4579182041
 31
0.0
  0
LINE
  5
1BC
100
AcDbEntity
  8
LAYER0
 62
         3
100
AcDbLine
 10
36.9914735683
 20
19.4579182041
 30
0.0
 11
36.9914735683
 21
21.5455932391
 31
0.0
  0
LINE
  5
1BD
100
AcDbEntity
  8
LAYER0
 62
         3
100
AcDbLine
 10
36.9914735683
 20
21.5455932391
 30
0.0
 11
36.5557803788
 21
21.7971397412
 31
0.0
  0
LINE
  5
1BE
100
AcDbEntity
  8
LAYER0
 62
         3
100
AcDbLine
 10
37.1253786624
 20
18.4579199028
 30
0.0
 11
36.1175446786
 21
18.4579199028
 31
0.0
  0
LINE
  5
1BF
100
AcDbEntity
  8
LAYER0
 62
         3
100
AcDbLine
 10
36.8753786214
 20
18.9579171908
 30
0.0
 11
36.2990273178
 21
18.9579171908
 31
0.0
  0
LINE
  5
1C0
100
AcDbEntity
  8
LAYER0
 62
         3
100
AcDbLine
 10
23.027233129
 20
19.4579182041
 30
0.0
 11
23.5820676215
 21
19.4579182041
 31
0.0
  0
LINE
  5
1C1
100
AcDbEntity
  8
LAYER0
 62
         3
100
AcDbLine
 10
22.3924953506
 20
21.5455932391
 30
0.0
 11
23.027233129
 21
21.5455932391
 31
0.0
  0
LINE
  5
1C2
100
AcDbEntity
  8
LAYER0
 62
         3
100
AcDbLine
 10
23.9011620187
 20
18.4579199028
 30
0.0
 11
22.8933280349
 21
18.4579199028
 31
0.0
  0
LINE
  5
1C3
100
AcDbEntity
  8
LAYER0
 62
         3
100
AcDbLine
 10
27.0093533226
 20
2.9579182935
 30
0.0
 11
27.0093533226
 21
4.9579186213
 31
0.0
  0
LINE
  5
1C4
100
AcDbEntity
  8
LAYER0
 62
         3
100
AcDbLine
 10
39.0093529612
 20
-3.0420808273
 30
0.0
 11
21.0093537361
 21
-3.0420808273
 31
0.0
  0
LINE
  5
1C5
100
AcDbEntity
  8
LAYER0
 62
         3
100
AcDbLine
 10
24.3712908604
 20
1.4579189789
 30
0.0
 11
35.6474158369
 21
1.4579189789
 31
0.0
  0
LINE
  5
1C6
100
AcDbEntity
  8
LAYER0
 62
         3
100
AcDbLine
 10
24.2093534224
 20
2.9579182935
 30
0.0
 11
35.8093532749
 21
2.9579182935
 31
0.0
  0
LINE
  5
1C7
100
AcDbEntity
  8
LAYER0
 62
         3
100
AcDbLine
 10
23.5093532145
 20
4.457917608
 30
0.0
 11
23.5093532145
 21
3.4579193068
 31
0.0
  0
ARC
  5
1C8
100
AcDbEntity
  8
LAYER0
 62
         3
100
AcDbCircle
 10
30.0093533487
 20
4.4579188147
 30
0.0
 40
6.5
210
0.0
220
0.0
230
1.0
100
AcDbArc
 50
126.7624252667
 51
179.9999969295
  0
ARC
  5
1C9
100
AcDbEntity
  8
LAYER0
 62
         3
100
AcDbCircle
 10
25.5093533487
 20
3.4579188147
 30
0.0
 40
2.0
210
0.0
220
0.0
230
1.0
100
AcDbArc
 50
179.9999969295
 51
269.9999984648
  0
LINE
  5
1CA
100
AcDbEntity
  8
LAYER0
 62
         3
100
AcDbLine
 10
35.8925487862
 20
0.9579179657
 30
0.0
 11
24.1261579112
 21
0.9579179657
 31
0.0
  0
LINE
  5
1CB
100
AcDbEntity
  8
LAYER0
 62
         3
100
AcDbLine
 10
23.2593531736
 20
3.4579193068
 30
0.0
 11
23.2593531736
 21
4.457917608
 31
0.0
  0
LINE
  5
1CC
100
AcDbEntity
  8
LAYER0
 62
         3
100
AcDbLine
 10
24.2093534224
 20
2.9579182935
 30
0.0
 11
24.2093534224
 21
1.9380511564
 31
0.0
  0
LINE
  5
1CD
100
AcDbEntity
  8
LAYER0
 62
         3
100
AcDbLine
 10
23.638546721
 20
2.3467783486
 30
0.0
 11
23.918363091
 21
2.0437052523
 31
0.0
  0
LINE
  5
1CE
100
AcDbEntity
  8
LAYER0
 62
         3
100
AcDbLine
 10
23.4306244005
 20
2.69255195
 30
0.0
 11
23.638546721
 21
2.3467783486
 31
0.0
  0
LINE
  5
1CF
100
AcDbEntity
  8
LAYER0
 62
         3
100
AcDbLine
 10
23.3025864678
 20
3.0677381707
 30
0.0
 11
23.4306244005
 21
2.69255195
 31
0.0
  0
LINE
  5
1D0
100
AcDbEntity
  8
LAYER0
 62
         3
100
AcDbLine
 10
23.2593533487
 20
3.4579188147
 30
0.0
 11
23.3025864678
 21
3.0677381707
 31
0.0
  0
LINE
  5
1D1
100
AcDbEntity
  8
LAYER0
 62
         3
100
AcDbLine
 10
24.3712908604
 20
1.4579189789
 30
0.0
 11
24.3234679118
 21
1.4483114553
 31
0.0
  0
LINE
  5
1D2
100
AcDbEntity
  8
LAYER0
 62
         3
100
AcDbLine
 10
35.6474158369
 20
1.4579189789
 30
0.0
 11
35.6952387855
 21
1.4483114553
 31
0.0
  0
LINE
  5
1D3
100
AcDbEntity
  8
LAYER0
 62
         3
100
AcDbLine
 10
36.7161202296
 20
3.0677381707
 30
0.0
 11
36.7593533487
 21
3.4579188147
 31
0.0
  0
LINE
  5
1D4
100
AcDbEntity
  8
LAYER0
 62
         3
100
AcDbLine
 10
36.5880822969
 20
2.69255195
 30
0.0
 11
36.7161202296
 21
3.0677381707
 31
0.0
  0
LINE
  5
1D5
100
AcDbEntity
  8
LAYER0
 62
         3
100
AcDbLine
 10
36.3801599764
 20
2.3467783486
 30
0.0
 11
36.5880822969
 21
2.69255195
 31
0.0
  0
LINE
  5
1D6
100
AcDbEntity
  8
LAYER0
 62
         3
100
AcDbLine
 10
36.1003436064
 20
2.0437052523
 30
0.0
 11
36.3801599764
 21
2.3467783486
 31
0.0
  0
LINE
  5
1D7
100
AcDbEntity
  8
LAYER0
 62
         3
100
AcDbLine
 10
35.759386373
 20
1.7949795901
 30
0.0
 11
36.1003436064
 21
2.0437052523
 31
0.0
  0
LINE
  5
1D8
100
AcDbEntity
  8
LAYER0
 62
         3
100
AcDbLine
 10
35.3703910715
 20
1.6101597497
 30
0.0
 11
35.759386373
 21
1.7949795901
 31
0.0
  0
LINE
  5
1D9
100
AcDbEntity
  8
LAYER0
 62
         3
100
AcDbLine
 10
34.9483065732
 20
1.4963482539
 30
0.0
 11
35.3703910715
 21
1.6101597497
 31
0.0
  0
LINE
  5
1DA
100
AcDbEntity
  8
LAYER0
 62
         3
100
AcDbLine
 10
34.5093533487
 20
1.4579188147
 30
0.0
 11
34.9483065732
 21
1.4963482539
 31
0.0
  0
LINE
  5
1DB
100
AcDbEntity
  8
LAYER0
 62
         3
100
AcDbLine
 10
25.0704001242
 20
1.4963482539
 30
0.0
 11
25.5093533487
 21
1.4579188147
 31
0.0
  0
MTEXT
  5
1DC
100
AcDbEntity
  8
LAYER3
100
AcDbMText
 10
-34.7084640751
 20
48.8543529823
 30
0.0
 40
2.1473683357
 41
5.1292919922
 71
         1
 72
         1
  1
\W0.8;19.4
  0
LINE
  5
1DD
100
AcDbEntity
  8
LAYER3
 62
         4
100
AcDbLine
 10
-39.6084636627
 20
45.0666942909
 30
0.0
 11
-36.6740208605
 21
45.6904293634
 31
0.0
  0
LINE
  5
1DE
100
AcDbEntity
  8
LAYER3
 62
         4
100
AcDbLine
 10
-39.6084636627
 20
45.0666942909
 30
0.0
 11
-36.6740208605
 21
44.4429592185
 31
0.0
  0
LINE
  5
1DF
100
AcDbEntity
  8
LAYER3
 62
         4
100
AcDbLine
 10
-20.2084644875
 20
45.0666942909
 30
0.0
 11
-23.1429072897
 21
44.4429592185
 31
0.0
  0
LINE
  5
1E0
100
AcDbEntity
  8
LAYER3
 62
         4
100
AcDbLine
 10
-20.2084644875
 20
45.0666942909
 30
0.0
 11
-23.1429072897
 21
45.6904293634
 31
0.0
  0
LINE
  5
1E1
100
AcDbEntity
  8
LAYER3
 62
         4
100
AcDbLine
 10
-20.2084644875
 20
45.0666942909
 30
0.0
 11
-39.6084636627
 21
45.0666942909
 31
0.0
  0
LINE
  5
1E2
100
AcDbEntity
  8
LAYER3
 62
         4
100
AcDbLine
 10
-39.6084636627
 20
28.5579174829
 30
0.0
 11
-39.6084636627
 21
46.0666942909
 31
0.0
  0
LINE
  5
1E3
100
AcDbEntity
  8
LAYER3
 62
         4
100
AcDbLine
 10
-20.2084644875
 20
28.5579174829
 30
0.0
 11
-20.2084644875
 21
46.0666942909
 31
0.0
  0
LINE
  5
1E4
100
AcDbEntity
  8
LAYER0
 62
         3
100
AcDbLine
 10
33.0093533747
 20
-3.866347872
 30
0.0
 11
33.0093533747
 21
-3.0420808273
 31
0.0
  0
LINE
  5
1E5
100
AcDbEntity
  8
LAYER0
 62
         3
100
AcDbLine
 10
27.0093533225
 20
-3.866347872
 30
0.0
 11
27.0093533225
 21
-3.0420808273
 31
0.0
  0
LINE
  5
1E6
100
AcDbEntity
  8
LAYER0
 62
         3
100
AcDbLine
 10
33.0093533747
 20
-12.5420814532
 30
0.0
 11
33.0093533747
 21
-3.866347872
 31
0.0
  0
LINE
  5
1E7
100
AcDbEntity
  8
LAYER0
 62
         3
100
AcDbLine
 10
27.0093533225
 20
-12.5420814532
 30
0.0
 11
27.0093533225
 21
-3.866347872
 31
0.0
  0
ARC
  5
1E8
100
AcDbEntity
  8
LAYER0
 62
         3
100
AcDbCircle
 10
30.0093533486
 20
-15.5420811853
 30
0.0
 40
5.5
210
0.0
220
-0.0
230
1.0
100
AcDbArc
 50
123.05573325
 51
0.0
  0
ARC
  5
1E9
100
AcDbEntity
  8
LAYER0
 62
         3
100
AcDbCircle
 10
30.0093533486
 20
-15.5420811853
 30
0.0
 40
5.5
210
0.0
220
0.0
230
1.0
100
AcDbArc
 50
0.0
 51
56.9442698205
  0
ARC
  5
1EA
100
AcDbEntity
  8
LAYER0
 62
         3
100
AcDbCircle
 10
30.0093533486
 20
-15.5420811853
 30
0.0
 40
8.5
210
0.0
220
-0.0
230
1.0
100
AcDbArc
 50
110.6673183813
 51
0.0
  0
ARC
  5
1EB
100
AcDbEntity
  8
LAYER0
 62
         3
100
AcDbCircle
 10
30.0093533486
 20
-15.5420811853
 30
0.0
 40
8.5
210
0.0
220
0.0
230
1.0
100
AcDbArc
 50
0.0
 51
69.3326846892
  0
LINE
  5
1EC
100
AcDbEntity
  8
LAYER0
 62
         3
100
AcDbLine
 10
27.0093533225
 20
-12.5420814532
 30
0.0
 11
33.0093533747
 21
-12.5420814532
 31
0.0
  0
ARC
  5
1ED
100
AcDbEntity
  8
LAYER0
 62
         3
100
AcDbCircle
 10
30.0093533487
 20
4.9579188147
 30
0.0
 40
3.0
210
0.0
220
-0.0
230
1.0
100
AcDbArc
 50
0.0
 51
179.9999969295
  0
CIRCLE
  5
1EE
100
AcDbEntity
  8
LAYER0
 62
         3
100
AcDbCircle
 10
30.0093533487
 20
4.9579188147
 30
0.0
 40
2.0
210
0.0
220
0.0
230
1.0
  0
ARC
  5
1EF
100
AcDbEntity
  8
LAYER0
 62
         3
100
AcDbCircle
 10
30.0093533487
 20
4.4579188147
 30
0.0
 40
6.5
210
0.0
220
0.0
230
1.0
100
AcDbArc
 50
0.0
 51
53.2375778037
  0
LINE
  5
1F0
100
AcDbEntity
  8
LAYER0
 62
         3
100
AcDbLine
 10
36.5093534828
 20
3.4579193068
 30
0.0
 11
36.5093534828
 21
4.457917608
 31
0.0
  0
LINE
  5
1F1
100
AcDbEntity
  8
LAYER0
 62
         3
100
AcDbLine
 10
36.7593535237
 20
4.457917608
 30
0.0
 11
36.7593535237
 21
3.4579193068
 31
0.0
  0
LINE
  5
1F2
100
AcDbEntity
  8
LAYER0
 62
         3
100
AcDbLine
 10
35.8093532749
 20
1.9380511564
 30
0.0
 11
35.8093532749
 21
2.9579182935
 31
0.0
  0
ARC
  5
1F3
100
AcDbEntity
  8
LAYER0
 62
         3
100
AcDbCircle
 10
34.5093533487
 20
3.4579188147
 30
0.0
 40
2.0
210
-0.0
220
0.0
230
1.0
100
AcDbArc
 50
269.9999984648
 51
0.0
  0
LINE
  5
1F4
100
AcDbEntity
  8
LAYER0
 62
         3
100
AcDbLine
 10
33.0093533747
 20
2.9579182935
 30
0.0
 11
33.0093533747
 21
4.9579186213
 31
0.0
  0
LINE
  5
1F5
100
AcDbEntity
  8
LAYER0
 62
         3
100
AcDbLine
 10
-27.4278340239
 20
21.7865612386
 30
0.0
 11
-28.5839083571
 21
21.2465939492
 31
0.0
  0
LINE
  5
1F6
100
AcDbEntity
  8
LAYER0
 62
         3
100
AcDbLine
 10
-26.4084636774
 20
22.4116174978
 30
0.0
 11
-27.4278340239
 21
21.7865612386
 31
0.0
  0
LINE
  5
1F7
100
AcDbEntity
  8
LAYER0
 62
         3
100
AcDbLine
 10
-25.8610113701
 20
18.9673347247
 30
0.0
 11
-25.7939552134
 21
18.9906736684
 31
0.0
  0
LINE
  5
1F8
100
AcDbEntity
  8
LAYER0
 62
         3
100
AcDbLine
 10
-25.8958279332
 20
18.9485480857
 30
0.0
 11
-25.8610113701
 21
18.9673347247
 31
0.0
  0
LINE
  5
1F9
100
AcDbEntity
  8
LAYER0
 62
         3
100
AcDbLine
 10
-33.9559158488
 20
18.9673347247
 30
0.0
 11
-34.0229715398
 21
18.9906736684
 31
0.0
  0
LINE
  5
1FA
100
AcDbEntity
  8
LAYER0
 62
         3
100
AcDbLine
 10
-33.9190522386
 20
18.9472740364
 30
0.0
 11
-33.9559158488
 21
18.9673347247
 31
0.0
  0
ARC
  5
1FB
100
AcDbEntity
  8
LAYER0
 62
         3
100
AcDbCircle
 10
-24.4084636774
 20
14.9473936774
 30
0.0
 40
0.5
210
0.0
220
0.0
230
1.0
100
AcDbArc
 50
180.0000030705
 51
268.7811232089
  0
LINE
  5
1FC
100
AcDbEntity
  8
LAYER0
 62
         3
100
AcDbLine
 10
-20.2084644875
 20
14.3579175544
 30
0.0
 11
-24.4190995759
 21
14.4475070608
 31
0.0
  0
ARC
  5
1FD
100
AcDbEntity
  8
LAYER0
 62
         3
100
AcDbCircle
 10
-35.4084636774
 20
14.9473936774
 30
0.0
 40
0.5
210
0.0
220
0.0
230
1.0
100
AcDbArc
 50
271.2188737207
 51
360.0
  0
INSERT
  5
1FF
100
AcDbEntity
  8
0
100
AcDbBlockReference
  2
CLUMP40
 10
0.0
 20
0.0
 30
0.0
  0
INSERT
  5
211
100
AcDbEntity
  8
0
100
AcDbBlockReference
  2
CLUMP42
 10
0.0
 20
0.0
 30
0.0
  0
INSERT
  5
222
100
AcDbEntity
  8
0
100
AcDbBlockReference
  2
CLUMP44
 10
0.0
 20
0.0
 30
0.0
  0
INSERT
  5
231
100
AcDbEntity
  8
0
100
AcDbBlockReference
  2
CLUMP46
 10
0.0
 20
0.0
 30
0.0
  0
INSERT
  5
242
100
AcDbEntity
  8
0
100
AcDbBlockReference
  2
CLUMP48
 10
0.0
 20
0.0
 30
0.0
  0
INSERT
  5
251
100
AcDbEntity
  8
0
100
AcDbBlockReference
  2
CLUMP50
 10
0.0
 20
0.0
 30
0.0
  0
INSERT
  5
268
100
AcDbEntity
  8
0
100
AcDbBlockReference
  2
CLUMP52
 10
0.0
 20
0.0
 30
0.0
  0
INSERT
  5
27F
100
AcDbEntity
  8
0
100
AcDbBlockReference
  2
CLUMP54
 10
0.0
 20
0.0
 30
0.0
  0
INSERT
  5
297
100
AcDbEntity
  8
0
100
AcDbBlockReference
  2
CLUMP56
 10
0.0
 20
0.0
 30
0.0
  0
INSERT
  5
2B0
100
AcDbEntity
  8
0
100
AcDbBlockReference
  2
CLUMP58
 10
0.0
 20
0.0
 30
0.0
  0
INSERT
  5
2CD
100
AcDbEntity
  8
0
100
AcDbBlockReference
  2
CLUMP60
 10
0.0
 20
0.0
 30
0.0
  0
INSERT
  5
2E8
100
AcDbEntity
  8
0
100
AcDbBlockReference
  2
CLUMP62
 10
0.0
 20
0.0
 30
0.0
  0
INSERT
  5
2FB
100
AcDbEntity
  8
0
100
AcDbBlockReference
  2
CLUMP64
 10
0.0
 20
0.0
 30
0.0
  0
INSERT
  5
30E
100
AcDbEntity
  8
0
100
AcDbBlockReference
  2
CLUMP66
 10
0.0
 20
0.0
 30
0.0
  0
LINE
  5
31F
100
AcDbEntity
  8
LAYER3
 62
         4
100
AcDbLine
 10
-4.8283065425
 20
27.5579188147
 30
0.0
 11
-4.2045714701
 21
24.6234760125
 31
0.0
  0
LINE
  5
320
100
AcDbEntity
  8
LAYER3
 62
         4
100
AcDbLine
 10
-4.8283065425
 20
27.5579188147
 30
0.0
 11
-5.452041615
 21
24.6234760125
 31
0.0
  0
ARC
  5
321
100
AcDbEntity
  8
LAYER0
 62
         3
100
AcDbCircle
 10
-34.2056574466
 20
18.7212553955
 30
0.0
 40
0.3952850929
210
0.0
220
0.0
230
1.0
100
AcDbArc
 50
12.5394528956
 51
67.2695906398
  0
ARC
  5
322
100
AcDbEntity
  8
LAYER0
 62
         3
100
AcDbCircle
 10
-33.6077503316
 20
19.4474569451
 30
0.0
 40
0.5735362206
210
0.0
220
0.0
230
1.0
100
AcDbArc
 50
178.9548742444
 51
219.0873308031
  0
LINE
  5
323
100
AcDbEntity
  8
LAYER0
 62
         3
100
AcDbLine
 10
-26.4084632686
 20
25.9579202008
 30
0.0
 11
-26.4084632686
 21
25.2880459499
 31
0.0
  0
LINE
  5
324
100
AcDbEntity
  8
LAYER0
 62
         3
100
AcDbLine
 10
-24.908463954
 20
26.9684424472
 30
0.0
 11
-24.908463954
 21
20.3118627739
 31
0.0
  0
LINE
  5
325
100
AcDbEntity
  8
LAYER0
 62
         3
100
AcDbLine
 10
-34.6084637745
 20
16.9579205883
 30
0.0
 11
-34.6084637745
 21
20.8737855625
 31
0.0
  0
LINE
  5
326
100
AcDbEntity
  8
LAYER0
 62
         3
100
AcDbLine
 10
-25.408464036
 20
24.4220202637
 30
0.0
 11
-25.408464036
 21
24.9579181743
 31
0.0
  0
LINE
  5
327
100
AcDbEntity
  8
LAYER0
 62
         3
100
AcDbLine
 10
-34.4084636486
 20
24.9579181743
 30
0.0
 11
-34.4084636486
 21
24.4220202637
 31
0.0
  0
LINE
  5
328
100
AcDbEntity
  8
LAYER0
 62
         3
100
AcDbLine
 10
-25.408464036
 20
16.457919575
 30
0.0
 11
-25.408464036
 21
18.9124649239
 31
0.0
  0
LINE
  5
329
100
AcDbEntity
  8
LAYER0
 62
         3
100
AcDbLine
 10
-34.4084636486
 20
18.9124649239
 30
0.0
 11
-34.4084636486
 21
16.457919575
 31
0.0
  0
LINE
  5
32A
100
AcDbEntity
  8
LAYER0
 62
         3
100
AcDbLine
 10
-25.408464036
 20
19.4579182041
 30
0.0
 11
-25.408464036
 21
18.9124649239
 31
0.0
  0
LINE
  5
32B
100
AcDbEntity
  8
LAYER0
 62
         3
100
AcDbLine
 10
-34.4084636486
 20
18.9124649239
 30
0.0
 11
-34.4084636486
 21
19.4579182041
 31
0.0
  0
LINE
  5
32C
100
AcDbEntity
  8
LAYER0
 62
         3
100
AcDbLine
 10
-35.3978278758
 20
14.4475070608
 30
0.0
 11
-39.6084636627
 21
14.3579175544
 31
0.0
  0
LINE
  5
32D
100
AcDbEntity
  8
LAYER0
 62
         3
100
AcDbLine
 10
-34.9084637305
 20
14.9473925901
 30
0.0
 11
-34.9084637305
 21
26.9684424472
 31
0.0
  0
LINE
  5
32E
100
AcDbEntity
  8
LAYER0
 62
         3
100
AcDbLine
 10
-39.6084636627
 20
14.3579175544
 30
0.0
 11
-39.6084636627
 21
20.8190983009
 31
0.0
  0
LINE
  5
32F
100
AcDbEntity
  8
LAYER0
 62
         3
100
AcDbLine
 10
-24.908463954
 20
20.3118627739
 30
0.0
 11
-24.908463954
 21
14.9473925901
 31
0.0
  0
LINE
  5
330
100
AcDbEntity
  8
LAYER0
 62
         3
100
AcDbLine
 10
-20.2084644875
 20
27.5579174829
 30
0.0
 11
-20.2084644875
 21
14.3579175544
 31
0.0
  0
ARC
  5
331
100
AcDbEntity
  8
LAYER0
 62
         3
100
AcDbCircle
 10
-24.4084636774
 20
26.968443952
 30
0.0
 40
0.5
210
0.0
220
0.0
230
1.0
100
AcDbArc
 50
91.2188767911
 51
180.0000030705
  0
LINE
  5
332
100
AcDbEntity
  8
LAYER0
 62
         3
100
AcDbLine
 10
-24.4190995759
 20
27.4683317018
 30
0.0
 11
-20.2084644875
 21
27.5579174829
 31
0.0
  0
LINE
  5
333
100
AcDbEntity
  8
LAYER0
 62
         3
100
AcDbLine
 10
-34.6084639104
 20
18.9579171908
 30
0.0
 11
-34.4084633188
 21
18.9579171908
 31
0.0
  0
LINE
  5
334
100
AcDbEntity
  8
LAYER0
 62
         3
100
AcDbLine
 10
-32.9502213285
 20
20.8629344994
 30
0.0
 11
-34.1811909501
 21
21.5455920937
 31
0.0
  0
LINE
  5
335
100
AcDbEntity
  8
LAYER0
 62
         3
100
AcDbLine
 10
-31.5417132581
 20
20.2843435002
 30
0.0
 11
-32.9502213285
 21
20.8629344994
 31
0.0
  0
LINE
  5
336
100
AcDbEntity
  8
LAYER0
 62
         3
100
AcDbLine
 10
-32.3890933309
 20
21.7865612386
 30
0.0
 11
-33.4084636774
 21
22.4116174978
 31
0.0
  0
LINE
  5
337
100
AcDbEntity
  8
LAYER0
 62
         3
100
AcDbLine
 10
-31.2330189977
 20
21.2465939492
 30
0.0
 11
-32.3890933309
 21
21.7865612386
 31
0.0
  0
LINE
  5
338
100
AcDbEntity
  8
LAYER0
 62
         3
100
AcDbLine
 10
-26.8667060263
 20
20.8629344994
 30
0.0
 11
-28.2752140967
 21
20.2843435002
 31
0.0
  0
LINE
  5
339
100
AcDbEntity
  8
LAYER0
 62
         3
100
AcDbLine
 10
-25.6357364047
 20
21.5455920937
 30
0.0
 11
-26.8667060263
 21
20.8629344994
 31
0.0
  0
LINE
  5
33A
100
AcDbEntity
  8
LAYER0
 62
         3
100
AcDbLine
 10
-25.2084634444
 20
18.9579171908
 30
0.0
 11
-25.408464036
 21
18.9579171908
 31
0.0
  0
LINE
  5
33B
100
AcDbEntity
  8
LAYER0
 62
         3
100
AcDbLine
 10
-25.408464036
 20
22.9579178464
 30
0.0
 11
-25.2084634444
 21
22.9579178464
 31
0.0
  0
LINE
  5
33C
100
AcDbEntity
  8
LAYER0
 62
         3
100
AcDbLine
 10
-34.6084637745
 20
22.9579178464
 30
0.0
 11
-34.4084636486
 21
22.9579178464
 31
0.0
  0
LINE
  5
33D
100
AcDbEntity
  8
LAYER0
 62
         3
100
AcDbLine
 10
-34.6084637745
 20
20.8737855625
 30
0.0
 11
-34.6084637745
 21
24.9579181743
 31
0.0
  0
LINE
  5
33E
100
AcDbEntity
  8
LAYER0
 62
         3
100
AcDbLine
 10
-39.6084636627
 20
20.8190983009
 30
0.0
 11
-39.6084636627
 21
27.5579174829
 31
0.0
  0
LINE
  5
33F
100
AcDbEntity
  8
LAYER0
 62
         3
100
AcDbLine
 10
-40.4084637007
 20
22.5579185259
 30
0.0
 11
-40.4084637007
 21
19.3579202366
 31
0.0
  0
ARC
  5
340
100
AcDbEntity
  8
LAYER0
 62
         3
100
AcDbCircle
 10
-26.4084636774
 20
24.9579188147
 30
0.0
 40
1.0
210
-0.0
220
-0.0
230
1.0
100
AcDbArc
 50
360.0
 51
90.0000015352
  0
LINE
  5
341
100
AcDbEntity
  8
LAYER0
 62
         3
100
AcDbLine
 10
-33.4084634846
 20
25.9579202008
 30
0.0
 11
-26.4084632686
 21
25.9579202008
 31
0.0
  0
ARC
  5
342
100
AcDbEntity
  8
LAYER0
 62
         3
100
AcDbCircle
 10
-33.4084636774
 20
24.9579188147
 30
0.0
 40
1.0
210
0.0
220
0.0
230
1.0
100
AcDbArc
 50
90.0000015352
 51
180.0000030705
  0
ARC
  5
343
100
AcDbEntity
  8
LAYER0
 62
         3
100
AcDbCircle
 10
-25.9084636774
 20
16.4579188147
 30
0.0
 40
0.5
210
0.0
220
0.0
230
1.0
100
AcDbArc
 50
269.9999984648
 51
360.0
  0
LINE
  5
344
100
AcDbEntity
  8
LAYER0
 62
         3
100
AcDbLine
 10
-25.9084641179
 20
15.9579185617
 30
0.0
 11
-25.9986515334
 21
15.9579185617
 31
0.0
  0
LINE
  5
345
100
AcDbEntity
  8
LAYER0
 62
         3
100
AcDbLine
 10
-33.8182761511
 20
15.9579185617
 30
0.0
 11
-33.9084635666
 21
15.9579185617
 31
0.0
  0
LINE
  5
346
100
AcDbEntity
  8
LAYER0
 62
         3
100
AcDbLine
 10
-20.2084644875
 20
24.8579202068
 30
0.0
 11
-20.1084627947
 21
24.8579202068
 31
0.0
  0
LINE
  5
347
100
AcDbEntity
  8
LAYER0
 62
         3
100
AcDbLine
 10
-20.1084627947
 20
17.0579185557
 30
0.0
 11
-20.2084644875
 21
17.0579185557
 31
0.0
  0
LINE
  5
348
100
AcDbEntity
  8
LAYER0
 62
         3
100
AcDbLine
 10
-20.1084627947
 20
24.8579202068
 30
0.0
 11
-20.1084627947
 21
17.0579185557
 31
0.0
  0
LINE
  5
349
100
AcDbEntity
  8
LAYER0
 62
         3
100
AcDbLine
 10
-33.4084634846
 20
25.2880459499
 30
0.0
 11
-33.4084634846
 21
25.9579202008
 31
0.0
  0
LINE
  5
34A
100
AcDbEntity
  8
LAYER0
 62
         3
100
AcDbLine
 10
-25.9084641179
 20
18.6851924133
 30
0.0
 11
-25.9084641179
 21
15.9579185617
 31
0.0
  0
LINE
  5
34B
100
AcDbEntity
  8
LAYER0
 62
         3
100
AcDbLine
 10
-33.9084635666
 20
15.9579185617
 30
0.0
 11
-33.9084635666
 21
18.6851924133
 31
0.0
  0
LINE
  5
34C
100
AcDbEntity
  8
LAYER0
 62
         3
100
AcDbLine
 10
-25.9084641179
 20
18.6851924133
 30
0.0
 11
-25.9084641179
 21
18.9579171908
 31
0.0
  0
LINE
  5
34D
100
AcDbEntity
  8
LAYER0
 62
         3
100
AcDbLine
 10
-33.9084635666
 20
18.9579171908
 30
0.0
 11
-33.9084635666
 21
18.6851924133
 31
0.0
  0
LINE
  5
34E
100
AcDbEntity
  8
LAYER0
 62
         3
100
AcDbLine
 10
-34.181191138
 20
19.4579182041
 30
0.0
 11
-34.181191138
 21
21.5455932391
 31
0.0
  0
LINE
  5
34F
100
AcDbEntity
  8
LAYER0
 62
         3
100
AcDbLine
 10
-25.8749504751
 20
18.9590422285
 30
0.0
 11
-25.7939552134
 21
18.9906736684
 31
0.0
  0
LINE
  5
350
100
AcDbEntity
  8
LAYER0
 62
         3
100
AcDbLine
 10
-34.0229715398
 20
18.9906736684
 30
0.0
 11
-33.9419772094
 21
18.9590422285
 31
0.0
  0
ARC
  5
351
100
AcDbEntity
  8
LAYER0
 62
         3
100
AcDbCircle
 10
-26.2091694785
 20
19.4474542305
 30
0.0
 40
0.5735283971
210
-0.0
220
0.0
230
1.0
100
AcDbArc
 50
320.9123806325
 51
1.0454143199
  0
ARC
  5
352
100
AcDbEntity
  8
LAYER0
 62
         3
100
AcDbCircle
 10
-25.6113034501
 20
18.7213043281
 30
0.0
 40
0.395227128
210
0.0
220
0.0
230
1.0
100
AcDbArc
 50
112.7287126187
 51
167.5395183148
  0
ARC
  5
353
100
AcDbEntity
  8
LAYER0
 62
         3
100
AcDbCircle
 10
-33.9084636774
 20
16.4579188147
 30
0.0
 40
0.5
210
0.0
220
0.0
230
1.0
100
AcDbArc
 50
180.0000030705
 51
269.9999984648
  0
LINE
  5
354
100
AcDbEntity
  8
LAYER0
 62
         3
100
AcDbLine
 10
-28.2832072294
 20
20.3805683029
 30
0.0
 11
-28.2752136877
 21
20.2843440545
 31
0.0
  0
LINE
  5
355
100
AcDbEntity
  8
LAYER0
 62
         3
100
AcDbLine
 10
-31.5417130655
 20
20.2843440545
 30
0.0
 11
-31.5337204552
 21
20.3805683029
 31
0.0
  0
LINE
  5
356
100
AcDbEntity
  8
LAYER0
 62
         3
100
AcDbLine
 10
-25.2084634444
 20
24.9579181743
 30
0.0
 11
-25.2084634444
 21
16.9579205883
 31
0.0
  0
LINE
  5
357
100
AcDbEntity
  8
LAYER0
 62
         3
100
AcDbLine
 10
-24.908463954
 20
16.9579205883
 30
0.0
 11
-25.2084634444
 21
16.9579205883
 31
0.0
  0
LINE
  5
358
100
AcDbEntity
  8
LAYER0
 62
         3
100
AcDbLine
 10
-25.2084634444
 20
24.9579181743
 30
0.0
 11
-24.908463954
 21
24.9579181743
 31
0.0
  0
LINE
  5
359
100
AcDbEntity
  8
LAYER0
 62
         3
100
AcDbLine
 10
-34.9084637305
 20
24.9579181743
 30
0.0
 11
-34.6084637745
 21
24.9579181743
 31
0.0
  0
LINE
  5
35A
100
AcDbEntity
  8
LAYER0
 62
         3
100
AcDbLine
 10
-34.6084637745
 20
16.9579205883
 30
0.0
 11
-34.9084637305
 21
16.9579205883
 31
0.0
  0
ARC
  5
35B
100
AcDbEntity
  8
LAYER0
 62
         3
100
AcDbCircle
 10
-35.4084636774
 20
26.968443952
 30
0.0
 40
0.5
210
-0.0
220
0.0
230
1.0
100
AcDbArc
 50
360.0
 51
88.7811262793
  0
LINE
  5
35C
100
AcDbEntity
  8
LAYER0
 62
         3
100
AcDbLine
 10
-39.6084636627
 20
27.5579174829
 30
0.0
 11
-35.3978278758
 21
27.4683317018
 31
0.0
  0
LINE
  5
35D
100
AcDbEntity
  8
LAYER0
 62
         3
100
AcDbLine
 10
-39.6084636627
 20
19.3579202366
 30
0.0
 11
-40.4084637007
 21
19.3579202366
 31
0.0
  0
LINE
  5
35E
100
AcDbEntity
  8
LAYER0
 62
         3
100
AcDbLine
 10
-40.4084637007
 20
22.5579185259
 30
0.0
 11
-39.6084636627
 21
22.5579185259
 31
0.0
  0
LINE
  5
35F
100
AcDbEntity
  8
LAYER0
 62
         3
100
AcDbLine
 10
-25.408464036
 20
21.5455932391
 30
0.0
 11
-25.408464036
 21
24.4220202637
 31
0.0
  0
LINE
  5
360
100
AcDbEntity
  8
LAYER0
 62
         3
100
AcDbLine
 10
-34.4084636486
 20
24.4220202637
 30
0.0
 11
-34.4084636486
 21
21.5455932391
 31
0.0
  0
LINE
  5
361
100
AcDbEntity
  8
LAYER0
 62
         3
100
AcDbLine
 10
-25.408464036
 20
19.4579182041
 30
0.0
 11
-25.408464036
 21
21.5455932391
 31
0.0
  0
ARC
  5
362
100
AcDbEntity
  8
LAYER0
 62
         3
100
AcDbCircle
 10
-25.9084636774
 20
19.4579188147
 30
0.0
 40
0.5
210
0.0
220
0.0
230
1.0
100
AcDbArc
 50
273.8432589952
 51
360.0
  0
LINE
  5
363
100
AcDbEntity
  8
LAYER0
 62
         3
100
AcDbLine
 10
-34.4084636486
 20
21.5455932391
 30
0.0
 11
-34.4084636486
 21
19.4579182041
 31
0.0
  0
LINE
  5
364
100
AcDbEntity
  8
LAYER0
 62
         3
100
AcDbLine
 10
-25.9029311305
 20
18.9440442097
 30
0.0
 11
-25.8958279332
 21
18.9485480857
 31
0.0
  0
LINE
  5
365
100
AcDbEntity
  8
LAYER0
 62
         3
100
AcDbLine
 10
-33.4084634846
 20
22.4116189253
 30
0.0
 11
-33.4084634846
 21
25.2880459499
 31
0.0
  0
LINE
  5
366
100
AcDbEntity
  8
LAYER0
 62
         3
100
AcDbLine
 10
-26.4084632686
 20
25.2880459499
 30
0.0
 11
-26.4084632686
 21
22.4116189253
 31
0.0
  0
LINE
  5
367
100
AcDbEntity
  8
LAYER0
 62
         3
100
AcDbLine
 10
-25.6357365465
 20
21.5455932391
 30
0.0
 11
-25.6357365465
 21
19.4579182041
 31
0.0
  0
ARC
  5
368
100
AcDbEntity
  8
LAYER0
 62
         3
100
AcDbCircle
 10
-26.9021933757
 20
21.1933271331
 30
0.0
 40
1.3145357773
210
0.0
220
0.0
230
1.0
100
AcDbArc
 50
15.5439562432
 51
67.9390480381
  0
LINE
  5
369
100
AcDbEntity
  8
LAYER0
 62
         3
100
AcDbLine
 10
-28.5839080056
 20
21.2465939891
 30
0.0
 11
-31.2330192132
 21
21.2465939891
 31
0.0
  0
LINE
  5
36A
100
AcDbEntity
  8
LAYER0
 62
         3
100
AcDbLine
 10
-31.5337204552
 20
20.3805683029
 30
0.0
 11
-28.2832072294
 21
20.3805683029
 31
0.0
  0
ARC
  5
36B
100
AcDbEntity
  8
LAYER0
 62
         3
100
AcDbCircle
 10
-32.9147361481
 20
21.1933282433
 30
0.0
 40
1.3145337077
210
0.0
220
0.0
230
1.0
100
AcDbArc
 50
112.0608612863
 51
164.4560719644
  0
ARC
  5
36C
100
AcDbEntity
  8
LAYER0
 62
         3
100
AcDbCircle
 10
-29.9084636774
 20
-8.0420811853
 30
0.0
 40
4.5
210
-0.0
220
0.0
230
1.0
100
AcDbArc
 50
286.1276189531
 51
68.1160872684
  0
ARC
  5
36D
100
AcDbEntity
  8
LAYER0
 62
         3
100
AcDbCircle
 10
-29.9084636774
 20
-8.0420811853
 30
0.0
 40
4.5
210
0.0
220
0.0
230
1.0
100
AcDbArc
 50
111.883915802
 51
253.8723779765
  0
ARC
  5
36E
100
AcDbEntity
  8
LAYER0
 62
         3
100
AcDbCircle
 10
-29.9084636774
 20
-8.0420811853
 30
0.0
 40
3.5
210
0.0
220
0.0
230
1.0
100
AcDbArc
 50
111.883915802
 51
249.0751656802
  0
LINE
  5
36F
100
AcDbEntity
  8
LAYER0
 62
         3
100
AcDbLine
 10
-33.8672585963
 20
2.9579182935
 30
0.0
 11
-35.7084637685
 21
2.9579182935
 31
0.0
  0
LINE
  5
370
100
AcDbEntity
  8
LAYER0
 62
         3
100
AcDbLine
 10
-28.5839080056
 20
-3.0420808273
 30
0.0
 11
-23.9084637901
 21
-3.0420808273
 31
0.0
  0
LINE
  5
371
100
AcDbEntity
  8
LAYER0
 62
         3
100
AcDbLine
 10
-22.9084636262
 20
0.9579179657
 30
0.0
 11
-22.9084636262
 21
-2.0420806634
 31
0.0
  0
ARC
  5
372
100
AcDbEntity
  8
LAYER0
 62
         3
100
AcDbCircle
 10
-23.9084636774
 20
-2.0420811853
 30
0.0
 40
1.0
210
0.0
220
0.0
230
1.0
100
AcDbArc
 50
269.9999984648
 51
360.0
  0
LINE
  5
373
100
AcDbEntity
  8
LAYER0
 62
         3
100
AcDbLine
 10
-24.1084634504
 20
2.9579182935
 30
0.0
 11
-24.1084634504
 21
1.4579189789
 31
0.0
  0
ARC
  5
374
100
AcDbEntity
  8
LAYER0
 62
         3
100
AcDbCircle
 10
-23.4084636774
 20
0.9579188147
 30
0.0
 40
0.5
210
-0.0
220
-0.0
230
1.0
100
AcDbArc
 50
360.0
 51
90.0000015352
  0
LINE
  5
375
100
AcDbEntity
  8
LAYER0
 62
         3
100
AcDbLine
 10
-24.1084634504
 20
2.9579182935
 30
0.0
 11
-25.9330389267
 21
2.9579182935
 31
0.0
  0
LINE
  5
376
100
AcDbEntity
  8
LAYER0
 62
         3
100
AcDbLine
 10
-23.4084637082
 20
1.4579189789
 30
0.0
 11
-24.8853773987
 21
1.4579189789
 31
0.0
  0
LINE
  5
377
100
AcDbEntity
  8
LAYER0
 62
         3
100
AcDbLine
 10
-34.9315495873
 20
1.4579189789
 30
0.0
 11
-36.4084637435
 21
1.4579189789
 31
0.0
  0
LINE
  5
378
100
AcDbEntity
  8
LAYER0
 62
         3
100
AcDbLine
 10
-36.9084637091
 20
-2.0420806634
 30
0.0
 11
-36.9084637091
 21
0.9579179657
 31
0.0
  0
ARC
  5
379
100
AcDbEntity
  8
LAYER0
 62
         3
100
AcDbCircle
 10
-35.9084636774
 20
-2.0420811853
 30
0.0
 40
1.0
210
0.0
220
0.0
230
1.0
100
AcDbArc
 50
180.0000030705
 51
269.9999984648
  0
LINE
  5
37A
100
AcDbEntity
  8
LAYER0
 62
         3
100
AcDbLine
 10
-35.7084637685
 20
1.4579189789
 30
0.0
 11
-35.7084637685
 21
2.9579182935
 31
0.0
  0
ARC
  5
37B
100
AcDbEntity
  8
LAYER0
 62
         3
100
AcDbCircle
 10
-36.4084636774
 20
0.9579188147
 30
0.0
 40
0.5
210
0.0
220
0.0
230
1.0
100
AcDbArc
 50
90.0000015352
 51
180.0000030705
  0
LINE
  5
37C
100
AcDbEntity
  8
LAYER0
 62
         3
100
AcDbLine
 10
-31.2330192132
 20
-3.0420808273
 30
0.0
 11
-28.5839080056
 21
-3.0420808273
 31
0.0
  0
LINE
  5
37D
100
AcDbEntity
  8
LAYER0
 62
         3
100
AcDbLine
 10
-35.9084636616
 20
-3.0420808273
 30
0.0
 11
-31.2330192132
 21
-3.0420808273
 31
0.0
  0
INSERT
  5
37F
100
AcDbEntity
  8
0
100
AcDbBlockReference
  2
CLUMP68
 10
0.0
 20
0.0
 30
0.0
  0
INSERT
  5
39C
100
AcDbEntity
  8
0
100
AcDbBlockReference
  2
CLUMP70
 10
0.0
 20
0.0
 30
0.0
  0
INSERT
  5
3B9
100
AcDbEntity
  8
0
100
AcDbBlockReference
  2
CLUMP72
 10
0.0
 20
0.0
 30
0.0
  0
INSERT
  5
3D0
100
AcDbEntity
  8
0
100
AcDbBlockReference
  2
CLUMP74
 10
0.0
 20
0.0
 30
0.0
  0
MTEXT
  5
3E6
100
AcDbEntity
  8
LAYER3
100
AcDbMText
 10
-8.6159652339
 20
-3.04208126
 30
0.0
 40
2.1473683357
 41
5.1292919922
 71
         1
 72
         1
  1
\W0.8;51.6
 11
-0.0000000268
 21
1.0
 31
0.0
  0
LINE
  5
3E7
100
AcDbEntity
  8
LAYER3
 62
         4
100
AcDbLine
 10
-4.8283065425
 20
-24.0420811853
 30
0.0
 11
-5.452041615
 21
-21.1076383831
 31
0.0
  0
LINE
  5
3E8
100
AcDbEntity
  8
LAYER3
 62
         4
100
AcDbLine
 10
-4.8283065425
 20
-24.0420811853
 30
0.0
 11
-4.2045714701
 21
-21.1076383831
 31
0.0
  0
LINE
  5
3E9
100
AcDbEntity
  8
LAYER3
 62
         4
100
AcDbLine
 10
6.0787236268
 20
14.3579188147
 30
0.0
 11
5.4549885544
 21
11.4234760125
 31
0.0
  0
LINE
  5
3EA
100
AcDbEntity
  8
LAYER3
 62
         4
100
AcDbLine
 10
6.0787236268
 20
14.3579188147
 30
0.0
 11
6.0787236268
 21
-21.0420811853
 31
0.0
  0
MTEXT
  5
3EB
100
AcDbEntity
  8
LAYER0
100
AcDbMText
 10
-13.9221737419
 20
-132.5157576176
 30
0.0
 40
3.0922104359
 41
7.3861805462
 71
         1
 72
         1
  1
\W0.8;S-3A
  0
MTEXT
  5
3EC
100
AcDbEntity
  8
LAYER0
100
AcDbMText
 10
-35.7051459079
 20
-126.6461242782
 30
0.0
 40
2.1473683357
 41
6.4116149902
 71
         1
 72
         1
  1
\W0.8;Ｎｏ.
  0
LINE
  5
3ED
100
AcDbEntity
  8
LAYER0
 62
         3
100
AcDbLine
 10
-25.0
 20
-125.5
 30
0.0
 11
-25.0
 21
-138.5
 31
0.0
  0
MTEXT
  5
3EE
100
AcDbEntity
  8
LAYER0
100
AcDbMText
 10
-10.6564309049
 20
-126.7970201517
 30
0.0
 40
2.1473683357
 41
7.6538653946
 71
         1
 72
         1
  1
\W0.8;品　番
  0
LINE
  5
3EF
100
AcDbEntity
  8
LAYER0
 62
         3
100
AcDbLine
 10
-40.0
 20
-138.5
 30
0.0
 11
-40.0
 21
-125.5
 31
0.0
  0
MTEXT
  5
3F0
100
AcDbEntity
  8
LAYER0
100
AcDbMText
 10
25.9984602544
 20
-132.8866032766
 30
0.0
 40
2.4737683892
 41
20.6813058682
 71
         1
 72
         1
  1
\W0.8;３０用ランナー
  0
MTEXT
  5
3F1
100
AcDbEntity
  8
LAYER0
100
AcDbMText
 10
32.0542682872
 20
-126.7970201517
 30
0.0
 40
2.1473683357
 41
7.6538653946
 71
         1
 72
         1
  1
\W0.8;品　名
  0
LINE
  5
3F2
100
AcDbEntity
  8
LAYER0
 62
         3
100
AcDbLine
 10
10.0
 20
-138.5
 30
0.0
 11
10.0
 21
-125.5
 31
0.0
  0
MTEXT
  5
3F3
100
AcDbEntity
  8
LAYER0
100
AcDbMText
 10
69.2920019132
 20
-133.1354167344
 30
0.0
 40
2.4737683892
 41
8.8634168007
 71
         1
 72
         1
  1
\W0.8;D55805
  0
LINE
  5
3F4
100
AcDbEntity
  8
LAYER0
 62
         3
100
AcDbLine
 10
60.0
 20
-125.5
 30
0.0
 11
60.0
 21
-138.5
 31
0.0
  0
MTEXT
  5
3F5
100
AcDbEntity
  8
LAYER0
100
AcDbMText
 10
72.5158633528
 20
-126.7970201517
 30
0.0
 40
2.1473683357
 41
10.2585839844
 71
         1
 72
         1
  1
\W0.8;管理図番
  0
LINE
  5
3F6
100
AcDbEntity
  8
LAYER0
 62
         3
100
AcDbLine
 10
95.0
 20
-138.5
 30
0.0
 11
95.0
 21
-125.5
 31
0.0
  0
ARC
  5
3F7
100
AcDbEntity
  8
LAYER0
 62
         3
100
AcDbCircle
 10
-29.9084636774
 20
-8.0420811853
 30
0.0
 40
3.5
210
-0.0
220
0.0
230
1.0
100
AcDbArc
 50
290.9248312493
 51
68.1160872684
  0
ARC
  5
3F8
100
AcDbEntity
  8
LAYER0
 62
         3
100
AcDbCircle
 10
-27.8584636774
 20
-2.9384060389
 30
0.0
 40
2.0
210
0.0
220
0.0
230
1.0
100
AcDbArc
 50
182.9714029204
 51
248.116084198
  0
ARC
  5
3F9
100
AcDbEntity
  8
LAYER0
 62
         3
100
AcDbCircle
 10
-27.8584636774
 20
-2.9384060389
 30
0.0
 40
1.0
210
0.0
220
0.0
230
1.0
100
AcDbArc
 50
185.9508384787
 51
248.116084198
  0
ARC
  5
3FA
100
AcDbEntity
  8
LAYER0
 62
         3
100
AcDbCircle
 10
-31.9584636774
 20
-2.9384060389
 30
0.0
 40
1.0
210
0.0
220
0.0
230
1.0
100
AcDbArc
 50
291.8839127316
 51
354.0491584508
  0
ARC
  5
3FB
100
AcDbEntity
  8
LAYER0
 62
         3
100
AcDbCircle
 10
-31.9584636774
 20
-2.9384060389
 30
0.0
 40
2.0
210
0.0
220
0.0
230
1.0
100
AcDbArc
 50
291.8839127316
 51
357.0285940091
  0
LINE
  5
3FC
100
AcDbEntity
  8
LAYER0
 62
         3
100
AcDbLine
 10
-28.6584641031
 20
-24.0420810099
 30
0.0
 11
-28.6584641031
 21
-15.5420810136
 31
0.0
  0
LINE
  5
3FD
100
AcDbEntity
  8
LAYER0
 62
         3
100
AcDbLine
 10
-28.6584641031
 20
-15.5420810136
 30
0.0
 11
-28.6584641031
 21
-7.042081483
 31
0.0
  0
LINE
  5
3FE
100
AcDbEntity
  8
LAYER0
 62
         3
100
AcDbLine
 10
-31.1584635815
 20
-24.0420810099
 30
0.0
 11
-31.1584635815
 21
-15.5420810136
 31
0.0
  0
LINE
  5
3FF
100
AcDbEntity
  8
LAYER0
 62
         3
100
AcDbLine
 10
-31.1584635815
 20
-15.5420810136
 30
0.0
 11
-31.1584635815
 21
-7.042081483
 31
0.0
  0
LINE
  5
400
100
AcDbEntity
  8
LAYER0
 62
         3
100
AcDbLine
 10
-31.1584635815
 20
-7.042081483
 30
0.0
 11
-28.6584641031
 21
-7.042081483
 31
0.0
  0
LINE
  5
401
100
AcDbEntity
  8
LAYER0
 62
         3
100
AcDbLine
 10
-28.6584641031
 20
-24.0420810099
 30
0.0
 11
-31.1584635815
 21
-24.0420810099
 31
0.0
  0
LINE
  5
402
100
AcDbEntity
  8
LAYER0
 62
         3
100
AcDbLine
 10
95.0
 20
-125.5
 30
0.0
 11
-40.0
 21
-125.5
 31
0.0
  0
LINE
  5
403
100
AcDbEntity
  8
LAYER0
 62
         3
100
AcDbLine
 10
95.0
 20
-130.5
 30
0.0
 11
-40.0
 21
-130.5
 31
0.0
  0
LINE
  5
404
100
AcDbEntity
  8
LAYER0
 62
         3
100
AcDbLine
 10
95.0
 20
-138.5
 30
0.0
 11
-40.0
 21
-138.5
 31
0.0
  0
LINE
  5
405
100
AcDbEntity
  8
LAYER3
 62
         4
100
AcDbLine
 10
29.0093533487
 20
27.5579188147
 30
0.0
 11
-5.8283065425
 21
27.5579188147
 31
0.0
  0
LINE
  5
406
100
AcDbEntity
  8
LAYER3
 62
         4
100
AcDbLine
 10
29.0093533486
 20
-24.0420811853
 30
0.0
 11
-5.8283065425
 21
-24.0420811853
 31
0.0
  0
LINE
  5
407
100
AcDbEntity
  8
LAYER0
 62
         3
100
AcDbLine
 10
-25.9986515334
 20
18.8060780835
 30
0.0
 11
-25.9986515334
 21
3.4579193068
 31
0.0
  0
LINE
  5
408
100
AcDbEntity
  8
LAYER0
 62
         3
100
AcDbLine
 10
-33.8182761511
 20
3.4579193068
 30
0.0
 11
-33.8182761511
 21
18.8060780835
 31
0.0
  0
LINE
  5
409
100
AcDbEntity
  8
LAYER0
 62
         3
100
AcDbLine
 10
-28.2752136877
 20
20.2843440545
 30
0.0
 11
-28.2752136877
 21
-2.0420806634
 31
0.0
  0
LINE
  5
40A
100
AcDbEntity
  8
LAYER0
 62
         3
100
AcDbLine
 10
-31.5417130655
 20
20.2843440545
 30
0.0
 11
-31.5417130655
 21
-2.0420806634
 31
0.0
  0
LINE
  5
40B
100
AcDbEntity
  8
LAYER3
 62
         4
100
AcDbLine
 10
-4.8283065425
 20
27.5579188147
 30
0.0
 11
-4.8283065425
 21
-24.0420811853
 31
0.0
  0
ARC
  5
40C
100
AcDbEntity
  8
LAYER0
 62
         3
100
AcDbCircle
 10
30.0093533487
 20
4.4579188147
 30
0.0
 40
6.5
210
0.0
220
-0.0
230
1.0
100
AcDbArc
 50
53.2375778037
 51
126.7624252667
  0
LINE
  5
40D
100
AcDbEntity
  8
LAYER0
 62
         3
100
AcDbLine
 10
26.3002499022
 20
10.2307429385
 30
0.0
 11
26.2920200374
 21
10.1519008946
 31
0.0
  0
LINE
  5
40E
100
AcDbEntity
  8
LAYER0
 62
         3
100
AcDbLine
 10
33.7266866599
 20
10.1519008946
 30
0.0
 11
33.7184567951
 21
10.2307429385
 31
0.0
  0
ARC
  5
40F
100
AcDbEntity
  8
LAYER0
 62
         3
100
AcDbCircle
 10
29.7593533487
 20
4.4579188147
 30
0.0
 40
7.0
210
0.0
220
0.0
230
1.0
100
AcDbArc
 50
0.0
 51
55.5569923063
  0
ARC
  5
410
100
AcDbEntity
  8
LAYER0
 62
         3
100
AcDbCircle
 10
30.0093533487
 20
4.4579188147
 30
0.0
 40
6.8
210
0.0
220
-0.0
230
1.0
100
AcDbArc
 50
56.8613687957
 51
123.1386342748
  0
LINE
  5
411
100
AcDbEntity
  8
LAYER0
 62
         3
100
AcDbLine
 10
26.3002499022
 20
10.2307429385
 30
0.0
 11
26.3002499022
 21
15.4987467301
 31
0.0
  0
LINE
  5
412
100
AcDbEntity
  8
LAYER0
 62
         3
100
AcDbLine
 10
33.7184567951
 20
10.2307429385
 30
0.0
 11
33.7184567951
 21
15.4987467301
 31
0.0
  0
LINE
  5
413
100
AcDbEntity
  8
LAYER0
 62
         3
100
AcDbLine
 10
38.1941784189
 20
19.4579182041
 30
0.0
 11
38.1941784189
 21
3.4579193068
 31
0.0
  0
LINE
  5
414
100
AcDbEntity
  8
LAYER0
 62
         3
100
AcDbLine
 10
21.8245282785
 20
3.4579193068
 30
0.0
 11
21.8245282785
 21
19.4579182041
 31
0.0
  0
LINE
  5
415
100
AcDbEntity
  8
LAYER0
 62
         3
100
AcDbLine
 10
22.4155628138
 20
18.523432858
 30
0.0
 11
22.4155628138
 21
3.4579193068
 31
0.0
  0
LINE
  5
416
100
AcDbEntity
  8
LAYER0
 62
         3
100
AcDbLine
 10
37.6031438835
 20
3.4579193068
 30
0.0
 11
37.6031438835
 21
18.523432858
 31
0.0
  0
ARC
  5
417
100
AcDbEntity
  8
LAYER0
 62
         3
100
AcDbCircle
 10
30.2593533487
 20
4.4579188147
 30
0.0
 40
7.0
210
0.0
220
0.0
230
1.0
100
AcDbArc
 50
124.4430107642
 51
179.9999969295
  0
LINE
  5
418
100
AcDbEntity
  8
LAYER0
 62
         3
100
AcDbLine
 10
20.0093535722
 20
20.2843440545
 30
0.0
 11
20.0093535722
 21
-2.0420806634
 31
0.0
  0
LINE
  5
419
100
AcDbEntity
  8
LAYER0
 62
         3
100
AcDbLine
 10
40.0093531251
 20
20.2843440545
 30
0.0
 11
40.0093531251
 21
-2.0420806634
 31
0.0
  0
LINE
  5
41A
100
AcDbEntity
  8
LAYER3
 62
         4
100
AcDbLine
 10
6.0787236268
 20
14.3579188147
 30
0.0
 11
6.7024586993
 21
11.4234760125
 31
0.0
  0
ENDSEC
  0
SECTION
  2
OBJECTS
  0
DICTIONARY
  5
19
100
AcDbDictionary
280
         0
281
         1
  3
ACAD_GROUP
350
1A
  3
ACAD_MLINESTYLE
350
1B
  3
ACAD_LAYOUT
350
1E
  3
ACAD_PLOTSETTINGS
350
22
  3
ACAD_PLOTSTYLENAME
350
1F
  3
ACAD_WIPEOUT_VARS
350
23
  0
DICTIONARY
  5
1A
102
{ACAD_REACTORS
330
19
102
}
100
AcDbDictionary
280
         0
281
         1
  0
DICTIONARY
  5
1B
102
{ACAD_REACTORS
330
19
102
}
100
AcDbDictionary
280
         0
281
         1
  3
Standard
350
1C
  0
MLINESTYLE
  5
1C
102
{ACAD_REACTORS
330
1B
102
}
100
AcDbMlineStyle
  2
Standard
 70
         0
  3

 62
         0
 51
90.0
 52
90.0
 71
         2
 49
0.5
 62
       256
  6
BYLAYER
 49
-0.5
 62
       256
  6
BYLAYER
  0
ACDBDICTIONARYWDFLT
  5
1F
102
{ACAD_REACTORS
330
19
102
}
100
AcDbDictionary
281
         1
  3
Normal
350
1D
100
AcDbDictionaryWithDefault
340
1D
  0
ACDBPLACEHOLDER
  5
1D
102
{ACAD_REACTORS
330
1F
102
}
  0
LAYOUT
  5
20
102
{ACAD_REACTORS
330
1E
102
}
100
AcDbPlotSettings
  1

  2

  4

  6

 40
0.0
 41
0.0
 42
0.0
 43
0.0
 44
0.0
 45
0.0
 46
0.0
 47
0.0
 48
0.0
 49
0.0
140
0.0
141
0.0
142
1.0
143
1.0
 70
         0
 72
         0
 73
         0
 74
         0
  7

 75
         0
147
1.0
148
0.0
149
0.0
100
AcDbLayout
  1
Model
 70
         0
 71
         0
 10
0.0
 20
0.0
 11
0.0
 21
0.0
 12
0.0
 22
0.0
 32
0.0
 14
0.0
 24
0.0
 34
0.0
 15
0.0
 25
0.0
 35
0.0
146
0.0
 13
0.0
 23
0.0
 33
0.0
 16
0.0
 26
0.0
 36
0.0
 17
0.0
 27
0.0
 37
0.0
 76
         0
330
A
331
0
345
0
346
0
  0
LAYOUT
  5
21
102
{ACAD_REACTORS
330
1E
102
}
100
AcDbPlotSettings
  1

  2

  4

  6

 40
0.0
 41
0.0
 42
0.0
 43
0.0
 44
0.0
 45
0.0
 46
0.0
 47
0.0
 48
0.0
 49
0.0
140
0.0
141
0.0
142
1.0
143
1.0
 70
         0
 72
         0
 73
         0
 74
         0
  7

 75
         0
147
1.0
148
0.0
149
0.0
100
AcDbLayout
  1
Layout1
 70
         0
 71
         0
 10
0.0
 20
0.0
 11
0.0
 21
0.0
 12
0.0
 22
0.0
 32
0.0
 14
0.0
 24
0.0
 34
0.0
 15
0.0
 25
0.0
 35
0.0
146
0.0
 13
0.0
 23
0.0
 33
0.0
 16
0.0
 26
0.0
 36
0.0
 17
0.0
 27
0.0
 37
0.0
 76
         0
330
B
331
0
345
0
346
0
  0
DICTIONARY
  5
1E
102
{ACAD_REACTORS
330
19
102
}
100
AcDbDictionary
280
         0
281
         1
  3
Layout1
350
21
  3
Model
350
20
  0
DICTIONARY
  5
22
102
{ACAD_REACTORS
330
19
102
}
100
AcDbDictionary
280
         0
281
         1
  0
WIPEOUTVARIABLES
  5
23
100
AcDbWipeoutVariables
 70
         1
  0
ENDSEC
  0
EOF
