  0
SECTION
  2
HEADER
  9
$ACADVER
  1
AC1015
  9
$ACADMAINTVER
 70
         6
  9
$DWGCODEPAGE
  3
ANSI_932
  9
$INSBASE
 10
0.0
 20
0.0
 30
0.0
  9
$EXTMIN
 10
1.0000000000E+20
 20
1.0000000000E+20
 30
1.0000000000E+20
  9
$EXTMAX
 10
-1.0000000000E+20
 20
-1.0000000000E+20
 30
-1.0000000000E+20
  9
$LIMMIN
 10
0.0
 20
0.0
  9
$LIMMAX
 10
0.0
 20
0.0
  9
$ORTHOMODE
 70
         0
  9
$REGENMODE
 70
         1
  9
$FILLMODE
 70
         1
  9
$QTEXTMODE
 70
         0
  9
$MIRRTEXT
 70
         1
  9
$LTSCALE
 40
1.0
  9
$ATTMODE
 70
         1
  9
$TEXTSIZE
 40
0.2
  9
$TRACEWID
 40
0.05
  9
$TEXTSTYLE
  7
Standard
  9
$CLAYER
  8
0
  9
$CELTYPE
  6
Continuous
  9
$CECOLOR
 62
       256
  9
$CELTSCALE
 40
1.0
  9
$DISPSILH
 70
         0
  9
$DIMSCALE
 40
1.0
  9
$DIMASZ
 40
0.18
  9
$DIMEXO
 40
0.0625
  9
$DIMDLI
 40
0.38
  9
$DIMRND
 40
0.0
  9
$DIMDLE
 40
0.0
  9
$DIMEXE
 40
0.18
  9
$DIMTP
 40
0.0
  9
$DIMTM
 40
0.0
  9
$DIMTXT
 40
0.18
  9
$DIMCEN
 40
0.09
  9
$DIMTSZ
 40
0.0
  9
$DIMTOL
 70
         0
  9
$DIMLIM
 70
         0
  9
$DIMTIH
 70
         1
  9
$DIMTOH
 70
         1
  9
$DIMSE1
 70
         0
  9
$DIMSE2
 70
         0
  9
$DIMTAD
 70
         0
  9
$DIMZIN
 70
         0
  9
$DIMBLK
  1

  9
$DIMASO
 70
         1
  9
$DIMSHO
 70
         1
  9
$DIMPOST
  1

  9
$DIMAPOST
  1

  9
$DIMALT
 70
         0
  9
$DIMALTD
 70
         2
  9
$DIMALTF
 40
25.4
  9
$DIMLFAC
 40
1.0
  9
$DIMTOFL
 70
         0
  9
$DIMTVP
 40
0.0
  9
$DIMTIX
 70
         0
  9
$DIMSOXD
 70
         0
  9
$DIMSAH
 70
         0
  9
$DIMBLK1
  1

  9
$DIMBLK2
  1

  9
$DIMSTYLE
  2
Standard
  9
$DIMCLRD
 70
         0
  9
$DIMCLRE
 70
         0
  9
$DIMCLRT
 70
         0
  9
$DIMTFAC
 40
1.0
  9
$DIMGAP
 40
0.09
  9
$DIMJUST
 70
         0
  9
$DIMSD1
 70
         0
  9
$DIMSD2
 70
         0
  9
$DIMTOLJ
 70
         1
  9
$DIMTZIN
 70
         0
  9
$DIMALTZ
 70
         0
  9
$DIMALTTZ
 70
         0
  9
$DIMUPT
 70
         0
  9
$DIMDEC
 70
         4
  9
$DIMTDEC
 70
         4
  9
$DIMALTU
 70
         2
  9
$DIMALTTD
 70
         2
  9
$DIMTXSTY
  7
Standard
  9
$DIMAUNIT
 70
         0
  9
$DIMADEC
 70
         0
  9
$DIMALTRND
 40
0.0
  9
$DIMAZIN
 70
         0
  9
$DIMDSEP
 70
         0
  9
$DIMATFIT
 70
         3
  9
$DIMFRAC
 70
         0
  9
$DIMLDRBLK
  1

  9
$DIMLUNIT
 70
         2
  9
$DIMLWD
 70
         0
  9
$DIMLWE
 70
         0
  9
$DIMTMOVE
 70
         0
  9
$LUNITS
 70
         2
  9
$LUPREC
 70
         4
  9
$SKETCHINC
 40
0.1
  9
$FILLETRAD
 40
0.0
  9
$AUNITS
 70
         0
  9
$AUPREC
 70
         0
  9
$MENU
  1
acad
  9
$ELEVATION
 40
0.0
  9
$PELEVATION
 40
0.0
  9
$THICKNESS
 40
0.0
  9
$LIMCHECK
 70
         0
  9
$CHAMFERA
 40
0.0
  9
$CHAMFERB
 40
0.0
  9
$CHAMFERC
 40
0.0
  9
$CHAMFERD
 40
0.0
  9
$SKPOLY
 70
         0
  9
$TDCREATE
 40
0.000000000
  9
$TDUCREATE
 40
0.000000000
  9
$TDUPDATE
 40
0.000000000
  9
$TDUUPDATE
 40
0.000000000
  9
$TDINDWG
 40
0.0000000000
  9
$TDUSRTIMER
 40
0.0000000000
  9
$USRTIMER
 70
         1
  9
$ANGBASE
 50
0.0
  9
$ANGDIR
 70
         0
  9
$PDMODE
 70
         3
  9
$PDSIZE
 40
-1.0
  9
$PLINEWID
 40
0.0
  9
$SPLFRAME
 70
         0
  9
$SPLINETYPE
 70
         6
  9
$SPLINESEGS
 70
         8
  9
$HANDSEED
  5
369
  9
$SURFTAB1
 70
         6
  9
$SURFTAB2
 70
         6
  9
$SURFTYPE
 70
         6
  9
$SURFU
 70
         6
  9
$SURFV
 70
         6
  9
$UCSBASE
  2

  9
$UCSNAME
  2

  9
$UCSORG
 10
0.0
 20
0.0
 30
0.0
  9
$UCSXDIR
 10
1.0
 20
0.0
 30
0.0
  9
$UCSYDIR
 10
0.0
 20
1.0
 30
0.0
  9
$UCSORTHOREF
  2

  9
$UCSORTHOVIEW
 70
         0
  9
$UCSORGTOP
 10
0.0
 20
0.0
 30
0.0
  9
$UCSORGBOTTOM
 10
0.0
 20
0.0
 30
0.0
  9
$UCSORGLEFT
 10
0.0
 20
0.0
 30
0.0
  9
$UCSORGRIGHT
 10
0.0
 20
0.0
 30
0.0
  9
$UCSORGFRONT
 10
0.0
 20
0.0
 30
0.0
  9
$UCSORGBACK
 10
0.0
 20
0.0
 30
0.0
  9
$PUCSBASE
  2

  9
$PUCSNAME
  2

  9
$PUCSORG
 10
0.0
 20
0.0
 30
0.0
  9
$PUCSXDIR
 10
1.0
 20
0.0
 30
0.0
  9
$PUCSYDIR
 10
0.0
 20
1.0
 30
0.0
  9
$PUCSORTHOREF
  2

  9
$PUCSORTHOVIEW
 70
         0
  9
$PUCSORGTOP
 10
0.0
 20
0.0
 30
0.0
  9
$PUCSORGBOTTOM
 10
0.0
 20
0.0
 30
0.0
  9
$PUCSORGLEFT
 10
0.0
 20
0.0
 30
0.0
  9
$PUCSORGRIGHT
 10
0.0
 20
0.0
 30
0.0
  9
$PUCSORGFRONT
 10
0.0
 20
0.0
 30
0.0
  9
$PUCSORGBACK
 10
0.0
 20
0.0
 30
0.0
  9
$USERI1
 70
         0
  9
$USERI2
 70
         0
  9
$USERI3
 70
         0
  9
$USERI4
 70
         0
  9
$USERI5
 70
         0
  9
$USERR1
 40
0.0
  9
$USERR2
 40
0.0
  9
$USERR3
 40
0.0
  9
$USERR4
 40
0.0
  9
$USERR5
 40
0.0
  9
$WORLDVIEW
 70
         1
  9
$SHADEDGE
 70
         3
  9
$SHADEDIF
 70
        70
  9
$TILEMODE
 70
         1
  9
$MAXACTVP
 70
        16
  9
$PINSBASE
 10
0.0
 20
0.0
 30
0.0
  9
$PLIMCHECK
 70
         0
  9
$PEXTMIN
 10
1.0000000000E+20
 20
1.0000000000E+20
 30
1.0000000000E+20
  9
$PEXTMAX
 10
-1.0000000000E+20
 20
-1.0000000000E+20
 30
-1.0000000000E+20
  9
$PLIMMIN
 10
0.0
 20
0.0
  9
$PLIMMAX
 10
12.0
 20
9.0
  9
$UNITMODE
 70
         0
  9
$VISRETAIN
 70
         0
  9
$PLINEGEN
 70
         1
  9
$PSLTSCALE
 70
         0
  9
$TREEDEPTH
 70
      3020
  9
$CMLSTYLE
  2
Standard
  9
$CMLJUST
 70
         0
  9
$CMLSCALE
 40
1.0
  9
$PROXYGRAPHICS
 70
         0
  9
$MEASUREMENT
 70
         0
  9
$CELWEIGHT
370
         0
  9
$ENDCAPS
280
         0
  9
$JOINSTYLE
280
         0
  9
$LWDISPLAY
290
         0
  9
$INSUNITS
 70
         0
  9
$HYPERLINKBASE
  1

  9
$XEDIT
290
         1
  9
$CEPSNTYPE
380
         0
  9
$PSTYLEMODE
290
         0
  9
$FINGERPRINTGUID
  2

  9
$VERSIONGUID
  2

  9
$EXTNAMES
290
         1
  9
$PSVPSCALE
 40
0.0
  0
ENDSEC
  0
SECTION
  2
CLASSES
  0
CLASS
  1
LWPOLYLINE
  2
AcDbPolyline
  3
"AutoCAD"
 90
        0
280
         0
281
         1
  0
CLASS
  1
IMAGE
  2
AcDbRasterImage
  3
ISM
 90
      127
280
         0
281
         1
  0
CLASS
  1
OLE2FRAME
  2
AcDbOle2Frame
  3
""
 90
        0
280
         0
281
         1
  0
CLASS
  1
HATCH
  2
AcDbHatch
  3
"ACAD_SEDONA"
 90
        0
280
         0
281
         1
  0
CLASS
  1
DICTIONARYVAR
  2
AcDbDictionaryVar
  3
"AutoCAD"
 90
        0
280
         0
281
         0
  0
CLASS
  1
RASTERVARIABLES
  2
AcDbRasterVariables
  3
ISM
 90
        0
280
         0
281
         0
  0
CLASS
  1
IMAGEDEF
  2
AcDbRasterImageDef
  3
ISM
 90
        0
280
         0
281
         0
  0
CLASS
  1
IMAGEDEF_REACTOR
  2
AcDbRasterImageDefReactor
  3
ISM
 90
        1
280
         0
281
         0
  0
CLASS
  1
IDBUFFER
  2
AcDbIdBuffer
  3
"Acad"
 90
        0
280
         0
281
         0
  0
CLASS
  1
SPATIAL_FILTER
  2
AcDbSpatialFilter
  3
"Acad"
 90
        0
280
         0
281
         0
  0
CLASS
  1
XRECORD
  2
AcDbXrecord
  3
"<Built In>"
 90
        0
280
         0
281
         0
  0
CLASS
  1
SORTENTSTABLE
  2
AcDbSortentsTable
  3
"AutoCAD"
 90
        0
280
         0
281
         0
  0
CLASS
  1
LAYER_INDEX
  2
AcDbLayerIndex
  3
"Acad"
 90
        0
280
         0
281
         0
  0
CLASS
  1
SPATIAL_INDEX
  2
AcDbSpatialIndex
  3
"Acad"
 90
        0
280
         0
281
         0
  0
CLASS
  1
OBJECT_PTR
  2
CAseDLPNTableRecord
  3
"ASE-LPNTableRecord"
 90
        1
280
         0
281
         0
  0
CLASS
  1
LAYOUT
  2
AcDbLayout
  3
"AutoCAD 2000"
 90
        1
280
         0
281
         0
  0
CLASS
  1
PLOTSETTINGS
  2
AcDbPlotSettings
  3
"AutoCAD 2000"
 90
        1
280
         0
281
         0
  0
CLASS
  1
ACDBDICTIONARYWDFLT
  2
AcDbDictionaryWithDefault
  3
"AutoCAD 2000"
 90
        1
280
         0
281
         0
  0
CLASS
  1
ACDBPLACEHOLDER
  2
AcDbPlaceHolder
  3
"AutoCAD 2000"
 90
        1
280
         0
281
         0
  0
CLASS
  1
VBA_PROJECT
  2
AcDbVbaProject
  3
"acadvba"
 90
        1
280
         0
281
         0
  0
CLASS
  1
WIPEOUT
  2
AcDbWipeout
  3
WipeOut|AutoCAD Express Tool|expresstools@autodesk.com
 90
      127
280
         0
281
         1
  0
CLASS
  1
WIPEOUTVARIABLES
  2
AcDbWipeoutVariables
  3
WipeOut|AutoCAD Express Tool|expresstools@autodesk.com
 90
        0
280
         0
281
         0
  0
CLASS
  1
RTEXT
  2
RText
  3
RText|AutoCAD Express Tool|expresstools@autodesk.com
 90
        0
280
         0
281
         1
  0
CLASS
  1
ARCALIGNEDTEXT
  2
AcDbArcAlignedText
  3
ATEXT|AutoCAD Express Tool|expresstools@autodesk.com
 90
        0
280
         0
281
         1
  0
ENDSEC
  0
SECTION
  2
TABLES
  0
TABLE
  2
VPORT
  5
7
100
AcDbSymbolTable
 70
         1
  0
VPORT
  5
15
100
AcDbSymbolTableRecord
100
AcDbViewportTableRecord
  2
*ACTIVE
 70
         0
 10
0.0
 20
0.0
 11
1.0
 21
1.0
 12
6.591288
 22
4.579184
 13
0.0
 23
0.0
 14
1.0
 24
1.0
 15
0.0
 25
0.0
 16
0.0
 26
0.0
 36
1.0
 17
0.0
 27
0.0
 37
0.0
 40
9.158369
 41
0.688564
 42
50.0
 43
0.0
 44
0.0
 50
0.0
 51
0.0
 71
         0
 72
       100
 73
         1
 74
         1
 75
         0
 76
         0
 77
         0
 78
         0
281
         0
 65
         0
110
0.0
120
0.0
130
0.0
111
1.0
121
0.0
131
0.0
112
0.0
122
1.0
132
0.0
345
0
346
0
 79
         0
146
0.0
  0
ENDTAB
  0
TABLE
  2
LTYPE
  5
4
100
AcDbSymbolTable
 70
        13
  0
LTYPE
  5
11
100
AcDbSymbolTableRecord
100
AcDbLinetypeTableRecord
  2
ByBlock
 70
        64
  3

 72
        65
 73
         0
 40
0.0
  0
LTYPE
  5
12
100
AcDbSymbolTableRecord
100
AcDbLinetypeTableRecord
  2
ByLayer
 70
        64
  3

 72
        65
 73
         0
 40
0.0
  0
LTYPE
  5
13
100
AcDbSymbolTableRecord
100
AcDbLinetypeTableRecord
  2
Continuous
 70
        64
  3
Solid line
 72
        65
 73
         0
 40
0.0
  0
LTYPE
  5
24
100
AcDbSymbolTableRecord
100
AcDbLinetypeTableRecord
  2
DOT
 70
        64
  3
. . . . . . . . 
 72
        65
 73
         2
 40
1.0
 49
0.0
 74
         0
 49
-1.0
 74
         0
  0
LTYPE
  5
25
100
AcDbSymbolTableRecord
100
AcDbLinetypeTableRecord
  2
DASHED
 70
        64
  3
___  ___  ___  ___  
 72
        65
 73
         2
 40
4.0
 49
3.0
 74
         0
 49
-1.0
 74
         0
  0
LTYPE
  5
26
100
AcDbSymbolTableRecord
100
AcDbLinetypeTableRecord
  2
HIDDEN
 70
        64
  3
__ __ __ __ 
 72
        65
 73
         2
 40
3.0
 49
2.0
 74
         0
 49
-1.0
 74
         0
  0
LTYPE
  5
27
100
AcDbSymbolTableRecord
100
AcDbLinetypeTableRecord
  2
STITCH
 70
        64
  3
_ _ _ _ 
 72
        65
 73
         2
 40
2.0
 49
1.0
 74
         0
 49
-1.0
 74
         0
  0
LTYPE
  5
28
100
AcDbSymbolTableRecord
100
AcDbLinetypeTableRecord
  2
CENTER
 70
        64
  3
______  __  ______  __  
 72
        65
 73
         4
 40
43.0
 49
40.0
 74
         0
 49
-1.0
 74
         0
 49
1.0
 74
         0
 49
-1.0
 74
         0
  0
LTYPE
  5
29
100
AcDbSymbolTableRecord
100
AcDbLinetypeTableRecord
  2
DASHDOT
 70
        64
  3
____ . ____ . 
 72
        65
 73
         4
 40
32.0
 49
30.0
 74
         0
 49
-1.0
 74
         0
 49
0.0
 74
         0
 49
-1.0
 74
         0
  0
LTYPE
  5
2A
100
AcDbSymbolTableRecord
100
AcDbLinetypeTableRecord
  2
BORDER
 70
        64
  3
__ . __ . 
 72
        65
 73
         4
 40
22.0
 49
20.0
 74
         0
 49
-1.0
 74
         0
 49
0.0
 74
         0
 49
-1.0
 74
         0
  0
LTYPE
  5
2B
100
AcDbSymbolTableRecord
100
AcDbLinetypeTableRecord
  2
CUTTING
 70
        64
  3
________   ___   ___   
 72
        65
 73
         6
 40
45.0
 49
40.0
 74
         0
 49
-1.0
 74
         0
 49
1.0
 74
         0
 49
-1.0
 74
         0
 49
1.0
 74
         0
 49
-1.0
 74
         0
  0
LTYPE
  5
2C
100
AcDbSymbolTableRecord
100
AcDbLinetypeTableRecord
  2
PHANTOM
 70
        64
  3
______  __  __  
 72
        65
 73
         6
 40
35.0
 49
30.0
 74
         0
 49
-1.0
 74
         0
 49
1.0
 74
         0
 49
-1.0
 74
         0
 49
1.0
 74
         0
 49
-1.0
 74
         0
  0
LTYPE
  5
2D
100
AcDbSymbolTableRecord
100
AcDbLinetypeTableRecord
  2
DIVIDE
 70
        64
  3
____ . . ____ . . 
 72
        65
 73
         6
 40
23.0
 49
20.0
 74
         0
 49
-1.0
 74
         0
 49
0.0
 74
         0
 49
-1.0
 74
         0
 49
0.0
 74
         0
 49
-1.0
 74
         0
  0
ENDTAB
  0
TABLE
  2
LAYER
  5
2
100
AcDbSymbolTable
 70
         3
  0
LAYER
  5
14
100
AcDbSymbolTableRecord
100
AcDbLayerTableRecord
  2
0
 70
         0
 62
         7
  6
Continuous
290
         1
370
        -3
390
1D
  0
LAYER
  5
2E
100
AcDbSymbolTableRecord
100
AcDbLayerTableRecord
  2
LAYER3
 70
         0
 62
         7
  6
Continuous
290
         1
370
        -3
390
1F
  0
LAYER
  5
3D
100
AcDbSymbolTableRecord
100
AcDbLayerTableRecord
  2
LAYER0
 70
         0
 62
         7
  6
Continuous
290
         1
370
        -3
390
1F
  0
ENDTAB
  0
TABLE
  2
STYLE
  5
3
100
AcDbSymbolTable
 70
         1
  0
STYLE
  5
17
100
AcDbSymbolTableRecord
100
AcDbTextStyleTableRecord
  2
Standard
 70
         0
 40
0.0
 41
1.0
 50
0.0
 71
         0
 42
0.0
  3
txt
  4
extfont
  0
ENDTAB
  0
TABLE
  2
VIEW
  5
5
100
AcDbSymbolTable
 70
         0
  0
ENDTAB
  0
TABLE
  2
UCS
  5
6
100
AcDbSymbolTable
 70
         0
  0
ENDTAB
  0
TABLE
  2
APPID
  5
8
100
AcDbSymbolTable
 70
         1
  0
APPID
  5
16
100
AcDbSymbolTableRecord
100
AcDbRegAppTableRecord
  2
ACAD
 70
         0
  0
ENDTAB
  0
TABLE
  2
DIMSTYLE
  5
9
100
AcDbSymbolTable
 70
         1
100
AcDbDimStyleTable
 71
         0
  0
DIMSTYLE
105
18
100
AcDbSymbolTableRecord
100
AcDbDimStyleTableRecord
  2
Standard
 70
         0
  3

  4

 40
1.0
 41
0.18
 42
0.0625
 43
0.38
 44
0.18
 45
0.0
 46
0.0
 47
0.0
 48
0.0
 71
         0
 72
         0
 73
         1
 74
         1
 75
         0
 76
         0
 77
         0
 78
         0
 79
         0
140
0.18
141
0.09
142
0.0
143
25.4
144
1.0
145
0.0
146
1.0
147
0.09
148
0.0
170
         0
171
         2
172
         0
173
         0
174
         0
175
         0
176
         0
177
         0
178
         0
179
         0
271
         4
272
         4
273
         2
274
         2
275
         0
276
         0
277
         2
278
        46
279
         0
280
         0
281
         0
282
         0
283
         1
284
         0
285
         0
286
         0
288
         0
340
17
341
0
342
0
343
0
344
0
371
        -2
372
        -2
  0
ENDTAB
  0
TABLE
  2
BLOCK_RECORD
  5
1
100
AcDbSymbolTable
 70
        44
  0
BLOCK_RECORD
  5
A
100
AcDbSymbolTableRecord
100
AcDbBlockTableRecord
  2
*MODEL_SPACE
340
20
  0
BLOCK_RECORD
  5
B
100
AcDbSymbolTableRecord
100
AcDbBlockTableRecord
  2
*PAPER_SPACE
340
21
  0
BLOCK_RECORD
  5
51
100
AcDbSymbolTableRecord
100
AcDbBlockTableRecord
  2
CLUMP0
340
0
  0
BLOCK_RECORD
  5
54
100
AcDbSymbolTableRecord
100
AcDbBlockTableRecord
  2
CLUMP1
340
0
  0
BLOCK_RECORD
  5
61
100
AcDbSymbolTableRecord
100
AcDbBlockTableRecord
  2
CLUMP2
340
0
  0
BLOCK_RECORD
  5
64
100
AcDbSymbolTableRecord
100
AcDbBlockTableRecord
  2
CLUMP3
340
0
  0
BLOCK_RECORD
  5
71
100
AcDbSymbolTableRecord
100
AcDbBlockTableRecord
  2
CLUMP4
340
0
  0
BLOCK_RECORD
  5
74
100
AcDbSymbolTableRecord
100
AcDbBlockTableRecord
  2
CLUMP5
340
0
  0
BLOCK_RECORD
  5
8A
100
AcDbSymbolTableRecord
100
AcDbBlockTableRecord
  2
CLUMP6
340
0
  0
BLOCK_RECORD
  5
8D
100
AcDbSymbolTableRecord
100
AcDbBlockTableRecord
  2
CLUMP7
340
0
  0
BLOCK_RECORD
  5
A2
100
AcDbSymbolTableRecord
100
AcDbBlockTableRecord
  2
CLUMP8
340
0
  0
BLOCK_RECORD
  5
A5
100
AcDbSymbolTableRecord
100
AcDbBlockTableRecord
  2
CLUMP9
340
0
  0
BLOCK_RECORD
  5
AE
100
AcDbSymbolTableRecord
100
AcDbBlockTableRecord
  2
CLUMP10
340
0
  0
BLOCK_RECORD
  5
B1
100
AcDbSymbolTableRecord
100
AcDbBlockTableRecord
  2
CLUMP11
340
0
  0
BLOCK_RECORD
  5
BD
100
AcDbSymbolTableRecord
100
AcDbBlockTableRecord
  2
CLUMP12
340
0
  0
BLOCK_RECORD
  5
C0
100
AcDbSymbolTableRecord
100
AcDbBlockTableRecord
  2
CLUMP13
340
0
  0
BLOCK_RECORD
  5
D8
100
AcDbSymbolTableRecord
100
AcDbBlockTableRecord
  2
CLUMP14
340
0
  0
BLOCK_RECORD
  5
DB
100
AcDbSymbolTableRecord
100
AcDbBlockTableRecord
  2
CLUMP15
340
0
  0
BLOCK_RECORD
  5
F4
100
AcDbSymbolTableRecord
100
AcDbBlockTableRecord
  2
CLUMP16
340
0
  0
BLOCK_RECORD
  5
F7
100
AcDbSymbolTableRecord
100
AcDbBlockTableRecord
  2
CLUMP17
340
0
  0
BLOCK_RECORD
  5
10B
100
AcDbSymbolTableRecord
100
AcDbBlockTableRecord
  2
CLUMP18
340
0
  0
BLOCK_RECORD
  5
10E
100
AcDbSymbolTableRecord
100
AcDbBlockTableRecord
  2
CLUMP19
340
0
  0
BLOCK_RECORD
  5
120
100
AcDbSymbolTableRecord
100
AcDbBlockTableRecord
  2
CLUMP20
340
0
  0
BLOCK_RECORD
  5
123
100
AcDbSymbolTableRecord
100
AcDbBlockTableRecord
  2
CLUMP21
340
0
  0
BLOCK_RECORD
  5
12C
100
AcDbSymbolTableRecord
100
AcDbBlockTableRecord
  2
CLUMP22
340
0
  0
BLOCK_RECORD
  5
12F
100
AcDbSymbolTableRecord
100
AcDbBlockTableRecord
  2
CLUMP23
340
0
  0
BLOCK_RECORD
  5
138
100
AcDbSymbolTableRecord
100
AcDbBlockTableRecord
  2
CLUMP24
340
0
  0
BLOCK_RECORD
  5
13B
100
AcDbSymbolTableRecord
100
AcDbBlockTableRecord
  2
CLUMP25
340
0
  0
BLOCK_RECORD
  5
167
100
AcDbSymbolTableRecord
100
AcDbBlockTableRecord
  2
CLUMP26
340
0
  0
BLOCK_RECORD
  5
16A
100
AcDbSymbolTableRecord
100
AcDbBlockTableRecord
  2
CLUMP27
340
0
  0
BLOCK_RECORD
  5
17D
100
AcDbSymbolTableRecord
100
AcDbBlockTableRecord
  2
CLUMP28
340
0
  0
BLOCK_RECORD
  5
180
100
AcDbSymbolTableRecord
100
AcDbBlockTableRecord
  2
CLUMP29
340
0
  0
BLOCK_RECORD
  5
1B8
100
AcDbSymbolTableRecord
100
AcDbBlockTableRecord
  2
CLUMP30
340
0
  0
BLOCK_RECORD
  5
1BB
100
AcDbSymbolTableRecord
100
AcDbBlockTableRecord
  2
CLUMP31
340
0
  0
BLOCK_RECORD
  5
1CC
100
AcDbSymbolTableRecord
100
AcDbBlockTableRecord
  2
CLUMP32
340
0
  0
BLOCK_RECORD
  5
1CF
100
AcDbSymbolTableRecord
100
AcDbBlockTableRecord
  2
CLUMP33
340
0
  0
BLOCK_RECORD
  5
1D8
100
AcDbSymbolTableRecord
100
AcDbBlockTableRecord
  2
CLUMP34
340
0
  0
BLOCK_RECORD
  5
1DB
100
AcDbSymbolTableRecord
100
AcDbBlockTableRecord
  2
CLUMP35
340
0
  0
BLOCK_RECORD
  5
1E7
100
AcDbSymbolTableRecord
100
AcDbBlockTableRecord
  2
CLUMP36
340
0
  0
BLOCK_RECORD
  5
1EA
100
AcDbSymbolTableRecord
100
AcDbBlockTableRecord
  2
CLUMP37
340
0
  0
BLOCK_RECORD
  5
200
100
AcDbSymbolTableRecord
100
AcDbBlockTableRecord
  2
CLUMP38
340
0
  0
BLOCK_RECORD
  5
203
100
AcDbSymbolTableRecord
100
AcDbBlockTableRecord
  2
CLUMP39
340
0
  0
BLOCK_RECORD
  5
213
100
AcDbSymbolTableRecord
100
AcDbBlockTableRecord
  2
CLUMP40
340
0
  0
BLOCK_RECORD
  5
216
100
AcDbSymbolTableRecord
100
AcDbBlockTableRecord
  2
CLUMP41
340
0
  0
BLOCK_RECORD
  5
228
100
AcDbSymbolTableRecord
100
AcDbBlockTableRecord
  2
CLUMP42
340
0
  0
BLOCK_RECORD
  5
22B
100
AcDbSymbolTableRecord
100
AcDbBlockTableRecord
  2
CLUMP43
340
0
  0
ENDTAB
  0
ENDSEC
  0
SECTION
  2
BLOCKS
  0
BLOCK
  5
D
100
AcDbEntity
  8
0
100
AcDbBlockBegin
  2
*MODEL_SPACE
 70
         0
 10
0.0
 20
0.0
 30
0.0
  3
*MODEL_SPACE
  1

  0
ENDBLK
  5
E
100
AcDbEntity
  8
0
100
AcDbBlockEnd
  0
BLOCK
  5
F
100
AcDbEntity
 67
         1
  8
0
100
AcDbBlockBegin
  2
*PAPER_SPACE
 70
         0
 10
0.0
 20
0.0
 30
0.0
  3
*PAPER_SPACE
  1

  0
ENDBLK
  5
10
100
AcDbEntity
 67
         1
  8
0
100
AcDbBlockEnd
  0
BLOCK
  5
53
100
AcDbEntity
  8
0
100
AcDbBlockBegin
  2
CLUMP0
 70
         0
 10
0.0
 20
0.0
 30
0.0
  3

  1

  0
INSERT
  5
55
100
AcDbEntity
  8
0
100
AcDbBlockReference
  2
CLUMP1
 10
0.0
 20
0.0
 30
0.0
  0
ENDBLK
  5
60
100
AcDbEntity
  8
0
100
AcDbBlockEnd
  0
BLOCK
  5
56
100
AcDbEntity
  8
0
100
AcDbBlockBegin
  2
CLUMP1
 70
         0
 10
0.0
 20
0.0
 30
0.0
  3

  1

  0
LINE
  5
57
100
AcDbEntity
  8
LAYER0
 62
         3
100
AcDbLine
 10
16.1345541432
 20
30.9280703753
 30
0.0
 11
16.1410684982
 21
30.9250001655
 31
0.0
  0
LINE
  5
58
100
AcDbEntity
  8
LAYER0
 62
         3
100
AcDbLine
 10
16.1410684982
 20
30.9250001655
 30
0.0
 11
16.4218771226
 21
30.7924522031
 31
0.0
  0
LINE
  5
59
100
AcDbEntity
  8
LAYER0
 62
         3
100
AcDbLine
 10
16.4218771226
 20
30.7924522031
 30
0.0
 11
16.5772577861
 21
30.7189339995
 31
0.0
  0
LINE
  5
5A
100
AcDbEntity
  8
LAYER0
 62
         3
100
AcDbLine
 10
16.5772577861
 20
30.7189339995
 30
0.0
 11
16.6506856889
 21
30.6841480152
 31
0.0
  0
LINE
  5
5B
100
AcDbEntity
  8
LAYER0
 62
         3
100
AcDbLine
 10
16.6506856889
 20
30.6841480152
 30
0.0
 11
16.719914683
 21
30.6513236041
 31
0.0
  0
LINE
  5
5C
100
AcDbEntity
  8
LAYER0
 62
         3
100
AcDbLine
 10
16.719914683
 20
30.6513236041
 30
0.0
 11
16.7844880629
 21
30.6206799725
 31
0.0
  0
LINE
  5
5D
100
AcDbEntity
  8
LAYER0
 62
         3
100
AcDbLine
 10
16.7844880629
 20
30.6206799725
 30
0.0
 11
16.8451267653
 21
30.5918813124
 31
0.0
  0
LINE
  5
5E
100
AcDbEntity
  8
LAYER0
 62
         3
100
AcDbLine
 10
16.8451267653
 20
30.5918813124
 30
0.0
 11
16.9598463742
 21
30.5373589444
 31
0.0
  0
ENDBLK
  5
5F
100
AcDbEntity
  8
0
100
AcDbBlockEnd
  0
BLOCK
  5
63
100
AcDbEntity
  8
0
100
AcDbBlockBegin
  2
CLUMP2
 70
         0
 10
0.0
 20
0.0
 30
0.0
  3

  1

  0
INSERT
  5
65
100
AcDbEntity
  8
0
100
AcDbBlockReference
  2
CLUMP3
 10
0.0
 20
0.0
 30
0.0
  0
ENDBLK
  5
70
100
AcDbEntity
  8
0
100
AcDbBlockEnd
  0
BLOCK
  5
66
100
AcDbEntity
  8
0
100
AcDbBlockBegin
  2
CLUMP3
 70
         0
 10
0.0
 20
0.0
 30
0.0
  3

  1

  0
LINE
  5
67
100
AcDbEntity
  8
LAYER0
 62
         3
100
AcDbLine
 10
30.1645220691
 20
30.9280703753
 30
0.0
 11
30.1580077142
 21
30.9250001655
 31
0.0
  0
LINE
  5
68
100
AcDbEntity
  8
LAYER0
 62
         3
100
AcDbLine
 10
30.1580077142
 20
30.9250001655
 30
0.0
 11
29.8771990897
 21
30.7924522031
 31
0.0
  0
LINE
  5
69
100
AcDbEntity
  8
LAYER0
 62
         3
100
AcDbLine
 10
29.8771990897
 20
30.7924522031
 30
0.0
 11
29.7218184262
 21
30.7189339995
 31
0.0
  0
LINE
  5
6A
100
AcDbEntity
  8
LAYER0
 62
         3
100
AcDbLine
 10
29.7218184262
 20
30.7189339995
 30
0.0
 11
29.6483905235
 21
30.6841480152
 31
0.0
  0
LINE
  5
6B
100
AcDbEntity
  8
LAYER0
 62
         3
100
AcDbLine
 10
29.6483905235
 20
30.6841480152
 30
0.0
 11
29.5791615294
 21
30.6513236041
 31
0.0
  0
LINE
  5
6C
100
AcDbEntity
  8
LAYER0
 62
         3
100
AcDbLine
 10
29.5791615294
 20
30.6513236041
 30
0.0
 11
29.5145881495
 21
30.6206799725
 31
0.0
  0
LINE
  5
6D
100
AcDbEntity
  8
LAYER0
 62
         3
100
AcDbLine
 10
29.5145881495
 20
30.6206799725
 30
0.0
 11
29.4539494471
 21
30.5918813124
 31
0.0
  0
LINE
  5
6E
100
AcDbEntity
  8
LAYER0
 62
         3
100
AcDbLine
 10
29.4539494471
 20
30.5918813124
 30
0.0
 11
29.3392298381
 21
30.5373589444
 31
0.0
  0
ENDBLK
  5
6F
100
AcDbEntity
  8
0
100
AcDbBlockEnd
  0
BLOCK
  5
73
100
AcDbEntity
  8
0
100
AcDbBlockBegin
  2
CLUMP4
 70
         0
 10
0.0
 20
0.0
 30
0.0
  3

  1

  0
INSERT
  5
75
100
AcDbEntity
  8
0
100
AcDbBlockReference
  2
CLUMP5
 10
0.0
 20
0.0
 30
0.0
  0
ENDBLK
  5
89
100
AcDbEntity
  8
0
100
AcDbBlockEnd
  0
BLOCK
  5
76
100
AcDbEntity
  8
0
100
AcDbBlockBegin
  2
CLUMP5
 70
         0
 10
0.0
 20
0.0
 30
0.0
  3

  1

  0
LINE
  5
77
100
AcDbEntity
  8
LAYER0
 62
         3
100
AcDbLine
 10
29.2330506046
 20
30.5138568129
 30
0.0
 11
29.0398366517
 21
30.6746427975
 31
0.0
  0
LINE
  5
78
100
AcDbEntity
  8
LAYER0
 62
         3
100
AcDbLine
 10
29.0398366517
 20
30.6746427975
 30
0.0
 11
28.1570825048
 21
31.395962967
 31
0.0
  0
LINE
  5
79
100
AcDbEntity
  8
LAYER0
 62
         3
100
AcDbLine
 10
28.1570825048
 20
31.395962967
 30
0.0
 11
27.252450359
 21
32.0918401166
 31
0.0
  0
LINE
  5
7A
100
AcDbEntity
  8
LAYER0
 62
         3
100
AcDbLine
 10
27.252450359
 20
32.0918401166
 30
0.0
 11
26.3143303586
 21
32.7366345957
 31
0.0
  0
LINE
  5
7B
100
AcDbEntity
  8
LAYER0
 62
         3
100
AcDbLine
 10
26.3143303586
 20
32.7366345957
 30
0.0
 11
25.331112648
 21
33.3047067538
 31
0.0
  0
LINE
  5
7C
100
AcDbEntity
  8
LAYER0
 62
         3
100
AcDbLine
 10
25.331112648
 20
33.3047067538
 30
0.0
 11
24.7722517933
 21
33.5658265369
 31
0.0
  0
LINE
  5
7D
100
AcDbEntity
  8
LAYER0
 62
         3
100
AcDbLine
 10
24.7722517933
 20
33.5658265369
 30
0.0
 11
24.1905477149
 21
33.7697124222
 31
0.0
  0
LINE
  5
7E
100
AcDbEntity
  8
LAYER0
 62
         3
100
AcDbLine
 10
24.1905477149
 20
33.7697124222
 30
0.0
 11
23.5721367357
 21
33.8943565875
 31
0.0
  0
LINE
  5
7F
100
AcDbEntity
  8
LAYER0
 62
         3
100
AcDbLine
 10
23.5721367357
 20
33.8943565875
 30
0.0
 11
22.9421742717
 21
33.9148097566
 31
0.0
  0
LINE
  5
80
100
AcDbEntity
  8
LAYER0
 62
         3
100
AcDbLine
 10
22.9421742717
 20
33.9148097566
 30
0.0
 11
22.4532816562
 21
33.8516119246
 31
0.0
  0
LINE
  5
81
100
AcDbEntity
  8
LAYER0
 62
         3
100
AcDbLine
 10
22.4532816562
 20
33.8516119246
 30
0.0
 11
21.9736734653
 21
33.7286867545
 31
0.0
  0
LINE
  5
82
100
AcDbEntity
  8
LAYER0
 62
         3
100
AcDbLine
 10
21.9736734653
 20
33.7286867545
 30
0.0
 11
21.5098861311
 21
33.5586409031
 31
0.0
  0
LINE
  5
83
100
AcDbEntity
  8
LAYER0
 62
         3
100
AcDbLine
 10
21.5098861311
 20
33.5586409031
 30
0.0
 11
20.6015471055
 21
33.1136804034
 31
0.0
  0
LINE
  5
84
100
AcDbEntity
  8
LAYER0
 62
         3
100
AcDbLine
 10
20.6015471055
 20
33.1136804034
 30
0.0
 11
19.7385440158
 21
32.5790990154
 31
0.0
  0
LINE
  5
85
100
AcDbEntity
  8
LAYER0
 62
         3
100
AcDbLine
 10
19.7385440158
 20
32.5790990154
 30
0.0
 11
18.9104537389
 21
31.9850015668
 31
0.0
  0
LINE
  5
86
100
AcDbEntity
  8
LAYER0
 62
         3
100
AcDbLine
 10
18.9104537389
 20
31.9850015668
 30
0.0
 11
18.1068531517
 21
31.3614928853
 31
0.0
  0
LINE
  5
87
100
AcDbEntity
  8
LAYER0
 62
         3
100
AcDbLine
 10
18.1068531517
 20
31.3614928853
 30
0.0
 11
17.0660256078
 21
30.5138568129
 31
0.0
  0
ENDBLK
  5
88
100
AcDbEntity
  8
0
100
AcDbBlockEnd
  0
BLOCK
  5
8C
100
AcDbEntity
  8
0
100
AcDbBlockBegin
  2
CLUMP6
 70
         0
 10
0.0
 20
0.0
 30
0.0
  3

  1

  0
INSERT
  5
8E
100
AcDbEntity
  8
0
100
AcDbBlockReference
  2
CLUMP7
 10
0.0
 20
0.0
 30
0.0
  0
ENDBLK
  5
A1
100
AcDbEntity
  8
0
100
AcDbBlockEnd
  0
BLOCK
  5
8F
100
AcDbEntity
  8
0
100
AcDbBlockBegin
  2
CLUMP7
 70
         0
 10
0.0
 20
0.0
 30
0.0
  3

  1

  0
LINE
  5
90
100
AcDbEntity
  8
LAYER0
 62
         3
100
AcDbLine
 10
16.1345541432
 20
30.9280703753
 30
0.0
 11
17.5708456865
 21
32.0685996665
 31
0.0
  0
LINE
  5
91
100
AcDbEntity
  8
LAYER0
 62
         3
100
AcDbLine
 10
17.5708456865
 20
32.0685996665
 30
0.0
 11
18.4373640886
 21
32.7065392125
 31
0.0
  0
LINE
  5
92
100
AcDbEntity
  8
LAYER0
 62
         3
100
AcDbLine
 10
18.4373640886
 20
32.7065392125
 30
0.0
 11
19.3344336161
 21
33.3057420043
 31
0.0
  0
LINE
  5
93
100
AcDbEntity
  8
LAYER0
 62
         3
100
AcDbLine
 10
19.3344336161
 20
33.3057420043
 30
0.0
 11
20.2694102078
 21
33.8356606316
 31
0.0
  0
LINE
  5
94
100
AcDbEntity
  8
LAYER0
 62
         3
100
AcDbLine
 10
20.2694102078
 20
33.8356606316
 30
0.0
 11
21.2496498027
 21
34.2657476843
 31
0.0
  0
LINE
  5
95
100
AcDbEntity
  8
LAYER0
 62
         3
100
AcDbLine
 10
21.2496498027
 20
34.2657476843
 30
0.0
 11
22.0652616132
 21
34.5062906677
 31
0.0
  0
LINE
  5
96
100
AcDbEntity
  8
LAYER0
 62
         3
100
AcDbLine
 10
22.0652616132
 20
34.5062906677
 30
0.0
 11
22.9064029396
 21
34.6219165378
 31
0.0
  0
LINE
  5
97
100
AcDbEntity
  8
LAYER0
 62
         3
100
AcDbLine
 10
22.9064029396
 20
34.6219165378
 30
0.0
 11
23.6402327378
 21
34.6022364517
 31
0.0
  0
LINE
  5
98
100
AcDbEntity
  8
LAYER0
 62
         3
100
AcDbLine
 10
23.6402327378
 20
34.6022364517
 30
0.0
 11
24.3639878446
 21
34.4768192034
 31
0.0
  0
LINE
  5
99
100
AcDbEntity
  8
LAYER0
 62
         3
100
AcDbLine
 10
24.3639878446
 20
34.4768192034
 30
0.0
 11
25.0223176943
 21
34.2756349223
 31
0.0
  0
LINE
  5
9A
100
AcDbEntity
  8
LAYER0
 62
         3
100
AcDbLine
 10
25.0223176943
 20
34.2756349223
 30
0.0
 11
25.6586889904
 21
34.011813535
 31
0.0
  0
LINE
  5
9B
100
AcDbEntity
  8
LAYER0
 62
         3
100
AcDbLine
 10
25.6586889904
 20
34.011813535
 30
0.0
 11
26.7075983477
 21
33.4596194424
 31
0.0
  0
LINE
  5
9C
100
AcDbEntity
  8
LAYER0
 62
         3
100
AcDbLine
 10
26.7075983477
 20
33.4596194424
 30
0.0
 11
27.7086168476
 21
32.8186960611
 31
0.0
  0
LINE
  5
9D
100
AcDbEntity
  8
LAYER0
 62
         3
100
AcDbLine
 10
27.7086168476
 20
32.8186960611
 30
0.0
 11
28.6718355856
 21
32.1168154277
 31
0.0
  0
LINE
  5
9E
100
AcDbEntity
  8
LAYER0
 62
         3
100
AcDbLine
 10
28.6718355856
 20
32.1168154277
 30
0.0
 11
29.6073456569
 21
31.3817495787
 31
0.0
  0
LINE
  5
9F
100
AcDbEntity
  8
LAYER0
 62
         3
100
AcDbLine
 10
29.6073456569
 20
31.3817495787
 30
0.0
 11
30.1645220691
 21
30.9280703753
 31
0.0
  0
ENDBLK
  5
A0
100
AcDbEntity
  8
0
100
AcDbBlockEnd
  0
BLOCK
  5
A4
100
AcDbEntity
  8
0
100
AcDbBlockBegin
  2
CLUMP8
 70
         0
 10
0.0
 20
0.0
 30
0.0
  3

  1

  0
INSERT
  5
A6
100
AcDbEntity
  8
0
100
AcDbBlockReference
  2
CLUMP9
 10
0.0
 20
0.0
 30
0.0
  0
ENDBLK
  5
AD
100
AcDbEntity
  8
0
100
AcDbBlockEnd
  0
BLOCK
  5
A7
100
AcDbEntity
  8
0
100
AcDbBlockBegin
  2
CLUMP9
 70
         0
 10
0.0
 20
0.0
 30
0.0
  3

  1

  0
LINE
  5
A8
100
AcDbEntity
  8
LAYER0
 62
         3
100
AcDbLine
 10
-21.41957443
 20
49.7171505758
 30
0.0
 11
-21.435913209
 21
49.6663310073
 31
0.0
  0
LINE
  5
A9
100
AcDbEntity
  8
LAYER0
 62
         3
100
AcDbLine
 10
-21.435913209
 20
49.6663310073
 30
0.0
 11
-21.4843956345
 21
49.6171720981
 31
0.0
  0
LINE
  5
AA
100
AcDbEntity
  8
LAYER0
 62
         3
100
AcDbLine
 10
-21.4843956345
 20
49.6171720981
 30
0.0
 11
-21.5634374193
 21
49.5712802415
 31
0.0
  0
LINE
  5
AB
100
AcDbEntity
  8
LAYER0
 62
         3
100
AcDbLine
 10
-21.5634374193
 20
49.5712802415
 30
0.0
 11
-21.41957443
 21
49.7171505758
 31
0.0
  0
ENDBLK
  5
AC
100
AcDbEntity
  8
0
100
AcDbBlockEnd
  0
BLOCK
  5
B0
100
AcDbEntity
  8
0
100
AcDbBlockBegin
  2
CLUMP10
 70
         0
 10
0.0
 20
0.0
 30
0.0
  3

  1

  0
INSERT
  5
B2
100
AcDbEntity
  8
0
100
AcDbBlockReference
  2
CLUMP11
 10
0.0
 20
0.0
 30
0.0
  0
ENDBLK
  5
BC
100
AcDbEntity
  8
0
100
AcDbBlockEnd
  0
BLOCK
  5
B3
100
AcDbEntity
  8
0
100
AcDbBlockBegin
  2
CLUMP11
 70
         0
 10
0.0
 20
0.0
 30
0.0
  3

  1

  0
LINE
  5
B4
100
AcDbEntity
  8
LAYER0
 62
         3
100
AcDbLine
 10
-22.41957443
 20
49.1526915366
 30
0.0
 11
-22.2491196417
 21
49.2376181809
 31
0.0
  0
LINE
  5
B5
100
AcDbEntity
  8
LAYER0
 62
         3
100
AcDbLine
 10
-22.2491196417
 20
49.2376181809
 30
0.0
 11
-22.0836538952
 21
49.3194898494
 31
0.0
  0
LINE
  5
B6
100
AcDbEntity
  8
LAYER0
 62
         3
100
AcDbLine
 10
-22.0836538952
 20
49.3194898494
 30
0.0
 11
-21.9280202079
 21
49.3959102397
 31
0.0
  0
LINE
  5
B7
100
AcDbEntity
  8
LAYER0
 62
         3
100
AcDbLine
 10
-21.9280202079
 20
49.3959102397
 30
0.0
 11
-21.786773823
 21
49.4646426034
 31
0.0
  0
LINE
  5
B8
100
AcDbEntity
  8
LAYER0
 62
         3
100
AcDbLine
 10
-21.786773823
 20
49.4646426034
 30
0.0
 11
-21.6640488812
 21
49.5236752126
 31
0.0
  0
LINE
  5
B9
100
AcDbEntity
  8
LAYER0
 62
         3
100
AcDbLine
 10
-21.6640488812
 20
49.5236752126
 30
0.0
 11
-21.5634374193
 21
49.5712802416
 31
0.0
  0
LINE
  5
BA
100
AcDbEntity
  8
LAYER0
 62
         3
100
AcDbLine
 10
-21.5634374193
 20
49.5712802416
 30
0.0
 11
-22.41957443
 21
49.1526915366
 31
0.0
  0
ENDBLK
  5
BB
100
AcDbEntity
  8
0
100
AcDbBlockEnd
  0
BLOCK
  5
BF
100
AcDbEntity
  8
0
100
AcDbBlockBegin
  2
CLUMP12
 70
         0
 10
0.0
 20
0.0
 30
0.0
  3

  1

  0
INSERT
  5
C1
100
AcDbEntity
  8
0
100
AcDbBlockReference
  2
CLUMP13
 10
0.0
 20
0.0
 30
0.0
  0
ENDBLK
  5
D0
100
AcDbEntity
  8
0
100
AcDbBlockEnd
  0
BLOCK
  5
C2
100
AcDbEntity
  8
0
100
AcDbBlockBegin
  2
CLUMP13
 70
         0
 10
0.0
 20
0.0
 30
0.0
  3

  1

  0
LINE
  5
C3
100
AcDbEntity
  8
LAYER0
 62
         3
100
AcDbLine
 10
-21.41957443
 20
30.9280703753
 30
0.0
 11
-21.4195532114
 21
30.9250001655
 31
0.0
  0
LINE
  5
C4
100
AcDbEntity
  8
LAYER0
 62
         3
100
AcDbLine
 10
-21.4195532114
 20
30.9250001655
 30
0.0
 11
-21.4165516143
 21
30.8916197984
 31
0.0
  0
LINE
  5
C5
100
AcDbEntity
  8
LAYER0
 62
         3
100
AcDbLine
 10
-21.4165516143
 20
30.8916197984
 30
0.0
 11
-21.4084291009
 21
30.8583387766
 31
0.0
  0
LINE
  5
C6
100
AcDbEntity
  8
LAYER0
 62
         3
100
AcDbLine
 10
-21.4084291009
 20
30.8583387766
 30
0.0
 11
-21.3953323865
 21
30.8252514587
 31
0.0
  0
LINE
  5
C7
100
AcDbEntity
  8
LAYER0
 62
         3
100
AcDbLine
 10
-21.3953323865
 20
30.8252514587
 30
0.0
 11
-21.3774081867
 21
30.7924522031
 31
0.0
  0
LINE
  5
C8
100
AcDbEntity
  8
LAYER0
 62
         3
100
AcDbLine
 10
-21.3774081867
 20
30.7924522031
 30
0.0
 11
-21.3508635865
 21
30.7551969359
 31
0.0
  0
LINE
  5
C9
100
AcDbEntity
  8
LAYER0
 62
         3
100
AcDbLine
 10
-21.3508635865
 20
30.7551969359
 30
0.0
 11
-21.317745048
 21
30.7189339995
 31
0.0
  0
LINE
  5
CA
100
AcDbEntity
  8
LAYER0
 62
         3
100
AcDbLine
 10
-21.317745048
 20
30.7189339995
 30
0.0
 11
-21.2776929176
 21
30.6841480152
 31
0.0
  0
LINE
  5
CB
100
AcDbEntity
  8
LAYER0
 62
         3
100
AcDbLine
 10
-21.2776929176
 20
30.6841480152
 30
0.0
 11
-21.2303475416
 21
30.6513236041
 31
0.0
  0
LINE
  5
CC
100
AcDbEntity
  8
LAYER0
 62
         3
100
AcDbLine
 10
-21.2303475416
 20
30.6513236041
 30
0.0
 11
-21.1755647086
 21
30.6206799725
 31
0.0
  0
LINE
  5
CD
100
AcDbEntity
  8
LAYER0
 62
         3
100
AcDbLine
 10
-21.1755647086
 20
30.6206799725
 30
0.0
 11
-21.1150098976
 21
30.5918813124
 31
0.0
  0
LINE
  5
CE
100
AcDbEntity
  8
LAYER0
 62
         3
100
AcDbLine
 10
-21.1150098976
 20
30.5918813124
 30
0.0
 11
-20.9842803124
 21
30.5373589444
 31
0.0
  0
ENDBLK
  5
CF
100
AcDbEntity
  8
0
100
AcDbBlockEnd
  0
BLOCK
  5
DA
100
AcDbEntity
  8
0
100
AcDbBlockBegin
  2
CLUMP14
 70
         0
 10
0.0
 20
0.0
 30
0.0
  3

  1

  0
INSERT
  5
DC
100
AcDbEntity
  8
0
100
AcDbBlockReference
  2
CLUMP15
 10
0.0
 20
0.0
 30
0.0
  0
ENDBLK
  5
F3
100
AcDbEntity
  8
0
100
AcDbBlockEnd
  0
BLOCK
  5
DD
100
AcDbEntity
  8
0
100
AcDbBlockBegin
  2
CLUMP15
 70
         0
 10
0.0
 20
0.0
 30
0.0
  3

  1

  0
LINE
  5
DE
100
AcDbEntity
  8
LAYER0
 62
         3
100
AcDbLine
 10
-22.730613412
 20
5.0062643509
 30
0.0
 11
-22.7431778841
 21
4.9997495303
 31
0.0
  0
LINE
  5
DF
100
AcDbEntity
  8
LAYER0
 62
         3
100
AcDbLine
 10
-22.7431778841
 20
4.9997495303
 30
0.0
 11
-22.7589116484
 21
4.9824932735
 31
0.0
  0
LINE
  5
E0
100
AcDbEntity
  8
LAYER0
 62
         3
100
AcDbLine
 10
-22.7589116484
 20
4.9824932735
 30
0.0
 11
-22.771858519
 21
4.9614960713
 31
0.0
  0
LINE
  5
E1
100
AcDbEntity
  8
LAYER0
 62
         3
100
AcDbLine
 10
-22.771858519
 20
4.9614960713
 30
0.0
 11
-22.7867354033
 21
4.9327497927
 31
0.0
  0
LINE
  5
E2
100
AcDbEntity
  8
LAYER0
 62
         3
100
AcDbLine
 10
-22.7867354033
 20
4.9327497927
 30
0.0
 11
-22.8196143225
 21
4.856210589
 31
0.0
  0
LINE
  5
E3
100
AcDbEntity
  8
LAYER0
 62
         3
100
AcDbLine
 10
-22.8196143225
 20
4.856210589
 30
0.0
 11
-22.8547554058
 21
4.7529490613
 31
0.0
  0
LINE
  5
E4
100
AcDbEntity
  8
LAYER0
 62
         3
100
AcDbLine
 10
-22.8547554058
 20
4.7529490613
 30
0.0
 11
-22.8862879384
 21
4.6291969861
 31
0.0
  0
LINE
  5
E5
100
AcDbEntity
  8
LAYER0
 62
         3
100
AcDbLine
 10
-22.8862879384
 20
4.6291969861
 30
0.0
 11
-22.9111110826
 21
4.4848167334
 31
0.0
  0
LINE
  5
E6
100
AcDbEntity
  8
LAYER0
 62
         3
100
AcDbLine
 10
-22.9111110826
 20
4.4848167334
 30
0.0
 11
-22.9256498214
 21
4.3251983966
 31
0.0
  0
LINE
  5
E7
100
AcDbEntity
  8
LAYER0
 62
         3
100
AcDbLine
 10
-22.9256498214
 20
4.3251983966
 30
0.0
 11
-22.9276327876
 21
4.1681307233
 31
0.0
  0
LINE
  5
E8
100
AcDbEntity
  8
LAYER0
 62
         3
100
AcDbLine
 10
-22.9276327876
 20
4.1681307233
 30
0.0
 11
-22.9185664147
 21
4.0074022632
 31
0.0
  0
LINE
  5
E9
100
AcDbEntity
  8
LAYER0
 62
         3
100
AcDbLine
 10
-22.9185664147
 20
4.0074022632
 30
0.0
 11
-22.9003358702
 21
3.8539379356
 31
0.0
  0
LINE
  5
EA
100
AcDbEntity
  8
LAYER0
 62
         3
100
AcDbLine
 10
-22.9003358702
 20
3.8539379356
 30
0.0
 11
-22.8749830794
 21
3.7051573541
 31
0.0
  0
LINE
  5
EB
100
AcDbEntity
  8
LAYER0
 62
         3
100
AcDbLine
 10
-22.8749830794
 20
3.7051573541
 30
0.0
 11
-22.8432903268
 21
3.5565598312
 31
0.0
  0
LINE
  5
EC
100
AcDbEntity
  8
LAYER0
 62
         3
100
AcDbLine
 10
-22.8432903268
 20
3.5565598312
 30
0.0
 11
-22.8098775778
 21
3.4200906898
 31
0.0
  0
LINE
  5
ED
100
AcDbEntity
  8
LAYER0
 62
         3
100
AcDbLine
 10
-22.8098775778
 20
3.4200906898
 30
0.0
 11
-22.7761538963
 21
3.291468799
 31
0.0
  0
LINE
  5
EE
100
AcDbEntity
  8
LAYER0
 62
         3
100
AcDbLine
 10
-22.7761538963
 20
3.291468799
 30
0.0
 11
-22.747847769
 21
3.1833289336
 31
0.0
  0
LINE
  5
EF
100
AcDbEntity
  8
LAYER0
 62
         3
100
AcDbLine
 10
-22.747847769
 20
3.1833289336
 30
0.0
 11
-22.7285405376
 21
3.1005934811
 31
0.0
  0
LINE
  5
F0
100
AcDbEntity
  8
LAYER0
 62
         3
100
AcDbLine
 10
-22.7285405376
 20
3.1005934811
 30
0.0
 11
-22.7199385926
 21
3.0447257828
 31
0.0
  0
LINE
  5
F1
100
AcDbEntity
  8
LAYER0
 62
         3
100
AcDbLine
 10
-22.7199385926
 20
3.0447257828
 30
0.0
 11
-22.7195744455
 21
3.0350875254
 31
0.0
  0
ENDBLK
  5
F2
100
AcDbEntity
  8
0
100
AcDbBlockEnd
  0
BLOCK
  5
F6
100
AcDbEntity
  8
0
100
AcDbBlockBegin
  2
CLUMP16
 70
         0
 10
0.0
 20
0.0
 30
0.0
  3

  1

  0
INSERT
  5
F8
100
AcDbEntity
  8
0
100
AcDbBlockReference
  2
CLUMP17
 10
0.0
 20
0.0
 30
0.0
  0
ENDBLK
  5
10A
100
AcDbEntity
  8
0
100
AcDbBlockEnd
  0
BLOCK
  5
F9
100
AcDbEntity
  8
0
100
AcDbBlockBegin
  2
CLUMP17
 70
         0
 10
0.0
 20
0.0
 30
0.0
  3

  1

  0
LINE
  5
FA
100
AcDbEntity
  8
LAYER0
 62
         3
100
AcDbLine
 10
-27.7138057217
 20
6.9455061253
 30
0.0
 11
-27.7174541779
 21
6.9695361103
 31
0.0
  0
LINE
  5
FB
100
AcDbEntity
  8
LAYER0
 62
         3
100
AcDbLine
 10
-27.7174541779
 20
6.9695361103
 30
0.0
 11
-27.7161387518
 21
6.9853341621
 31
0.0
  0
LINE
  5
FC
100
AcDbEntity
  8
LAYER0
 62
         3
100
AcDbLine
 10
-27.7161387518
 20
6.9853341621
 30
0.0
 11
-27.7104823144
 21
6.9975520916
 31
0.0
  0
LINE
  5
FD
100
AcDbEntity
  8
LAYER0
 62
         3
100
AcDbLine
 10
-27.7104823144
 20
6.9975520916
 30
0.0
 11
-27.6875788916
 21
7.012327873
 31
0.0
  0
LINE
  5
FE
100
AcDbEntity
  8
LAYER0
 62
         3
100
AcDbLine
 10
-27.6875788916
 20
7.012327873
 30
0.0
 11
-27.6516088825
 21
7.0160240332
 31
0.0
  0
LINE
  5
FF
100
AcDbEntity
  8
LAYER0
 62
         3
100
AcDbLine
 10
-27.6516088825
 20
7.0160240332
 30
0.0
 11
-27.6054372597
 21
7.010801151
 31
0.0
  0
LINE
  5
100
100
AcDbEntity
  8
LAYER0
 62
         3
100
AcDbLine
 10
-27.6054372597
 20
7.010801151
 30
0.0
 11
-27.5506064928
 21
6.998252953
 31
0.0
  0
LINE
  5
101
100
AcDbEntity
  8
LAYER0
 62
         3
100
AcDbLine
 10
-27.5506064928
 20
6.998252953
 30
0.0
 11
-27.4881901652
 21
6.9788839512
 31
0.0
  0
LINE
  5
102
100
AcDbEntity
  8
LAYER0
 62
         3
100
AcDbLine
 10
-27.4881901652
 20
6.9788839512
 30
0.0
 11
-27.418154331
 21
6.9528298379
 31
0.0
  0
LINE
  5
103
100
AcDbEntity
  8
LAYER0
 62
         3
100
AcDbLine
 10
-27.418154331
 20
6.9528298379
 30
0.0
 11
-27.3404650442
 21
6.9202263053
 31
0.0
  0
LINE
  5
104
100
AcDbEntity
  8
LAYER0
 62
         3
100
AcDbLine
 10
-27.3404650442
 20
6.9202263053
 30
0.0
 11
-27.2159761916
 21
6.8626475143
 31
0.0
  0
LINE
  5
105
100
AcDbEntity
  8
LAYER0
 62
         3
100
AcDbLine
 10
-27.2159761916
 20
6.8626475143
 30
0.0
 11
-27.0781338267
 21
6.7945182468
 31
0.0
  0
LINE
  5
106
100
AcDbEntity
  8
LAYER0
 62
         3
100
AcDbLine
 10
-27.0781338267
 20
6.7945182468
 30
0.0
 11
-26.9243399301
 21
6.7161161027
 31
0.0
  0
LINE
  5
107
100
AcDbEntity
  8
LAYER0
 62
         3
100
AcDbLine
 10
-26.9243399301
 20
6.7161161027
 30
0.0
 11
-26.7577682907
 21
6.6316411044
 31
0.0
  0
LINE
  5
108
100
AcDbEntity
  8
LAYER0
 62
         3
100
AcDbLine
 10
-26.7577682907
 20
6.6316411044
 30
0.0
 11
-26.4695743617
 21
6.4901843812
 31
0.0
  0
ENDBLK
  5
109
100
AcDbEntity
  8
0
100
AcDbBlockEnd
  0
BLOCK
  5
10D
100
AcDbEntity
  8
0
100
AcDbBlockBegin
  2
CLUMP18
 70
         0
 10
0.0
 20
0.0
 30
0.0
  3

  1

  0
INSERT
  5
10F
100
AcDbEntity
  8
0
100
AcDbBlockReference
  2
CLUMP19
 10
0.0
 20
0.0
 30
0.0
  0
ENDBLK
  5
11F
100
AcDbEntity
  8
0
100
AcDbBlockEnd
  0
BLOCK
  5
110
100
AcDbEntity
  8
0
100
AcDbBlockBegin
  2
CLUMP19
 70
         0
 10
0.0
 20
0.0
 30
0.0
  3

  1

  0
LINE
  5
111
100
AcDbEntity
  8
LAYER0
 62
         3
100
AcDbLine
 10
-23.9695744175
 20
6.4901843812
 30
0.0
 11
-23.802747679
 21
6.5718324694
 31
0.0
  0
LINE
  5
112
100
AcDbEntity
  8
LAYER0
 62
         3
100
AcDbLine
 10
-23.802747679
 20
6.5718324694
 30
0.0
 11
-23.6418666836
 21
6.651668265
 31
0.0
  0
LINE
  5
113
100
AcDbEntity
  8
LAYER0
 62
         3
100
AcDbLine
 10
-23.6418666836
 20
6.651668265
 30
0.0
 11
-23.4783222616
 21
6.734736925
 31
0.0
  0
LINE
  5
114
100
AcDbEntity
  8
LAYER0
 62
         3
100
AcDbLine
 10
-23.4783222616
 20
6.734736925
 30
0.0
 11
-23.327779193
 21
6.8111591186
 31
0.0
  0
LINE
  5
115
100
AcDbEntity
  8
LAYER0
 62
         3
100
AcDbLine
 10
-23.327779193
 20
6.8111591186
 30
0.0
 11
-23.185838413
 21
6.8803854554
 31
0.0
  0
LINE
  5
116
100
AcDbEntity
  8
LAYER0
 62
         3
100
AcDbLine
 10
-23.185838413
 20
6.8803854554
 30
0.0
 11
-23.0589872744
 21
6.9374464597
 31
0.0
  0
LINE
  5
117
100
AcDbEntity
  8
LAYER0
 62
         3
100
AcDbLine
 10
-23.0589872744
 20
6.9374464597
 30
0.0
 11
-22.9782999064
 21
6.969620344
 31
0.0
  0
LINE
  5
118
100
AcDbEntity
  8
LAYER0
 62
         3
100
AcDbLine
 10
-22.9782999064
 20
6.969620344
 30
0.0
 11
-22.9067444388
 21
6.9938771572
 31
0.0
  0
LINE
  5
119
100
AcDbEntity
  8
LAYER0
 62
         3
100
AcDbLine
 10
-22.9067444388
 20
6.9938771572
 30
0.0
 11
-22.8434314056
 21
7.0097943133
 31
0.0
  0
LINE
  5
11A
100
AcDbEntity
  8
LAYER0
 62
         3
100
AcDbLine
 10
-22.8434314056
 20
7.0097943133
 30
0.0
 11
-22.7936443925
 21
7.0138372626
 31
0.0
  0
LINE
  5
11B
100
AcDbEntity
  8
LAYER0
 62
         3
100
AcDbLine
 10
-22.7936443925
 20
7.0138372626
 30
0.0
 11
-22.764943653
 21
7.0067619207
 31
0.0
  0
LINE
  5
11C
100
AcDbEntity
  8
LAYER0
 62
         3
100
AcDbLine
 10
-22.764943653
 20
7.0067619207
 30
0.0
 11
-22.7449714159
 21
6.9921074149
 31
0.0
  0
LINE
  5
11D
100
AcDbEntity
  8
LAYER0
 62
         3
100
AcDbLine
 10
-22.7449714159
 20
6.9921074149
 30
0.0
 11
-22.7195744455
 21
6.9501664634
 31
0.0
  0
ENDBLK
  5
11E
100
AcDbEntity
  8
0
100
AcDbBlockEnd
  0
BLOCK
  5
122
100
AcDbEntity
  8
0
100
AcDbBlockBegin
  2
CLUMP20
 70
         0
 10
0.0
 20
0.0
 30
0.0
  3

  1

  0
INSERT
  5
124
100
AcDbEntity
  8
0
100
AcDbBlockReference
  2
CLUMP21
 10
0.0
 20
0.0
 30
0.0
  0
ENDBLK
  5
12B
100
AcDbEntity
  8
0
100
AcDbBlockEnd
  0
BLOCK
  5
125
100
AcDbEntity
  8
0
100
AcDbBlockBegin
  2
CLUMP21
 70
         0
 10
0.0
 20
0.0
 30
0.0
  3

  1

  0
LINE
  5
126
100
AcDbEntity
  8
LAYER0
 62
         3
100
AcDbLine
 10
-24.0195743896
 20
3.3072923199
 30
0.0
 11
-24.4005566005
 21
3.7154561512
 31
0.0
  0
LINE
  5
127
100
AcDbEntity
  8
LAYER0
 62
         3
100
AcDbLine
 10
-24.4005566005
 20
3.7154561512
 30
0.0
 11
-24.8042960342
 21
4.1319113608
 31
0.0
  0
LINE
  5
128
100
AcDbEntity
  8
LAYER0
 62
         3
100
AcDbLine
 10
-24.8042960342
 20
4.1319113608
 30
0.0
 11
-25.2195743896
 21
4.5450863268
 31
0.0
  0
LINE
  5
129
100
AcDbEntity
  8
LAYER0
 62
         3
100
AcDbLine
 10
-25.2195743896
 20
4.5450863268
 30
0.0
 11
-24.0195743896
 21
3.3072923199
 31
0.0
  0
ENDBLK
  5
12A
100
AcDbEntity
  8
0
100
AcDbBlockEnd
  0
BLOCK
  5
12E
100
AcDbEntity
  8
0
100
AcDbBlockBegin
  2
CLUMP22
 70
         0
 10
0.0
 20
0.0
 30
0.0
  3

  1

  0
INSERT
  5
130
100
AcDbEntity
  8
0
100
AcDbBlockReference
  2
CLUMP23
 10
0.0
 20
0.0
 30
0.0
  0
ENDBLK
  5
137
100
AcDbEntity
  8
0
100
AcDbBlockEnd
  0
BLOCK
  5
131
100
AcDbEntity
  8
0
100
AcDbBlockBegin
  2
CLUMP23
 70
         0
 10
0.0
 20
0.0
 30
0.0
  3

  1

  0
LINE
  5
132
100
AcDbEntity
  8
LAYER0
 62
         3
100
AcDbLine
 10
-25.2195743896
 20
4.5450863268
 30
0.0
 11
-25.634852745
 21
4.1319113608
 31
0.0
  0
LINE
  5
133
100
AcDbEntity
  8
LAYER0
 62
         3
100
AcDbLine
 10
-25.634852745
 20
4.1319113608
 30
0.0
 11
-26.0385921787
 21
3.7154561512
 31
0.0
  0
LINE
  5
134
100
AcDbEntity
  8
LAYER0
 62
         3
100
AcDbLine
 10
-26.0385921787
 20
3.7154561512
 30
0.0
 11
-26.4195743896
 21
3.3072923199
 31
0.0
  0
LINE
  5
135
100
AcDbEntity
  8
LAYER0
 62
         3
100
AcDbLine
 10
-26.4195743896
 20
3.3072923199
 30
0.0
 11
-25.2195743896
 21
4.5450863268
 31
0.0
  0
ENDBLK
  5
136
100
AcDbEntity
  8
0
100
AcDbBlockEnd
  0
BLOCK
  5
13A
100
AcDbEntity
  8
0
100
AcDbBlockBegin
  2
CLUMP24
 70
         0
 10
0.0
 20
0.0
 30
0.0
  3

  1

  0
INSERT
  5
13C
100
AcDbEntity
  8
0
100
AcDbBlockReference
  2
CLUMP25
 10
0.0
 20
0.0
 30
0.0
  0
ENDBLK
  5
166
100
AcDbEntity
  8
0
100
AcDbBlockEnd
  0
BLOCK
  5
13D
100
AcDbEntity
  8
0
100
AcDbBlockBegin
  2
CLUMP25
 70
         0
 10
0.0
 20
0.0
 30
0.0
  3

  1

  0
LINE
  5
13E
100
AcDbEntity
  8
LAYER0
 62
         3
100
AcDbLine
 10
18.264535692
 20
4.0441602435
 30
0.0
 11
18.2479607058
 21
4.1978288587
 31
0.0
  0
LINE
  5
13F
100
AcDbEntity
  8
LAYER0
 62
         3
100
AcDbLine
 10
18.2479607058
 20
4.1978288587
 30
0.0
 11
18.2071651526
 21
4.349083756
 31
0.0
  0
LINE
  5
140
100
AcDbEntity
  8
LAYER0
 62
         3
100
AcDbLine
 10
18.2071651526
 20
4.349083756
 30
0.0
 11
18.1435985607
 21
4.4914711412
 31
0.0
  0
LINE
  5
141
100
AcDbEntity
  8
LAYER0
 62
         3
100
AcDbLine
 10
18.1435985607
 20
4.4914711412
 30
0.0
 11
18.0514104057
 21
4.6316077546
 31
0.0
  0
LINE
  5
142
100
AcDbEntity
  8
LAYER0
 62
         3
100
AcDbLine
 10
18.0514104057
 20
4.6316077546
 30
0.0
 11
17.9367089761
 21
4.754698291
 31
0.0
  0
LINE
  5
143
100
AcDbEntity
  8
LAYER0
 62
         3
100
AcDbLine
 10
17.9367089761
 20
4.754698291
 30
0.0
 11
17.7992540841
 21
4.8591355937
 31
0.0
  0
LINE
  5
144
100
AcDbEntity
  8
LAYER0
 62
         3
100
AcDbLine
 10
17.7992540841
 20
4.8591355937
 30
0.0
 11
17.6449256134
 21
4.9388868879
 31
0.0
  0
LINE
  5
145
100
AcDbEntity
  8
LAYER0
 62
         3
100
AcDbLine
 10
17.6449256134
 20
4.9388868879
 30
0.0
 11
17.4884305071
 21
4.9885114651
 31
0.0
  0
LINE
  5
146
100
AcDbEntity
  8
LAYER0
 62
         3
100
AcDbLine
 10
17.4884305071
 20
4.9885114651
 30
0.0
 11
17.3259085161
 21
5.0120022293
 31
0.0
  0
LINE
  5
147
100
AcDbEntity
  8
LAYER0
 62
         3
100
AcDbLine
 10
17.3259085161
 20
5.0120022293
 30
0.0
 11
17.1696366689
 21
5.0092674313
 31
0.0
  0
LINE
  5
148
100
AcDbEntity
  8
LAYER0
 62
         3
100
AcDbLine
 10
17.1696366689
 20
5.0092674313
 30
0.0
 11
17.0165436459
 21
4.9824932735
 31
0.0
  0
LINE
  5
149
100
AcDbEntity
  8
LAYER0
 62
         3
100
AcDbLine
 10
17.0165436459
 20
4.9824932735
 30
0.0
 11
16.8660045084
 21
4.9307894869
 31
0.0
  0
LINE
  5
14A
100
AcDbEntity
  8
LAYER0
 62
         3
100
AcDbLine
 10
16.8660045084
 20
4.9307894869
 30
0.0
 11
16.7261013878
 21
4.856210589
 31
0.0
  0
LINE
  5
14B
100
AcDbEntity
  8
LAYER0
 62
         3
100
AcDbLine
 10
16.7261013878
 20
4.856210589
 30
0.0
 11
16.5920308029
 21
4.7535221318
 31
0.0
  0
LINE
  5
14C
100
AcDbEntity
  8
LAYER0
 62
         3
100
AcDbLine
 10
16.5920308029
 20
4.7535221318
 30
0.0
 11
16.4767658454
 21
4.6291969861
 31
0.0
  0
LINE
  5
14D
100
AcDbEntity
  8
LAYER0
 62
         3
100
AcDbLine
 10
16.4767658454
 20
4.6291969861
 30
0.0
 11
16.3828676094
 21
4.4846628407
 31
0.0
  0
LINE
  5
14E
100
AcDbEntity
  8
LAYER0
 62
         3
100
AcDbLine
 10
16.3828676094
 20
4.4846628407
 30
0.0
 11
16.3147306186
 21
4.3251983966
 31
0.0
  0
LINE
  5
14F
100
AcDbEntity
  8
LAYER0
 62
         3
100
AcDbLine
 10
16.3147306186
 20
4.3251983966
 30
0.0
 11
16.2770810799
 21
4.1681677635
 31
0.0
  0
LINE
  5
150
100
AcDbEntity
  8
LAYER0
 62
         3
100
AcDbLine
 10
16.2770810799
 20
4.1681677635
 30
0.0
 11
16.2650482846
 21
4.0074022632
 31
0.0
  0
LINE
  5
151
100
AcDbEntity
  8
LAYER0
 62
         3
100
AcDbLine
 10
16.2650482846
 20
4.0074022632
 30
0.0
 11
16.2779116173
 21
3.8539284645
 31
0.0
  0
LINE
  5
152
100
AcDbEntity
  8
LAYER0
 62
         3
100
AcDbLine
 10
16.2779116173
 20
3.8539284645
 30
0.0
 11
16.3138682139
 21
3.7051573541
 31
0.0
  0
LINE
  5
153
100
AcDbEntity
  8
LAYER0
 62
         3
100
AcDbLine
 10
16.3138682139
 20
3.7051573541
 30
0.0
 11
16.3757049463
 21
3.5565625878
 31
0.0
  0
LINE
  5
154
100
AcDbEntity
  8
LAYER0
 62
         3
100
AcDbLine
 10
16.3757049463
 20
3.5565625878
 30
0.0
 11
16.4603913319
 21
3.4200906898
 31
0.0
  0
LINE
  5
155
100
AcDbEntity
  8
LAYER0
 62
         3
100
AcDbLine
 10
16.4603913319
 20
3.4200906898
 30
0.0
 11
16.5736220561
 21
3.2914680075
 31
0.0
  0
LINE
  5
156
100
AcDbEntity
  8
LAYER0
 62
         3
100
AcDbLine
 10
16.5736220561
 20
3.2914680075
 30
0.0
 11
16.7080523563
 21
3.1833289336
 31
0.0
  0
LINE
  5
157
100
AcDbEntity
  8
LAYER0
 62
         3
100
AcDbLine
 10
16.7080523563
 20
3.1833289336
 30
0.0
 11
16.857167122
 21
3.1005936483
 31
0.0
  0
LINE
  5
158
100
AcDbEntity
  8
LAYER0
 62
         3
100
AcDbLine
 10
16.857167122
 20
3.1005936483
 30
0.0
 11
17.0184845221
 21
3.0447257828
 31
0.0
  0
LINE
  5
159
100
AcDbEntity
  8
LAYER0
 62
         3
100
AcDbLine
 10
17.0184845221
 20
3.0447257828
 30
0.0
 11
17.0600643498
 21
3.0350875254
 31
0.0
  0
LINE
  5
15A
100
AcDbEntity
  8
LAYER0
 62
         3
100
AcDbLine
 10
17.0600643498
 20
3.0350875254
 30
0.0
 11
17.2211120458
 21
3.0196753923
 31
0.0
  0
LINE
  5
15B
100
AcDbEntity
  8
LAYER0
 62
         3
100
AcDbLine
 10
17.2211120458
 20
3.0196753923
 30
0.0
 11
17.3807522399
 21
3.0205765884
 31
0.0
  0
LINE
  5
15C
100
AcDbEntity
  8
LAYER0
 62
         3
100
AcDbLine
 10
17.3807522399
 20
3.0205765884
 30
0.0
 11
17.5368224748
 21
3.0503175572
 31
0.0
  0
LINE
  5
15D
100
AcDbEntity
  8
LAYER0
 62
         3
100
AcDbLine
 10
17.5368224748
 20
3.0503175572
 30
0.0
 11
17.6856728387
 21
3.1066317256
 31
0.0
  0
LINE
  5
15E
100
AcDbEntity
  8
LAYER0
 62
         3
100
AcDbLine
 10
17.6856728387
 20
3.1066317256
 30
0.0
 11
17.8288422931
 21
3.1882541447
 31
0.0
  0
LINE
  5
15F
100
AcDbEntity
  8
LAYER0
 62
         3
100
AcDbLine
 10
17.8288422931
 20
3.1882541447
 30
0.0
 11
17.9566262406
 21
3.2915746938
 31
0.0
  0
LINE
  5
160
100
AcDbEntity
  8
LAYER0
 62
         3
100
AcDbLine
 10
17.9566262406
 20
3.2915746938
 30
0.0
 11
18.0705452249
 21
3.4212489152
 31
0.0
  0
LINE
  5
161
100
AcDbEntity
  8
LAYER0
 62
         3
100
AcDbLine
 10
18.0705452249
 20
3.4212489152
 30
0.0
 11
18.1610366446
 21
3.5698184888
 31
0.0
  0
LINE
  5
162
100
AcDbEntity
  8
LAYER0
 62
         3
100
AcDbLine
 10
18.1610366446
 20
3.5698184888
 30
0.0
 11
18.222371034
 21
3.7252327686
 31
0.0
  0
LINE
  5
163
100
AcDbEntity
  8
LAYER0
 62
         3
100
AcDbLine
 10
18.222371034
 20
3.7252327686
 30
0.0
 11
18.2571957004
 21
3.8889426883
 31
0.0
  0
LINE
  5
164
100
AcDbEntity
  8
LAYER0
 62
         3
100
AcDbLine
 10
18.2571957004
 20
3.8889426883
 30
0.0
 11
18.264535692
 21
4.0441602435
 31
0.0
  0
ENDBLK
  5
165
100
AcDbEntity
  8
0
100
AcDbBlockEnd
  0
BLOCK
  5
169
100
AcDbEntity
  8
0
100
AcDbBlockBegin
  2
CLUMP26
 70
         0
 10
0.0
 20
0.0
 30
0.0
  3

  1

  0
INSERT
  5
16B
100
AcDbEntity
  8
0
100
AcDbBlockReference
  2
CLUMP27
 10
0.0
 20
0.0
 30
0.0
  0
ENDBLK
  5
17C
100
AcDbEntity
  8
0
100
AcDbBlockEnd
  0
BLOCK
  5
16C
100
AcDbEntity
  8
0
100
AcDbBlockBegin
  2
CLUMP27
 70
         0
 10
0.0
 20
0.0
 30
0.0
  3

  1

  0
LINE
  5
16D
100
AcDbEntity
  8
LAYER0
 62
         3
100
AcDbLine
 10
15.5715687317
 20
6.4901843812
 30
0.0
 11
15.8360568923
 21
6.651668265
 31
0.0
  0
LINE
  5
16E
100
AcDbEntity
  8
LAYER0
 62
         3
100
AcDbLine
 10
15.8360568923
 20
6.651668265
 30
0.0
 11
16.1867166055
 21
6.8131391104
 31
0.0
  0
LINE
  5
16F
100
AcDbEntity
  8
LAYER0
 62
         3
100
AcDbLine
 10
16.1867166055
 20
6.8131391104
 30
0.0
 11
16.59225357
 21
6.9374464597
 31
0.0
  0
LINE
  5
170
100
AcDbEntity
  8
LAYER0
 62
         3
100
AcDbLine
 10
16.59225357
 20
6.9374464597
 30
0.0
 11
16.9240502757
 21
6.9942515488
 31
0.0
  0
LINE
  5
171
100
AcDbEntity
  8
LAYER0
 62
         3
100
AcDbLine
 10
16.9240502757
 20
6.9942515488
 30
0.0
 11
17.276110698
 21
7.0138372626
 31
0.0
  0
LINE
  5
172
100
AcDbEntity
  8
LAYER0
 62
         3
100
AcDbLine
 10
17.276110698
 20
7.0138372626
 30
0.0
 11
17.577479748
 21
6.9974530135
 31
0.0
  0
LINE
  5
173
100
AcDbEntity
  8
LAYER0
 62
         3
100
AcDbLine
 10
17.577479748
 20
6.9974530135
 30
0.0
 11
17.8799187881
 21
6.9501664634
 31
0.0
  0
LINE
  5
174
100
AcDbEntity
  8
LAYER0
 62
         3
100
AcDbLine
 10
17.8799187881
 20
6.9501664634
 30
0.0
 11
18.2223400218
 21
6.8567473586
 31
0.0
  0
LINE
  5
175
100
AcDbEntity
  8
LAYER0
 62
         3
100
AcDbLine
 10
18.2223400218
 20
6.8567473586
 30
0.0
 11
18.5455313069
 21
6.7268464859
 31
0.0
  0
LINE
  5
176
100
AcDbEntity
  8
LAYER0
 62
         3
100
AcDbLine
 10
18.5455313069
 20
6.7268464859
 30
0.0
 11
18.8390982272
 21
6.5677155001
 31
0.0
  0
LINE
  5
177
100
AcDbEntity
  8
LAYER0
 62
         3
100
AcDbLine
 10
18.8390982272
 20
6.5677155001
 30
0.0
 11
19.1010708106
 21
6.3863968622
 31
0.0
  0
LINE
  5
178
100
AcDbEntity
  8
LAYER0
 62
         3
100
AcDbLine
 10
19.1010708106
 20
6.3863968622
 30
0.0
 11
19.4052035106
 21
6.1158951517
 31
0.0
  0
LINE
  5
179
100
AcDbEntity
  8
LAYER0
 62
         3
100
AcDbLine
 10
19.4052035106
 20
6.1158951517
 30
0.0
 11
19.6482861531
 21
5.8359675254
 31
0.0
  0
LINE
  5
17A
100
AcDbEntity
  8
LAYER0
 62
         3
100
AcDbLine
 10
19.6482861531
 20
5.8359675254
 30
0.0
 11
19.8097663117
 21
5.6026656325
 31
0.0
  0
ENDBLK
  5
17B
100
AcDbEntity
  8
0
100
AcDbBlockEnd
  0
BLOCK
  5
17F
100
AcDbEntity
  8
0
100
AcDbBlockBegin
  2
CLUMP28
 70
         0
 10
0.0
 20
0.0
 30
0.0
  3

  1

  0
INSERT
  5
181
100
AcDbEntity
  8
0
100
AcDbBlockReference
  2
CLUMP29
 10
0.0
 20
0.0
 30
0.0
  0
ENDBLK
  5
194
100
AcDbEntity
  8
0
100
AcDbBlockEnd
  0
BLOCK
  5
182
100
AcDbEntity
  8
0
100
AcDbBlockBegin
  2
CLUMP29
 70
         0
 10
0.0
 20
0.0
 30
0.0
  3

  1

  0
LINE
  5
183
100
AcDbEntity
  8
LAYER0
 62
         3
100
AcDbLine
 10
15.6502654893
 20
-16.0886748549
 30
0.0
 11
15.6424936725
 21
-16.0765835608
 31
0.0
  0
LINE
  5
184
100
AcDbEntity
  8
LAYER0
 62
         3
100
AcDbLine
 10
15.6424936725
 20
-16.0765835608
 30
0.0
 11
15.6381253884
 21
-16.069787434
 31
0.0
  0
LINE
  5
185
100
AcDbEntity
  8
LAYER0
 62
         3
100
AcDbLine
 10
15.6381253884
 20
-16.069787434
 30
0.0
 11
15.6331782536
 21
-16.0620907315
 31
0.0
  0
LINE
  5
186
100
AcDbEntity
  8
LAYER0
 62
         3
100
AcDbLine
 10
15.6331782536
 20
-16.0620907315
 30
0.0
 11
15.6274593177
 21
-16.0531932614
 31
0.0
  0
LINE
  5
187
100
AcDbEntity
  8
LAYER0
 62
         3
100
AcDbLine
 10
15.6274593177
 20
-16.0531932614
 30
0.0
 11
15.6207756306
 21
-16.042794832
 31
0.0
  0
LINE
  5
188
100
AcDbEntity
  8
LAYER0
 62
         3
100
AcDbLine
 10
15.6207756306
 20
-16.042794832
 30
0.0
 11
15.6129342419
 21
-16.0305952511
 31
0.0
  0
LINE
  5
189
100
AcDbEntity
  8
LAYER0
 62
         3
100
AcDbLine
 10
15.6129342419
 20
-16.0305952511
 30
0.0
 11
15.6037422014
 21
-16.016294327
 31
0.0
  0
LINE
  5
18A
100
AcDbEntity
  8
LAYER0
 62
         3
100
AcDbLine
 10
15.6037422014
 20
-16.016294327
 30
0.0
 11
15.5971039042
 21
-16.0059665009
 31
0.0
  0
LINE
  5
18B
100
AcDbEntity
  8
LAYER0
 62
         3
100
AcDbLine
 10
15.5971039042
 20
-16.0059665009
 30
0.0
 11
15.5898368784
 21
-15.9946605145
 31
0.0
  0
LINE
  5
18C
100
AcDbEntity
  8
LAYER0
 62
         3
100
AcDbLine
 10
15.5898368784
 20
-15.9946605145
 30
0.0
 11
15.5819384152
 21
-15.9823721687
 31
0.0
  0
LINE
  5
18D
100
AcDbEntity
  8
LAYER0
 62
         3
100
AcDbLine
 10
15.5819384152
 20
-15.9823721687
 30
0.0
 11
15.5734058057
 21
-15.9690972646
 31
0.0
  0
LINE
  5
18E
100
AcDbEntity
  8
LAYER0
 62
         3
100
AcDbLine
 10
15.5734058057
 20
-15.9690972646
 30
0.0
 11
15.5642363411
 21
-15.9548316033
 31
0.0
  0
LINE
  5
18F
100
AcDbEntity
  8
LAYER0
 62
         3
100
AcDbLine
 10
15.5642363411
 20
-15.9548316033
 30
0.0
 11
15.5544273127
 21
-15.9395709857
 31
0.0
  0
LINE
  5
190
100
AcDbEntity
  8
LAYER0
 62
         3
100
AcDbLine
 10
15.5544273127
 20
-15.9395709857
 30
0.0
 11
15.5439760117
 21
-15.9233112129
 31
0.0
  0
LINE
  5
191
100
AcDbEntity
  8
LAYER0
 62
         3
100
AcDbLine
 10
15.5439760117
 20
-15.9233112129
 30
0.0
 11
15.5328797293
 21
-15.906048086
 31
0.0
  0
LINE
  5
192
100
AcDbEntity
  8
LAYER0
 62
         3
100
AcDbLine
 10
15.5328797293
 20
-15.906048086
 30
0.0
 11
15.5147543294
 21
-15.877849501
 31
0.0
  0
ENDBLK
  5
193
100
AcDbEntity
  8
0
100
AcDbBlockEnd
  0
BLOCK
  5
1BA
100
AcDbEntity
  8
0
100
AcDbBlockBegin
  2
CLUMP30
 70
         0
 10
0.0
 20
0.0
 30
0.0
  3

  1

  0
INSERT
  5
1BC
100
AcDbEntity
  8
0
100
AcDbBlockReference
  2
CLUMP31
 10
0.0
 20
0.0
 30
0.0
  0
ENDBLK
  5
1CB
100
AcDbEntity
  8
0
100
AcDbBlockEnd
  0
BLOCK
  5
1BD
100
AcDbEntity
  8
0
100
AcDbBlockBegin
  2
CLUMP31
 70
         0
 10
0.0
 20
0.0
 30
0.0
  3

  1

  0
LINE
  5
1BE
100
AcDbEntity
  8
LAYER0
 62
         3
100
AcDbLine
 10
-29.01957443
 20
30.9280703753
 30
0.0
 11
-29.0195956486
 21
30.9250001655
 31
0.0
  0
LINE
  5
1BF
100
AcDbEntity
  8
LAYER0
 62
         3
100
AcDbLine
 10
-29.0195956486
 20
30.9250001655
 30
0.0
 11
-29.0225972457
 21
30.8916197984
 31
0.0
  0
LINE
  5
1C0
100
AcDbEntity
  8
LAYER0
 62
         3
100
AcDbLine
 10
-29.0225972457
 20
30.8916197984
 30
0.0
 11
-29.0307197591
 21
30.8583387766
 31
0.0
  0
LINE
  5
1C1
100
AcDbEntity
  8
LAYER0
 62
         3
100
AcDbLine
 10
-29.0307197591
 20
30.8583387766
 30
0.0
 11
-29.0438164735
 21
30.8252514587
 31
0.0
  0
LINE
  5
1C2
100
AcDbEntity
  8
LAYER0
 62
         3
100
AcDbLine
 10
-29.0438164735
 20
30.8252514587
 30
0.0
 11
-29.0617406733
 21
30.7924522031
 31
0.0
  0
LINE
  5
1C3
100
AcDbEntity
  8
LAYER0
 62
         3
100
AcDbLine
 10
-29.0617406733
 20
30.7924522031
 30
0.0
 11
-29.0882852735
 21
30.7551969359
 31
0.0
  0
LINE
  5
1C4
100
AcDbEntity
  8
LAYER0
 62
         3
100
AcDbLine
 10
-29.0882852735
 20
30.7551969359
 30
0.0
 11
-29.121403812
 21
30.7189339995
 31
0.0
  0
LINE
  5
1C5
100
AcDbEntity
  8
LAYER0
 62
         3
100
AcDbLine
 10
-29.121403812
 20
30.7189339995
 30
0.0
 11
-29.1614559424
 21
30.6841480152
 31
0.0
  0
LINE
  5
1C6
100
AcDbEntity
  8
LAYER0
 62
         3
100
AcDbLine
 10
-29.1614559424
 20
30.6841480152
 30
0.0
 11
-29.2088013184
 21
30.6513236041
 31
0.0
  0
LINE
  5
1C7
100
AcDbEntity
  8
LAYER0
 62
         3
100
AcDbLine
 10
-29.2088013184
 20
30.6513236041
 30
0.0
 11
-29.2635841514
 21
30.6206799725
 31
0.0
  0
LINE
  5
1C8
100
AcDbEntity
  8
LAYER0
 62
         3
100
AcDbLine
 10
-29.2635841514
 20
30.6206799725
 30
0.0
 11
-29.3241389624
 21
30.5918813124
 31
0.0
  0
LINE
  5
1C9
100
AcDbEntity
  8
LAYER0
 62
         3
100
AcDbLine
 10
-29.3241389624
 20
30.5918813124
 30
0.0
 11
-29.4548685476
 21
30.5373589444
 31
0.0
  0
ENDBLK
  5
1CA
100
AcDbEntity
  8
0
100
AcDbBlockEnd
  0
BLOCK
  5
1CE
100
AcDbEntity
  8
0
100
AcDbBlockBegin
  2
CLUMP32
 70
         0
 10
0.0
 20
0.0
 30
0.0
  3

  1

  0
INSERT
  5
1D0
100
AcDbEntity
  8
0
100
AcDbBlockReference
  2
CLUMP33
 10
0.0
 20
0.0
 30
0.0
  0
ENDBLK
  5
1D7
100
AcDbEntity
  8
0
100
AcDbBlockEnd
  0
BLOCK
  5
1D1
100
AcDbEntity
  8
0
100
AcDbBlockBegin
  2
CLUMP33
 70
         0
 10
0.0
 20
0.0
 30
0.0
  3

  1

  0
LINE
  5
1D2
100
AcDbEntity
  8
LAYER0
 62
         3
100
AcDbLine
 10
-29.01957443
 20
49.7171505758
 30
0.0
 11
-29.003235651
 21
49.6663310073
 31
0.0
  0
LINE
  5
1D3
100
AcDbEntity
  8
LAYER0
 62
         3
100
AcDbLine
 10
-29.003235651
 20
49.6663310073
 30
0.0
 11
-28.9547532255
 21
49.6171720981
 31
0.0
  0
LINE
  5
1D4
100
AcDbEntity
  8
LAYER0
 62
         3
100
AcDbLine
 10
-28.9547532255
 20
49.6171720981
 30
0.0
 11
-28.8757114407
 21
49.5712802415
 31
0.0
  0
LINE
  5
1D5
100
AcDbEntity
  8
LAYER0
 62
         3
100
AcDbLine
 10
-28.8757114407
 20
49.5712802415
 30
0.0
 11
-29.01957443
 21
49.7171505758
 31
0.0
  0
ENDBLK
  5
1D6
100
AcDbEntity
  8
0
100
AcDbBlockEnd
  0
BLOCK
  5
1DA
100
AcDbEntity
  8
0
100
AcDbBlockBegin
  2
CLUMP34
 70
         0
 10
0.0
 20
0.0
 30
0.0
  3

  1

  0
INSERT
  5
1DC
100
AcDbEntity
  8
0
100
AcDbBlockReference
  2
CLUMP35
 10
0.0
 20
0.0
 30
0.0
  0
ENDBLK
  5
1E6
100
AcDbEntity
  8
0
100
AcDbBlockEnd
  0
BLOCK
  5
1DD
100
AcDbEntity
  8
0
100
AcDbBlockBegin
  2
CLUMP35
 70
         0
 10
0.0
 20
0.0
 30
0.0
  3

  1

  0
LINE
  5
1DE
100
AcDbEntity
  8
LAYER0
 62
         3
100
AcDbLine
 10
-28.01957443
 20
49.1526915366
 30
0.0
 11
-28.1900292183
 21
49.2376181809
 31
0.0
  0
LINE
  5
1DF
100
AcDbEntity
  8
LAYER0
 62
         3
100
AcDbLine
 10
-28.1900292183
 20
49.2376181809
 30
0.0
 11
-28.3554949648
 21
49.3194898494
 31
0.0
  0
LINE
  5
1E0
100
AcDbEntity
  8
LAYER0
 62
         3
100
AcDbLine
 10
-28.3554949648
 20
49.3194898494
 30
0.0
 11
-28.5111286521
 21
49.3959102397
 31
0.0
  0
LINE
  5
1E1
100
AcDbEntity
  8
LAYER0
 62
         3
100
AcDbLine
 10
-28.5111286521
 20
49.3959102397
 30
0.0
 11
-28.652375037
 21
49.4646426034
 31
0.0
  0
LINE
  5
1E2
100
AcDbEntity
  8
LAYER0
 62
         3
100
AcDbLine
 10
-28.652375037
 20
49.4646426034
 30
0.0
 11
-28.7750999788
 21
49.5236752126
 31
0.0
  0
LINE
  5
1E3
100
AcDbEntity
  8
LAYER0
 62
         3
100
AcDbLine
 10
-28.7750999788
 20
49.5236752126
 30
0.0
 11
-28.8757114407
 21
49.5712802416
 31
0.0
  0
LINE
  5
1E4
100
AcDbEntity
  8
LAYER0
 62
         3
100
AcDbLine
 10
-28.8757114407
 20
49.5712802416
 30
0.0
 11
-28.01957443
 21
49.1526915366
 31
0.0
  0
ENDBLK
  5
1E5
100
AcDbEntity
  8
0
100
AcDbBlockEnd
  0
BLOCK
  5
1E9
100
AcDbEntity
  8
0
100
AcDbBlockBegin
  2
CLUMP36
 70
         0
 10
0.0
 20
0.0
 30
0.0
  3

  1

  0
INSERT
  5
1EB
100
AcDbEntity
  8
0
100
AcDbBlockReference
  2
CLUMP37
 10
0.0
 20
0.0
 30
0.0
  0
ENDBLK
  5
1FF
100
AcDbEntity
  8
0
100
AcDbBlockEnd
  0
BLOCK
  5
1EC
100
AcDbEntity
  8
0
100
AcDbBlockBegin
  2
CLUMP37
 70
         0
 10
0.0
 20
0.0
 30
0.0
  3

  1

  0
LINE
  5
1ED
100
AcDbEntity
  8
LAYER0
 62
         3
100
AcDbLine
 10
-27.5108621508
 20
4.2188208695
 30
0.0
 11
-27.51864083
 21
4.3718080909
 31
0.0
  0
LINE
  5
1EE
100
AcDbEntity
  8
LAYER0
 62
         3
100
AcDbLine
 10
-27.51864083
 20
4.3718080909
 30
0.0
 11
-27.5244306973
 21
4.4459546068
 31
0.0
  0
LINE
  5
1EF
100
AcDbEntity
  8
LAYER0
 62
         3
100
AcDbLine
 10
-27.5244306973
 20
4.4459546068
 30
0.0
 11
-27.532501198
 21
4.517284609
 31
0.0
  0
LINE
  5
1F0
100
AcDbEntity
  8
LAYER0
 62
         3
100
AcDbLine
 10
-27.532501198
 20
4.517284609
 30
0.0
 11
-27.543341897
 21
4.5848183227
 31
0.0
  0
LINE
  5
1F1
100
AcDbEntity
  8
LAYER0
 62
         3
100
AcDbLine
 10
-27.543341897
 20
4.5848183227
 30
0.0
 11
-27.5565004151
 21
4.6482336851
 31
0.0
  0
LINE
  5
1F2
100
AcDbEntity
  8
LAYER0
 62
         3
100
AcDbLine
 10
-27.5565004151
 20
4.6482336851
 30
0.0
 11
-27.5712661222
 21
4.7071523894
 31
0.0
  0
LINE
  5
1F3
100
AcDbEntity
  8
LAYER0
 62
         3
100
AcDbLine
 10
-27.5712661222
 20
4.7071523894
 30
0.0
 11
-27.5869283877
 21
4.7611961286
 31
0.0
  0
LINE
  5
1F4
100
AcDbEntity
  8
LAYER0
 62
         3
100
AcDbLine
 10
-27.5869283877
 20
4.7611961286
 30
0.0
 11
-27.603715313
 21
4.8125213035
 31
0.0
  0
LINE
  5
1F5
100
AcDbEntity
  8
LAYER0
 62
         3
100
AcDbLine
 10
-27.603715313
 20
4.8125213035
 30
0.0
 11
-27.6206337817
 21
4.8585305699
 31
0.0
  0
LINE
  5
1F6
100
AcDbEntity
  8
LAYER0
 62
         3
100
AcDbLine
 10
-27.6206337817
 20
4.8585305699
 30
0.0
 11
-27.6376096357
 21
4.8997199809
 31
0.0
  0
LINE
  5
1F7
100
AcDbEntity
  8
LAYER0
 62
         3
100
AcDbLine
 10
-27.6376096357
 20
4.8997199809
 30
0.0
 11
-27.6545687165
 21
4.9365855898
 31
0.0
  0
LINE
  5
1F8
100
AcDbEntity
  8
LAYER0
 62
         3
100
AcDbLine
 10
-27.6545687165
 20
4.9365855898
 30
0.0
 11
-27.6718308578
 21
4.9701811429
 31
0.0
  0
LINE
  5
1F9
100
AcDbEntity
  8
LAYER0
 62
         3
100
AcDbLine
 10
-27.6718308578
 20
4.9701811429
 30
0.0
 11
-27.6873748531
 21
4.9962963757
 31
0.0
  0
LINE
  5
1FA
100
AcDbEntity
  8
LAYER0
 62
         3
100
AcDbLine
 10
-27.6873748531
 20
4.9962963757
 30
0.0
 11
-27.6995806642
 21
5.0115808075
 31
0.0
  0
LINE
  5
1FB
100
AcDbEntity
  8
LAYER0
 62
         3
100
AcDbLine
 10
-27.6995806642
 20
5.0115808075
 30
0.0
 11
-27.7039254888
 21
5.0141144477
 31
0.0
  0
LINE
  5
1FC
100
AcDbEntity
  8
LAYER0
 62
         3
100
AcDbLine
 10
-27.7039254888
 20
5.0141144477
 30
0.0
 11
-27.706828253
 21
5.0126839574
 31
0.0
  0
LINE
  5
1FD
100
AcDbEntity
  8
LAYER0
 62
         3
100
AcDbLine
 10
-27.706828253
 20
5.0126839574
 30
0.0
 11
-27.7084892668
 21
5.0070187222
 31
0.0
  0
ENDBLK
  5
1FE
100
AcDbEntity
  8
0
100
AcDbBlockEnd
  0
BLOCK
  5
202
100
AcDbEntity
  8
0
100
AcDbBlockBegin
  2
CLUMP38
 70
         0
 10
0.0
 20
0.0
 30
0.0
  3

  1

  0
INSERT
  5
204
100
AcDbEntity
  8
0
100
AcDbBlockReference
  2
CLUMP39
 10
0.0
 20
0.0
 30
0.0
  0
ENDBLK
  5
212
100
AcDbEntity
  8
0
100
AcDbBlockEnd
  0
BLOCK
  5
205
100
AcDbEntity
  8
0
100
AcDbBlockBegin
  2
CLUMP39
 70
         0
 10
0.0
 20
0.0
 30
0.0
  3

  1

  0
LINE
  5
206
100
AcDbEntity
  8
LAYER0
 62
         3
100
AcDbLine
 10
-27.7183335792
 20
4.9734445434
 30
0.0
 11
-27.706640635
 21
4.9130694819
 31
0.0
  0
LINE
  5
207
100
AcDbEntity
  8
LAYER0
 62
         3
100
AcDbLine
 10
-27.706640635
 20
4.9130694819
 30
0.0
 11
-27.6992835741
 21
4.8788197716
 31
0.0
  0
LINE
  5
208
100
AcDbEntity
  8
LAYER0
 62
         3
100
AcDbLine
 10
-27.6992835741
 20
4.8788197716
 30
0.0
 11
-27.6901138067
 21
4.8396954458
 31
0.0
  0
LINE
  5
209
100
AcDbEntity
  8
LAYER0
 62
         3
100
AcDbLine
 10
-27.6901138067
 20
4.8396954458
 30
0.0
 11
-27.6785099206
 21
4.7937287134
 31
0.0
  0
LINE
  5
20A
100
AcDbEntity
  8
LAYER0
 62
         3
100
AcDbLine
 10
-27.6785099206
 20
4.7937287134
 30
0.0
 11
-27.6648970409
 21
4.7419346744
 31
0.0
  0
LINE
  5
20B
100
AcDbEntity
  8
LAYER0
 62
         3
100
AcDbLine
 10
-27.6648970409
 20
4.7419346744
 30
0.0
 11
-27.6497592001
 21
4.6851901107
 31
0.0
  0
LINE
  5
20C
100
AcDbEntity
  8
LAYER0
 62
         3
100
AcDbLine
 10
-27.6497592001
 20
4.6851901107
 30
0.0
 11
-27.633580431
 21
4.6243718039
 31
0.0
  0
LINE
  5
20D
100
AcDbEntity
  8
LAYER0
 62
         3
100
AcDbLine
 10
-27.633580431
 20
4.6243718039
 30
0.0
 11
-27.5980294324
 21
4.4840076804
 31
0.0
  0
LINE
  5
20E
100
AcDbEntity
  8
LAYER0
 62
         3
100
AcDbLine
 10
-27.5980294324
 20
4.4840076804
 30
0.0
 11
-27.5657340471
 21
4.330618694
 31
0.0
  0
LINE
  5
20F
100
AcDbEntity
  8
LAYER0
 62
         3
100
AcDbLine
 10
-27.5657340471
 20
4.330618694
 30
0.0
 11
-27.5427149905
 21
4.1816926777
 31
0.0
  0
LINE
  5
210
100
AcDbEntity
  8
LAYER0
 62
         3
100
AcDbLine
 10
-27.5427149905
 20
4.1816926777
 30
0.0
 11
-27.5234343071
 21
4.0280012559
 31
0.0
  0
ENDBLK
  5
211
100
AcDbEntity
  8
0
100
AcDbBlockEnd
  0
BLOCK
  5
215
100
AcDbEntity
  8
0
100
AcDbBlockBegin
  2
CLUMP40
 70
         0
 10
0.0
 20
0.0
 30
0.0
  3

  1

  0
INSERT
  5
217
100
AcDbEntity
  8
0
100
AcDbBlockReference
  2
CLUMP41
 10
0.0
 20
0.0
 30
0.0
  0
ENDBLK
  5
227
100
AcDbEntity
  8
0
100
AcDbBlockEnd
  0
BLOCK
  5
218
100
AcDbEntity
  8
0
100
AcDbBlockBegin
  2
CLUMP41
 70
         0
 10
0.0
 20
0.0
 30
0.0
  3

  1

  0
LINE
  5
219
100
AcDbEntity
  8
LAYER0
 62
         3
100
AcDbLine
 10
-27.7148623072
 20
3.0466815602
 30
0.0
 11
-27.7144683894
 21
3.0692756361
 31
0.0
  0
LINE
  5
21A
100
AcDbEntity
  8
LAYER0
 62
         3
100
AcDbLine
 10
-27.7144683894
 20
3.0692756361
 30
0.0
 11
-27.7107337542
 21
3.0999802198
 31
0.0
  0
LINE
  5
21B
100
AcDbEntity
  8
LAYER0
 62
         3
100
AcDbLine
 10
-27.7107337542
 20
3.0999802198
 30
0.0
 11
-27.7041580203
 21
3.1320752696
 31
0.0
  0
LINE
  5
21C
100
AcDbEntity
  8
LAYER0
 62
         3
100
AcDbLine
 10
-27.7041580203
 20
3.1320752696
 30
0.0
 11
-27.6945804223
 21
3.1717462676
 31
0.0
  0
LINE
  5
21D
100
AcDbEntity
  8
LAYER0
 62
         3
100
AcDbLine
 10
-27.6945804223
 20
3.1717462676
 30
0.0
 11
-27.6826902376
 21
3.2176079031
 31
0.0
  0
LINE
  5
21E
100
AcDbEntity
  8
LAYER0
 62
         3
100
AcDbLine
 10
-27.6826902376
 20
3.2176079031
 30
0.0
 11
-27.6691767439
 21
3.2682748656
 31
0.0
  0
LINE
  5
21F
100
AcDbEntity
  8
LAYER0
 62
         3
100
AcDbLine
 10
-27.6691767439
 20
3.2682748656
 30
0.0
 11
-27.6380616567
 21
3.385573929
 31
0.0
  0
LINE
  5
220
100
AcDbEntity
  8
LAYER0
 62
         3
100
AcDbLine
 10
-27.6380616567
 20
3.385573929
 30
0.0
 11
-27.6051003538
 21
3.5173542942
 31
0.0
  0
LINE
  5
221
100
AcDbEntity
  8
LAYER0
 62
         3
100
AcDbLine
 10
-27.6051003538
 20
3.5173542942
 30
0.0
 11
-27.5708311447
 21
3.6719516484
 31
0.0
  0
LINE
  5
222
100
AcDbEntity
  8
LAYER0
 62
         3
100
AcDbLine
 10
-27.5708311447
 20
3.6719516484
 30
0.0
 11
-27.5411836855
 21
3.8378950353
 31
0.0
  0
LINE
  5
223
100
AcDbEntity
  8
LAYER0
 62
         3
100
AcDbLine
 10
-27.5411836855
 20
3.8378950353
 30
0.0
 11
-27.5216528077
 21
3.9945586205
 31
0.0
  0
LINE
  5
224
100
AcDbEntity
  8
LAYER0
 62
         3
100
AcDbLine
 10
-27.5216528077
 20
3.9945586205
 30
0.0
 11
-27.5118684448
 21
4.1518792655
 31
0.0
  0
LINE
  5
225
100
AcDbEntity
  8
LAYER0
 62
         3
100
AcDbLine
 10
-27.5118684448
 20
4.1518792655
 30
0.0
 11
-27.5108621508
 21
4.2188208695
 31
0.0
  0
ENDBLK
  5
226
100
AcDbEntity
  8
0
100
AcDbBlockEnd
  0
BLOCK
  5
22A
100
AcDbEntity
  8
0
100
AcDbBlockBegin
  2
CLUMP42
 70
         0
 10
0.0
 20
0.0
 30
0.0
  3

  1

  0
INSERT
  5
22C
100
AcDbEntity
  8
0
100
AcDbBlockReference
  2
CLUMP43
 10
0.0
 20
0.0
 30
0.0
  0
ENDBLK
  5
23C
100
AcDbEntity
  8
0
100
AcDbBlockEnd
  0
BLOCK
  5
22D
100
AcDbEntity
  8
0
100
AcDbBlockBegin
  2
CLUMP43
 70
         0
 10
0.0
 20
0.0
 30
0.0
  3

  1

  0
LINE
  5
22E
100
AcDbEntity
  8
LAYER0
 62
         3
100
AcDbLine
 10
-22.9166194849
 20
3.9939018111
 30
0.0
 11
-22.8967387747
 21
4.1978288587
 31
0.0
  0
LINE
  5
22F
100
AcDbEntity
  8
LAYER0
 62
         3
100
AcDbLine
 10
-22.8967387747
 20
4.1978288587
 30
0.0
 11
-22.8706931825
 21
4.3492516286
 31
0.0
  0
LINE
  5
230
100
AcDbEntity
  8
LAYER0
 62
         3
100
AcDbLine
 10
-22.8706931825
 20
4.3492516286
 30
0.0
 11
-22.8385411255
 21
4.4914711412
 31
0.0
  0
LINE
  5
231
100
AcDbEntity
  8
LAYER0
 62
         3
100
AcDbLine
 10
-22.8385411255
 20
4.4914711412
 30
0.0
 11
-22.8035624231
 21
4.6312058145
 31
0.0
  0
LINE
  5
232
100
AcDbEntity
  8
LAYER0
 62
         3
100
AcDbLine
 10
-22.8035624231
 20
4.6312058145
 30
0.0
 11
-22.7869300743
 21
4.6951120524
 31
0.0
  0
LINE
  5
233
100
AcDbEntity
  8
LAYER0
 62
         3
100
AcDbLine
 10
-22.7869300743
 20
4.6951120524
 30
0.0
 11
-22.7712293208
 21
4.754698291
 31
0.0
  0
LINE
  5
234
100
AcDbEntity
  8
LAYER0
 62
         3
100
AcDbLine
 10
-22.7712293208
 20
4.754698291
 30
0.0
 11
-22.7565264382
 21
4.8105687357
 31
0.0
  0
LINE
  5
235
100
AcDbEntity
  8
LAYER0
 62
         3
100
AcDbLine
 10
-22.7565264382
 20
4.8105687357
 30
0.0
 11
-22.7437034021
 21
4.860607941
 31
0.0
  0
LINE
  5
236
100
AcDbEntity
  8
LAYER0
 62
         3
100
AcDbLine
 10
-22.7437034021
 20
4.860607941
 30
0.0
 11
-22.7333922501
 21
4.9037394706
 31
0.0
  0
LINE
  5
237
100
AcDbEntity
  8
LAYER0
 62
         3
100
AcDbLine
 10
-22.7333922501
 20
4.9037394706
 30
0.0
 11
-22.72622502
 21
4.9388868879
 31
0.0
  0
LINE
  5
238
100
AcDbEntity
  8
LAYER0
 62
         3
100
AcDbLine
 10
-22.72622502
 20
4.9388868879
 30
0.0
 11
-22.7226914898
 21
4.9641794014
 31
0.0
  0
LINE
  5
239
100
AcDbEntity
  8
LAYER0
 62
         3
100
AcDbLine
 10
-22.7226914898
 20
4.9641794014
 30
0.0
 11
-22.7216633297
 21
4.9834601908
 31
0.0
  0
LINE
  5
23A
100
AcDbEntity
  8
LAYER0
 62
         3
100
AcDbLine
 10
-22.7216633297
 20
4.9834601908
 30
0.0
 11
-22.7237826265
 21
5.0120022293
 31
0.0
  0
ENDBLK
  5
23B
100
AcDbEntity
  8
0
100
AcDbBlockEnd
  0
ENDSEC
  0
SECTION
  2
ENTITIES
  0
LINE
  5
2F
100
AcDbEntity
  8
LAYER3
 62
         4
100
AcDbLine
 10
-33.81957443
 20
55.5138568129
 30
0.0
 11
-33.81957443
 21
67.0719333597
 31
0.0
  0
LINE
  5
30
100
AcDbEntity
  8
LAYER3
 62
         4
100
AcDbLine
 10
-53.6821593533
 20
-28.486142489
 30
0.0
 11
-54.3058944258
 21
-25.5516996868
 31
0.0
  0
LINE
  5
31
100
AcDbEntity
  8
LAYER3
 62
         4
100
AcDbLine
 10
-53.6821593533
 20
-28.486142489
 30
0.0
 11
-53.0584242809
 21
-25.5516996868
 31
0.0
  0
LINE
  5
32
100
AcDbEntity
  8
LAYER3
 62
         4
100
AcDbLine
 10
-53.6821593533
 20
54.5138568129
 30
0.0
 11
-53.0584242809
 21
51.5794140107
 31
0.0
  0
LINE
  5
33
100
AcDbEntity
  8
LAYER3
 62
         4
100
AcDbLine
 10
-53.6821593533
 20
54.5138568129
 30
0.0
 11
-54.3058944258
 21
51.5794140107
 31
0.0
  0
LINE
  5
34
100
AcDbEntity
  8
LAYER3
 62
         4
100
AcDbLine
 10
-53.6821593533
 20
54.5138568129
 30
0.0
 11
-53.6821593533
 21
-28.486142489
 31
0.0
  0
LINE
  5
35
100
AcDbEntity
  8
LAYER3
 62
         4
100
AcDbLine
 10
-26.2195743896
 20
-28.486142489
 30
0.0
 11
-54.6821593533
 21
-28.486142489
 31
0.0
  0
LINE
  5
36
100
AcDbEntity
  8
LAYER3
 62
         4
100
AcDbLine
 10
-34.81957443
 20
54.5138568129
 30
0.0
 11
-54.6821593533
 21
54.5138568129
 31
0.0
  0
LINE
  5
37
100
AcDbEntity
  8
LAYER3
 62
         4
100
AcDbLine
 10
55.4023837017
 20
-23.486142489
 30
0.0
 11
54.7786486293
 21
-20.5516996868
 31
0.0
  0
LINE
  5
38
100
AcDbEntity
  8
LAYER3
 62
         4
100
AcDbLine
 10
55.4023837017
 20
-23.486142489
 30
0.0
 11
56.0261187742
 21
-20.5516996868
 31
0.0
  0
LINE
  5
39
100
AcDbEntity
  8
LAYER3
 62
         4
100
AcDbLine
 10
55.4023837017
 20
41.5138568129
 30
0.0
 11
56.0261187742
 21
38.5794140107
 31
0.0
  0
LINE
  5
3A
100
AcDbEntity
  8
LAYER3
 62
         4
100
AcDbLine
 10
55.4023837017
 20
41.5138568129
 30
0.0
 11
54.7786486293
 21
38.5794140107
 31
0.0
  0
LINE
  5
3B
100
AcDbEntity
  8
LAYER3
 62
         4
100
AcDbLine
 10
55.4023837017
 20
41.5138568129
 30
0.0
 11
55.4023837017
 21
-23.486142489
 31
0.0
  0
MTEXT
  5
3C
100
AcDbEntity
  8
LAYER3
100
AcDbMText
 10
-57.4698180448
 20
10.6138570873
 30
0.0
 40
2.1473683357
 41
2.5646459961
 71
         1
 72
         1
  1
\W0.8;83
 11
-0.0000000268
 21
1.0
 31
0.0
  0
MTEXT
  5
3E
100
AcDbEntity
  8
LAYER0
100
AcDbMText
 10
12.1744602544
 20
-132.8866032766
 30
0.0
 40
2.4737683892
 41
50.2260285371
 71
         1
 72
         1
  1
\W0.8;３０用重量級ロングスナップランナー
  0
MTEXT
  5
3F
100
AcDbEntity
  8
LAYER0
100
AcDbMText
 10
-13.9221737419
 20
-132.5157576176
 30
0.0
 40
3.0922104359
 41
7.3861805462
 71
         1
 72
         1
  1
\W0.8;S-2C
  0
MTEXT
  5
40
100
AcDbEntity
  8
LAYER0
100
AcDbMText
 10
-35.7051459079
 20
-126.6461242782
 30
0.0
 40
2.1473683357
 41
6.4116149902
 71
         1
 72
         1
  1
\W0.8;Ｎｏ.
  0
MTEXT
  5
41
100
AcDbEntity
  8
LAYER0
100
AcDbMText
 10
-10.6564309049
 20
-126.7970201517
 30
0.0
 40
2.1473683357
 41
7.6538653946
 71
         1
 72
         1
  1
\W0.8;品　番
  0
MTEXT
  5
42
100
AcDbEntity
  8
LAYER0
100
AcDbMText
 10
32.0542682872
 20
-126.7970201517
 30
0.0
 40
2.1473683357
 41
7.6538653946
 71
         1
 72
         1
  1
\W0.8;品　名
  0
MTEXT
  5
43
100
AcDbEntity
  8
LAYER0
100
AcDbMText
 10
69.2920019132
 20
-133.1354167344
 30
0.0
 40
2.4737683892
 41
8.8634168007
 71
         1
 72
         1
  1
\W0.8;D55535
  0
MTEXT
  5
44
100
AcDbEntity
  8
LAYER0
100
AcDbMText
 10
72.5158633528
 20
-126.7970201517
 30
0.0
 40
2.1473683357
 41
10.2585839844
 71
         1
 72
         1
  1
\W0.8;管理図番
  0
MTEXT
  5
45
100
AcDbEntity
  8
LAYER3
100
AcDbMText
 10
51.6147250103
 20
6.6138570873
 30
0.0
 40
2.1473683357
 41
2.5646459961
 71
         1
 72
         1
  1
\W0.8;65
 11
-0.0000000268
 21
1.0
 31
0.0
  0
LINE
  5
46
100
AcDbEntity
  8
LAYER3
 62
         4
100
AcDbLine
 10
10.6495837781
 20
-41.1683437809
 30
0.0
 11
35.6495837781
 21
-41.1683437809
 31
0.0
  0
LINE
  5
47
100
AcDbEntity
  8
LAYER3
 62
         4
100
AcDbLine
 10
35.6495837781
 20
-16.986142489
 30
0.0
 11
35.6495837781
 21
-42.1683437809
 31
0.0
  0
LINE
  5
48
100
AcDbEntity
  8
LAYER3
 62
         4
100
AcDbLine
 10
10.6495837781
 20
-16.986142489
 30
0.0
 11
10.6495837781
 21
-42.1683437809
 31
0.0
  0
MTEXT
  5
49
100
AcDbEntity
  8
LAYER3
100
AcDbMText
 10
18.3495381062
 20
69.6999662076
 30
0.0
 40
2.1473683357
 41
5.1292919922
 71
         1
 72
         1
  1
\W0.8;21.5
  0
LINE
  5
4A
100
AcDbEntity
  8
LAYER3
 62
         4
100
AcDbLine
 10
33.8995381062
 20
65.9123075162
 30
0.0
 11
30.965095304
 21
65.2885724438
 31
0.0
  0
LINE
  5
4B
100
AcDbEntity
  8
LAYER3
 62
         4
100
AcDbLine
 10
33.8995381062
 20
65.9123075162
 30
0.0
 11
30.965095304
 21
66.5360425887
 31
0.0
  0
LINE
  5
4C
100
AcDbEntity
  8
LAYER3
 62
         4
100
AcDbLine
 10
12.3995381062
 20
65.9123075162
 30
0.0
 11
15.3339809084
 21
66.5360425887
 31
0.0
  0
LINE
  5
4D
100
AcDbEntity
  8
LAYER3
 62
         4
100
AcDbLine
 10
12.3995381062
 20
65.9123075162
 30
0.0
 11
15.3339809084
 21
65.2885724438
 31
0.0
  0
LINE
  5
4E
100
AcDbEntity
  8
LAYER3
 62
         4
100
AcDbLine
 10
12.3995381062
 20
65.9123075162
 30
0.0
 11
33.8995381062
 21
65.9123075162
 31
0.0
  0
LINE
  5
4F
100
AcDbEntity
  8
LAYER3
 62
         4
100
AcDbLine
 10
12.3995381062
 20
49.4283649724
 30
0.0
 11
12.3995381062
 21
66.9123075162
 31
0.0
  0
LINE
  5
50
100
AcDbEntity
  8
LAYER3
 62
         4
100
AcDbLine
 10
33.8995381062
 20
49.4283649724
 30
0.0
 11
33.8995381062
 21
66.9123075162
 31
0.0
  0
INSERT
  5
52
100
AcDbEntity
  8
0
100
AcDbBlockReference
  2
CLUMP0
 10
0.0
 20
0.0
 30
0.0
  0
INSERT
  5
62
100
AcDbEntity
  8
0
100
AcDbBlockReference
  2
CLUMP2
 10
0.0
 20
0.0
 30
0.0
  0
INSERT
  5
72
100
AcDbEntity
  8
0
100
AcDbBlockReference
  2
CLUMP4
 10
0.0
 20
0.0
 30
0.0
  0
INSERT
  5
8B
100
AcDbEntity
  8
0
100
AcDbBlockReference
  2
CLUMP6
 10
0.0
 20
0.0
 30
0.0
  0
INSERT
  5
A3
100
AcDbEntity
  8
0
100
AcDbBlockReference
  2
CLUMP8
 10
0.0
 20
0.0
 30
0.0
  0
INSERT
  5
AF
100
AcDbEntity
  8
0
100
AcDbBlockReference
  2
CLUMP10
 10
0.0
 20
0.0
 30
0.0
  0
INSERT
  5
BE
100
AcDbEntity
  8
0
100
AcDbBlockReference
  2
CLUMP12
 10
0.0
 20
0.0
 30
0.0
  0
MTEXT
  5
D1
100
AcDbEntity
  8
LAYER3
100
AcDbMText
 10
-27.61957443
 20
69.8595920511
 30
0.0
 40
2.1473683357
 41
2.5646459961
 71
         1
 72
         1
  1
\W0.8;17
  0
LINE
  5
D2
100
AcDbEntity
  8
LAYER3
 62
         4
100
AcDbLine
 10
-16.61957443
 20
66.0719333597
 30
0.0
 11
-19.5540172322
 21
65.4481982872
 31
0.0
  0
LINE
  5
D3
100
AcDbEntity
  8
LAYER3
 62
         4
100
AcDbLine
 10
-16.61957443
 20
66.0719333597
 30
0.0
 11
-19.5540172322
 21
66.6956684321
 31
0.0
  0
LINE
  5
D4
100
AcDbEntity
  8
LAYER3
 62
         4
100
AcDbLine
 10
-33.81957443
 20
66.0719333597
 30
0.0
 11
-30.8851316278
 21
66.6956684321
 31
0.0
  0
LINE
  5
D5
100
AcDbEntity
  8
LAYER3
 62
         4
100
AcDbLine
 10
-33.81957443
 20
66.0719333597
 30
0.0
 11
-30.8851316278
 21
65.4481982872
 31
0.0
  0
LINE
  5
D6
100
AcDbEntity
  8
LAYER3
 62
         4
100
AcDbLine
 10
-33.81957443
 20
66.0719333597
 30
0.0
 11
-16.61957443
 21
66.0719333597
 31
0.0
  0
LINE
  5
D7
100
AcDbEntity
  8
LAYER3
 62
         4
100
AcDbLine
 10
-16.61957443
 20
55.5138568129
 30
0.0
 11
-16.61957443
 21
67.0719333597
 31
0.0
  0
INSERT
  5
D9
100
AcDbEntity
  8
0
100
AcDbBlockReference
  2
CLUMP14
 10
0.0
 20
0.0
 30
0.0
  0
INSERT
  5
F5
100
AcDbEntity
  8
0
100
AcDbBlockReference
  2
CLUMP16
 10
0.0
 20
0.0
 30
0.0
  0
INSERT
  5
10C
100
AcDbEntity
  8
0
100
AcDbBlockReference
  2
CLUMP18
 10
0.0
 20
0.0
 30
0.0
  0
INSERT
  5
121
100
AcDbEntity
  8
0
100
AcDbBlockReference
  2
CLUMP20
 10
0.0
 20
0.0
 30
0.0
  0
INSERT
  5
12D
100
AcDbEntity
  8
0
100
AcDbBlockReference
  2
CLUMP22
 10
0.0
 20
0.0
 30
0.0
  0
INSERT
  5
139
100
AcDbEntity
  8
0
100
AcDbBlockReference
  2
CLUMP24
 10
0.0
 20
0.0
 30
0.0
  0
INSERT
  5
168
100
AcDbEntity
  8
0
100
AcDbBlockReference
  2
CLUMP26
 10
0.0
 20
0.0
 30
0.0
  0
INSERT
  5
17E
100
AcDbEntity
  8
0
100
AcDbBlockReference
  2
CLUMP28
 10
0.0
 20
0.0
 30
0.0
  0
LINE
  5
195
100
AcDbEntity
  8
LAYER0
 62
         3
100
AcDbLine
 10
13.6497294438
 20
50.1501632777
 30
0.0
 11
13.388370769
 21
49.9992677764
 31
0.0
  0
ARC
  5
196
100
AcDbEntity
  8
LAYER0
 62
         3
100
AcDbCircle
 10
13.888370769
 20
49.1332423727
 30
0.0
 40
1.0
210
0.0
220
0.0
230
1.0
100
AcDbArc
 50
120.000002047
 51
178.8855777809
  0
LINE
  5
197
100
AcDbEntity
  8
LAYER0
 62
         3
100
AcDbLine
 10
19.8495381062
 20
53.7296244779
 30
0.0
 11
13.6497294438
 21
50.1501632777
 31
0.0
  0
LINE
  5
198
100
AcDbEntity
  8
LAYER0
 62
         3
100
AcDbLine
 10
13.3883707689
 20
49.9992677764
 30
0.0
 11
13.3594939871
 21
49.9749840016
 31
0.0
  0
CIRCLE
  5
199
100
AcDbEntity
  8
LAYER0
 62
         3
100
AcDbCircle
 10
23.1495381062
 20
48.0138568129
 30
0.0
 40
6.5
210
0.0
220
0.0
230
1.0
  0
CIRCLE
  5
19A
100
AcDbEntity
  8
LAYER0
 62
         3
100
AcDbCircle
 10
23.1495381062
 20
48.0138568129
 30
0.0
 40
5.4
210
0.0
220
0.0
230
1.0
  0
CIRCLE
  5
19B
100
AcDbEntity
  8
LAYER0
 62
         3
100
AcDbCircle
 10
23.1495381062
 20
48.0138568129
 30
0.0
 40
3.3
210
0.0
220
0.0
230
1.0
  0
CIRCLE
  5
19C
100
AcDbEntity
  8
LAYER0
 62
         3
100
AcDbCircle
 10
23.1495381062
 20
48.0138568129
 30
0.0
 40
4.9
210
0.0
220
0.0
230
1.0
  0
CIRCLE
  5
19D
100
AcDbEntity
  8
LAYER0
 62
         3
100
AcDbCircle
 10
23.1495381062
 20
48.0138568129
 30
0.0
 40
2.5
210
0.0
220
0.0
230
1.0
  0
LINE
  5
19E
100
AcDbEntity
  8
LAYER0
 62
         3
100
AcDbLine
 10
17.0660256078
 20
30.5138568129
 30
0.0
 11
16.9598463742
 21
30.5373589444
 31
0.0
  0
LINE
  5
19F
100
AcDbEntity
  8
LAYER3
 62
         4
100
AcDbLine
 10
24.1495837781
 20
-23.486142489
 30
0.0
 11
56.4023837017
 21
-23.486142489
 31
0.0
  0
LINE
  5
1A0
100
AcDbEntity
  8
LAYER3
 62
         4
100
AcDbLine
 10
24.1495381062
 20
41.5138568129
 30
0.0
 11
56.4023837017
 21
41.5138568129
 31
0.0
  0
MTEXT
  5
1A1
100
AcDbEntity
  8
LAYER3
100
AcDbMText
 10
20.7495837781
 20
-37.3806850895
 30
0.0
 40
2.1473683357
 41
2.5646459961
 71
         1
 72
         1
  1
\W0.8;25
  0
LINE
  5
1A2
100
AcDbEntity
  8
LAYER3
 62
         4
100
AcDbLine
 10
35.6495837781
 20
-41.1683437809
 30
0.0
 11
32.7151409759
 21
-41.7920788534
 31
0.0
  0
LINE
  5
1A3
100
AcDbEntity
  8
LAYER3
 62
         4
100
AcDbLine
 10
35.6495837781
 20
-41.1683437809
 30
0.0
 11
32.7151409759
 21
-40.5446087085
 31
0.0
  0
LINE
  5
1A4
100
AcDbEntity
  8
LAYER3
 62
         4
100
AcDbLine
 10
10.6495837781
 20
-41.1683437809
 30
0.0
 11
13.5840265803
 21
-40.5446087085
 31
0.0
  0
LINE
  5
1A5
100
AcDbEntity
  8
LAYER3
 62
         4
100
AcDbLine
 10
10.6495837781
 20
-41.1683437809
 30
0.0
 11
13.5840265803
 21
-41.7920788534
 31
0.0
  0
LINE
  5
1A6
100
AcDbEntity
  8
LAYER0
 62
         3
100
AcDbLine
 10
33.3897170901
 20
24.0138568129
 30
0.0
 11
32.8896224958
 21
24.0138568129
 31
0.0
  0
LINE
  5
1A7
100
AcDbEntity
  8
LAYER0
 62
         3
100
AcDbLine
 10
26.4495381062
 20
53.7296244779
 30
0.0
 11
32.6493467686
 21
50.1501632777
 31
0.0
  0
LINE
  5
1A8
100
AcDbEntity
  8
LAYER0
 62
         3
100
AcDbLine
 10
33.4105162905
 20
49.1526915365
 30
0.0
 11
33.8896225137
 21
24.5235813949
 31
0.0
  0
ARC
  5
1A9
100
AcDbEntity
  8
LAYER0
 62
         3
100
AcDbCircle
 10
12.9093591222
 20
24.5138568129
 30
0.0
 40
0.5
210
0.0
220
0.0
230
1.0
100
AcDbArc
 50
178.8855777809
 51
269.9999984648
  0
LINE
  5
1AA
100
AcDbEntity
  8
LAYER0
 62
         3
100
AcDbLine
 10
13.4094537165
 20
24.0138568129
 30
0.0
 11
12.9093591222
 21
24.0138568129
 31
0.0
  0
LINE
  5
1AB
100
AcDbEntity
  8
LAYER0
 62
         3
100
AcDbLine
 10
32.6493467686
 20
50.1501632777
 30
0.0
 11
32.9107054434
 21
49.9992677764
 31
0.0
  0
ARC
  5
1AC
100
AcDbEntity
  8
LAYER0
 62
         3
100
AcDbCircle
 10
23.1495381062
 20
48.0138568129
 30
0.0
 40
6.6
210
0.0
220
-0.0
230
1.0
100
AcDbArc
 50
60.0000010235
 51
120.000002047
  0
LINE
  5
1AD
100
AcDbEntity
  8
LAYER0
 62
         3
100
AcDbLine
 10
12.4094536986
 20
24.5235813949
 30
0.0
 11
12.8885599218
 21
49.1526915365
 31
0.0
  0
LINE
  5
1AE
100
AcDbEntity
  8
LAYER0
 62
         3
100
AcDbLine
 10
32.8896224958
 20
24.0138568129
 30
0.0
 11
30.1645220691
 21
24.0138568129
 31
0.0
  0
ARC
  5
1AF
100
AcDbEntity
  8
LAYER0
 62
         3
100
AcDbCircle
 10
32.4107054434
 20
49.1332423727
 30
0.0
 40
1.0
210
0.0
220
0.0
230
1.0
100
AcDbArc
 50
1.1144252896
 51
60.0000010235
  0
LINE
  5
1B0
100
AcDbEntity
  8
LAYER0
 62
         3
100
AcDbLine
 10
29.3392298381
 20
24.5138568129
 30
0.0
 11
29.3392298381
 21
30.5373589444
 31
0.0
  0
LINE
  5
1B1
100
AcDbEntity
  8
LAYER0
 62
         3
100
AcDbLine
 10
16.9598463742
 20
30.5373589444
 30
0.0
 11
16.9598463742
 21
24.5138568129
 31
0.0
  0
ARC
  5
1B2
100
AcDbEntity
  8
LAYER0
 62
         3
100
AcDbCircle
 10
17.4207924617
 20
24.4739952212
 30
0.0
 40
0.462666448
210
0.0
220
0.0
230
1.0
100
AcDbArc
 50
175.0574877366
 51
264.0076987395
  0
ARC
  5
1B3
100
AcDbEntity
  8
LAYER0
 62
         3
100
AcDbCircle
 10
28.8782837506
 20
24.4739952212
 30
0.0
 40
0.462666448
210
-0.0
220
0.0
230
1.0
100
AcDbArc
 50
275.99229819
 51
4.9425153339
  0
LINE
  5
1B4
100
AcDbEntity
  8
LAYER0
 62
         3
100
AcDbLine
 10
16.1345541432
 20
24.5138568129
 30
0.0
 11
16.1345541432
 21
30.9280703753
 31
0.0
  0
LINE
  5
1B5
100
AcDbEntity
  8
LAYER0
 62
         3
100
AcDbLine
 10
30.1645220691
 20
30.9280703753
 30
0.0
 11
30.1645220691
 21
24.5138568129
 31
0.0
  0
LINE
  5
1B6
100
AcDbEntity
  8
LAYER0
 62
         3
100
AcDbLine
 10
16.1345541432
 20
24.0138568129
 30
0.0
 11
16.1345541432
 21
24.5138568129
 31
0.0
  0
LINE
  5
1B7
100
AcDbEntity
  8
LAYER0
 62
         3
100
AcDbLine
 10
30.1645220691
 20
24.0138568129
 30
0.0
 11
30.1645220691
 21
24.5138568129
 31
0.0
  0
INSERT
  5
1B9
100
AcDbEntity
  8
0
100
AcDbBlockReference
  2
CLUMP30
 10
0.0
 20
0.0
 30
0.0
  0
INSERT
  5
1CD
100
AcDbEntity
  8
0
100
AcDbBlockReference
  2
CLUMP32
 10
0.0
 20
0.0
 30
0.0
  0
INSERT
  5
1D9
100
AcDbEntity
  8
0
100
AcDbBlockReference
  2
CLUMP34
 10
0.0
 20
0.0
 30
0.0
  0
INSERT
  5
1E8
100
AcDbEntity
  8
0
100
AcDbBlockReference
  2
CLUMP36
 10
0.0
 20
0.0
 30
0.0
  0
INSERT
  5
201
100
AcDbEntity
  8
0
100
AcDbBlockReference
  2
CLUMP38
 10
0.0
 20
0.0
 30
0.0
  0
INSERT
  5
214
100
AcDbEntity
  8
0
100
AcDbBlockReference
  2
CLUMP40
 10
0.0
 20
0.0
 30
0.0
  0
INSERT
  5
229
100
AcDbEntity
  8
0
100
AcDbBlockReference
  2
CLUMP42
 10
0.0
 20
0.0
 30
0.0
  0
LINE
  5
23D
100
AcDbEntity
  8
LAYER0
 62
         3
100
AcDbLine
 10
-21.0057731502
 20
24.3225150967
 30
0.0
 11
-21.031865363
 21
24.2360716964
 31
0.0
  0
LINE
  5
23E
100
AcDbEntity
  8
LAYER0
 62
         3
100
AcDbLine
 10
-20.9897056449
 20
24.4163116519
 30
0.0
 11
-21.0057731502
 21
24.3225150967
 31
0.0
  0
LINE
  5
23F
100
AcDbEntity
  8
LAYER0
 62
         3
100
AcDbLine
 10
-20.9842803124
 20
24.5138568129
 30
0.0
 11
-20.9897056449
 21
24.4163116519
 31
0.0
  0
LINE
  5
240
100
AcDbEntity
  8
LAYER0
 62
         3
100
AcDbLine
 10
-29.4494432151
 20
24.4163116519
 30
0.0
 11
-29.4548685476
 21
24.5138568129
 31
0.0
  0
LINE
  5
241
100
AcDbEntity
  8
LAYER0
 62
         3
100
AcDbLine
 10
-29.4333757098
 20
24.3225150967
 30
0.0
 11
-29.4494432151
 21
24.4163116519
 31
0.0
  0
LINE
  5
242
100
AcDbEntity
  8
LAYER0
 62
         3
100
AcDbLine
 10
-29.407283497
 20
24.2360716964
 30
0.0
 11
-29.4333757098
 21
24.3225150967
 31
0.0
  0
LINE
  5
243
100
AcDbEntity
  8
LAYER0
 62
         3
100
AcDbLine
 10
-29.3721692859
 20
24.1603034223
 30
0.0
 11
-29.407283497
 21
24.2360716964
 31
0.0
  0
LINE
  5
244
100
AcDbEntity
  8
LAYER0
 62
         3
100
AcDbLine
 10
-29.3293824958
 20
24.0981220068
 30
0.0
 11
-29.3721692859
 21
24.1603034223
 31
0.0
  0
LINE
  5
245
100
AcDbEntity
  8
LAYER0
 62
         3
100
AcDbLine
 10
-29.2805673991
 20
24.0519170467
 30
0.0
 11
-29.3293824958
 21
24.0981220068
 31
0.0
  0
LINE
  5
246
100
AcDbEntity
  8
LAYER0
 62
         3
100
AcDbLine
 10
-29.2275999327
 20
24.0234641727
 30
0.0
 11
-29.2805673991
 21
24.0519170467
 31
0.0
  0
LINE
  5
247
100
AcDbEntity
  8
LAYER0
 62
         3
100
AcDbLine
 10
-29.1725156065
 20
24.0138568129
 30
0.0
 11
-29.2275999327
 21
24.0234641727
 31
0.0
  0
ARC
  5
248
100
AcDbEntity
  8
LAYER0
 62
         3
100
AcDbCircle
 10
-32.21957443
 20
24.5138568129
 30
0.0
 40
0.5
210
0.0
220
0.0
230
1.0
100
AcDbArc
 50
179.9999969295
 51
269.9999984648
  0
LINE
  5
249
100
AcDbEntity
  8
LAYER0
 62
         3
100
AcDbLine
 10
-32.71957443
 20
30.5138568129
 30
0.0
 11
-32.71957443
 21
24.5138568129
 31
0.0
  0
LINE
  5
24A
100
AcDbEntity
  8
LAYER0
 62
         3
100
AcDbLine
 10
-17.71957443
 20
30.5138568129
 30
0.0
 11
-21.119285171
 21
33.9135675539
 31
0.0
  0
LINE
  5
24B
100
AcDbEntity
  8
LAYER0
 62
         3
100
AcDbLine
 10
-16.61957443
 20
54.5138568129
 30
0.0
 11
-20.61957443
 21
54.5138568129
 31
0.0
  0
LINE
  5
24C
100
AcDbEntity
  8
LAYER0
 62
         3
100
AcDbLine
 10
-20.61957443
 20
41.5138568129
 30
0.0
 11
-16.61957443
 21
41.5138568129
 31
0.0
  0
LINE
  5
24D
100
AcDbEntity
  8
LAYER0
 62
         3
100
AcDbLine
 10
-29.81957443
 20
54.5138568129
 30
0.0
 11
-33.81957443
 21
54.5138568129
 31
0.0
  0
LINE
  5
24E
100
AcDbEntity
  8
LAYER0
 62
         3
100
AcDbLine
 10
-33.81957443
 20
41.5138568129
 30
0.0
 11
-29.81957443
 21
41.5138568129
 31
0.0
  0
LINE
  5
24F
100
AcDbEntity
  8
LAYER0
 62
         3
100
AcDbLine
 10
29.2330506046
 20
30.5138568129
 30
0.0
 11
17.0660256078
 21
30.5138568129
 31
0.0
  0
LINE
  5
250
100
AcDbEntity
  8
LAYER0
 62
         3
100
AcDbLine
 10
29.3392298381
 20
30.5373589444
 30
0.0
 11
29.2330506046
 21
30.5138568129
 31
0.0
  0
LINE
  5
251
100
AcDbEntity
  8
LAYER0
 62
         3
100
AcDbLine
 10
28.9265837227
 20
24.0138568129
 30
0.0
 11
17.3724924896
 21
24.0138568129
 31
0.0
  0
LINE
  5
252
100
AcDbEntity
  8
LAYER0
 62
         3
100
AcDbLine
 10
17.3724924896
 20
24.0138568129
 30
0.0
 11
16.1345541432
 21
24.0138568129
 31
0.0
  0
LINE
  5
253
100
AcDbEntity
  8
LAYER0
 62
         3
100
AcDbLine
 10
30.1645220691
 20
24.0138568129
 30
0.0
 11
28.9265837227
 21
24.0138568129
 31
0.0
  0
LINE
  5
254
100
AcDbEntity
  8
LAYER0
 62
         3
100
AcDbLine
 10
16.1345541432
 20
24.0138568129
 30
0.0
 11
13.4094537165
 21
24.0138568129
 31
0.0
  0
ARC
  5
255
100
AcDbEntity
  8
LAYER0
 62
         3
100
AcDbCircle
 10
33.3897170901
 20
24.5138568129
 30
0.0
 40
0.5
210
-0.0
220
0.0
230
1.0
100
AcDbArc
 50
269.9999984648
 51
1.1144252896
  0
LINE
  5
256
100
AcDbEntity
  8
LAYER0
 62
         3
100
AcDbLine
 10
-34.11957443
 20
45.5138568129
 30
0.0
 11
-33.81957443
 21
45.5138568129
 31
0.0
  0
LINE
  5
257
100
AcDbEntity
  8
LAYER0
 62
         3
100
AcDbLine
 10
-22.71957443
 20
54.5138568129
 30
0.0
 11
-25.21957443
 21
54.5138568129
 31
0.0
  0
LINE
  5
258
100
AcDbEntity
  8
LAYER0
 62
         3
100
AcDbLine
 10
-25.21957443
 20
54.5138568129
 30
0.0
 11
-27.71957443
 21
54.5138568129
 31
0.0
  0
ARC
  5
259
100
AcDbEntity
  8
LAYER0
 62
         3
100
AcDbCircle
 10
-20.4195996536
 20
34.6279902487
 30
0.0
 40
0.9999747793
210
0.0
220
0.0
230
1.0
100
AcDbArc
 50
180.1065048359
 51
225.7243381048
  0
ARC
  5
25A
100
AcDbEntity
  8
LAYER0
 62
         3
100
AcDbCircle
 10
-30.0195491406
 20
34.6279902309
 30
0.0
 40
0.9999747135
210
0.0
220
0.0
230
1.0
100
AcDbArc
 50
314.4660109603
 51
359.8934931097
  0
ARC
  5
25B
100
AcDbEntity
  8
LAYER0
 62
         3
100
AcDbCircle
 10
-18.21957443
 20
24.5138568129
 30
0.0
 40
0.5
210
-0.0
220
0.0
230
1.0
100
AcDbArc
 50
269.9999984648
 51
0.0
  0
LINE
  5
25C
100
AcDbEntity
  8
LAYER0
 62
         3
100
AcDbLine
 10
-17.71957443
 20
24.5138568129
 30
0.0
 11
-17.71957443
 21
30.5138568129
 31
0.0
  0
LINE
  5
25D
100
AcDbEntity
  8
LAYER0
 62
         3
100
AcDbLine
 10
-29.01957443
 20
49.7171505758
 30
0.0
 11
-29.01957443
 21
53.296611776
 31
0.0
  0
LINE
  5
25E
100
AcDbEntity
  8
LAYER0
 62
         3
100
AcDbLine
 10
-20.8331321721
 20
30.5138568129
 30
0.0
 11
-20.9842803124
 21
30.5373589444
 31
0.0
  0
LINE
  5
25F
100
AcDbEntity
  8
LAYER0
 62
         3
100
AcDbLine
 10
-29.319863689
 20
33.9135675539
 30
0.0
 11
-32.71957443
 21
30.5138568129
 31
0.0
  0
LINE
  5
260
100
AcDbEntity
  8
LAYER0
 62
         3
100
AcDbLine
 10
-20.71957443
 20
52.0138568129
 30
0.0
 11
-21.41957443
 21
52.0138568129
 31
0.0
  0
LINE
  5
261
100
AcDbEntity
  8
LAYER0
 62
         3
100
AcDbLine
 10
-21.41957443
 20
44.0138568129
 30
0.0
 11
-20.71957443
 21
44.0138568129
 31
0.0
  0
LINE
  5
262
100
AcDbEntity
  8
LAYER0
 62
         3
100
AcDbLine
 10
-29.71957443
 20
44.0138568129
 30
0.0
 11
-29.01957443
 21
44.0138568129
 31
0.0
  0
LINE
  5
263
100
AcDbEntity
  8
LAYER0
 62
         3
100
AcDbLine
 10
-29.01957443
 20
52.0138568129
 30
0.0
 11
-29.71957443
 21
52.0138568129
 31
0.0
  0
ARC
  5
264
100
AcDbEntity
  8
LAYER0
 62
         3
100
AcDbCircle
 10
-21.91957443
 20
54.1138568129
 30
0.0
 40
0.5
210
0.0
220
-0.0
230
1.0
100
AcDbArc
 50
0.0
 51
90.0000015352
  0
LINE
  5
265
100
AcDbEntity
  8
LAYER0
 62
         3
100
AcDbLine
 10
-21.91957443
 20
54.6138568129
 30
0.0
 11
-22.71957443
 21
54.6138568129
 31
0.0
  0
LINE
  5
266
100
AcDbEntity
  8
LAYER0
 62
         3
100
AcDbLine
 10
-27.71957443
 20
54.6138568129
 30
0.0
 11
-28.51957443
 21
54.6138568129
 31
0.0
  0
ARC
  5
267
100
AcDbEntity
  8
LAYER0
 62
         3
100
AcDbCircle
 10
-28.51957443
 20
54.1138568129
 30
0.0
 40
0.5
210
0.0
220
0.0
230
1.0
100
AcDbArc
 50
90.0000015352
 51
179.9999969295
  0
ARC
  5
268
100
AcDbEntity
  8
LAYER0
 62
         3
100
AcDbCircle
 10
-21.88832443
 20
53.2605273842
 30
0.0
 40
0.4701368373
210
0.0
220
-0.0
230
1.0
100
AcDbArc
 50
4.4019497274
 51
93.8112626497
  0
LINE
  5
269
100
AcDbEntity
  8
LAYER0
 62
         3
100
AcDbLine
 10
-21.91957443
 20
53.7296244779
 30
0.0
 11
-22.71957443
 21
53.7296244779
 31
0.0
  0
LINE
  5
26A
100
AcDbEntity
  8
LAYER0
 62
         3
100
AcDbLine
 10
-21.2115489273
 20
24.0234641727
 30
0.0
 11
-21.2666332535
 21
24.0138568129
 31
0.0
  0
LINE
  5
26B
100
AcDbEntity
  8
LAYER0
 62
         3
100
AcDbLine
 10
-21.1585814609
 20
24.0519170467
 30
0.0
 11
-21.2115489273
 21
24.0234641727
 31
0.0
  0
LINE
  5
26C
100
AcDbEntity
  8
LAYER0
 62
         3
100
AcDbLine
 10
-21.1097663642
 20
24.0981220068
 30
0.0
 11
-21.1585814609
 21
24.0519170467
 31
0.0
  0
LINE
  5
26D
100
AcDbEntity
  8
LAYER0
 62
         3
100
AcDbLine
 10
-21.0669795741
 20
24.1603034223
 30
0.0
 11
-21.1097663642
 21
24.0981220068
 31
0.0
  0
LINE
  5
26E
100
AcDbEntity
  8
LAYER0
 62
         3
100
AcDbLine
 10
-21.031865363
 20
24.2360716964
 30
0.0
 11
-21.0669795741
 21
24.1603034223
 31
0.0
  0
LINE
  5
26F
100
AcDbEntity
  8
LAYER0
 62
         3
100
AcDbLine
 10
-28.01957443
 20
24.0138568129
 30
0.0
 11
-28.01957443
 21
24.5235813948
 31
0.0
  0
LINE
  5
270
100
AcDbEntity
  8
LAYER0
 62
         3
100
AcDbLine
 10
-25.21957443
 20
50.593068115
 30
0.0
 11
-25.21957443
 21
51.1768197944
 31
0.0
  0
LINE
  5
271
100
AcDbEntity
  8
LAYER0
 62
         3
100
AcDbLine
 10
-25.21957443
 20
53.6430219375
 30
0.0
 11
-25.21957443
 21
51.1768197944
 31
0.0
  0
LINE
  5
272
100
AcDbEntity
  8
LAYER0
 62
         3
100
AcDbLine
 10
-25.21957443
 20
54.5138568129
 30
0.0
 11
-25.21957443
 21
53.6430219375
 31
0.0
  0
LINE
  5
273
100
AcDbEntity
  8
LAYER0
 62
         3
100
AcDbLine
 10
-21.91957443
 20
24.0138568129
 30
0.0
 11
-22.41957443
 21
24.0138568129
 31
0.0
  0
ARC
  5
274
100
AcDbEntity
  8
LAYER0
 62
         3
100
AcDbCircle
 10
-21.91957443
 20
24.5138568129
 30
0.0
 40
0.5
210
-0.0
220
0.0
230
1.0
100
AcDbArc
 50
269.9999984648
 51
0.0
  0
LINE
  5
275
100
AcDbEntity
  8
LAYER0
 62
         3
100
AcDbLine
 10
-22.41957443
 20
24.0138568129
 30
0.0
 11
-28.01957443
 21
24.0138568129
 31
0.0
  0
LINE
  5
276
100
AcDbEntity
  8
LAYER0
 62
         3
100
AcDbLine
 10
-28.01957443
 20
24.0138568129
 30
0.0
 11
-28.51957443
 21
24.0138568129
 31
0.0
  0
ARC
  5
277
100
AcDbEntity
  8
LAYER0
 62
         3
100
AcDbCircle
 10
-28.51957443
 20
24.5138568129
 30
0.0
 40
0.5
210
0.0
220
0.0
230
1.0
100
AcDbArc
 50
179.9999969295
 51
269.9999984648
  0
LINE
  5
278
100
AcDbEntity
  8
LAYER0
 62
         3
100
AcDbLine
 10
-21.41957443
 20
49.7171505758
 30
0.0
 11
-21.41957443
 21
24.5138568129
 31
0.0
  0
LINE
  5
279
100
AcDbEntity
  8
LAYER0
 62
         3
100
AcDbLine
 10
-29.01957443
 20
24.5138568129
 30
0.0
 11
-29.01957443
 21
49.7171505758
 31
0.0
  0
LINE
  5
27A
100
AcDbEntity
  8
LAYER0
 62
         3
100
AcDbLine
 10
-27.71957443
 20
50.593068115
 30
0.0
 11
-27.71957443
 21
53.7296244779
 31
0.0
  0
LINE
  5
27B
100
AcDbEntity
  8
LAYER0
 62
         3
100
AcDbLine
 10
-22.71957443
 20
50.593068115
 30
0.0
 11
-27.71957443
 21
50.593068115
 31
0.0
  0
LINE
  5
27C
100
AcDbEntity
  8
LAYER0
 62
         3
100
AcDbLine
 10
-22.71957443
 20
50.593068115
 30
0.0
 11
-22.71957443
 21
53.7296244779
 31
0.0
  0
LINE
  5
27D
100
AcDbEntity
  8
LAYER0
 62
         3
100
AcDbLine
 10
-21.41957443
 20
53.296611776
 30
0.0
 11
-21.41957443
 21
49.7171505758
 31
0.0
  0
ARC
  5
27E
100
AcDbEntity
  8
LAYER0
 62
         3
100
AcDbCircle
 10
-28.55082443
 20
53.2605273842
 30
0.0
 40
0.4701368373
210
0.0
220
-0.0
230
1.0
100
AcDbArc
 50
86.1887404207
 51
175.5980533431
  0
LINE
  5
27F
100
AcDbEntity
  8
LAYER0
 62
         3
100
AcDbLine
 10
-21.12477059
 20
33.9080821348
 30
0.0
 11
-21.1246549135
 21
33.9073079607
 31
0.0
  0
LINE
  5
280
100
AcDbEntity
  8
LAYER0
 62
         3
100
AcDbLine
 10
-21.2666332535
 20
24.0138568129
 30
0.0
 11
-21.91957443
 21
24.0138568129
 31
0.0
  0
LINE
  5
281
100
AcDbEntity
  8
LAYER0
 62
         3
100
AcDbLine
 10
-20.61957443
 20
51.0138568129
 30
0.0
 11
-20.71957443
 21
51.0138568129
 31
0.0
  0
LINE
  5
282
100
AcDbEntity
  8
LAYER0
 62
         3
100
AcDbLine
 10
-29.71957443
 20
51.0138568129
 30
0.0
 11
-29.81957443
 21
51.0138568129
 31
0.0
  0
LINE
  5
283
100
AcDbEntity
  8
LAYER0
 62
         3
100
AcDbLine
 10
-29.81957443
 20
45.0138568129
 30
0.0
 11
-29.71957443
 21
45.0138568129
 31
0.0
  0
LINE
  5
284
100
AcDbEntity
  8
LAYER0
 62
         3
100
AcDbLine
 10
-20.71957443
 20
45.0138568129
 30
0.0
 11
-20.61957443
 21
45.0138568129
 31
0.0
  0
LINE
  5
285
100
AcDbEntity
  8
LAYER0
 62
         3
100
AcDbLine
 10
-16.31957443
 20
50.5138568129
 30
0.0
 11
-16.61957443
 21
50.5138568129
 31
0.0
  0
LINE
  5
286
100
AcDbEntity
  8
LAYER0
 62
         3
100
AcDbLine
 10
-16.61957443
 20
45.5138568129
 30
0.0
 11
-16.31957443
 21
45.5138568129
 31
0.0
  0
LINE
  5
287
100
AcDbEntity
  8
LAYER0
 62
         3
100
AcDbLine
 10
-33.81957443
 20
50.5138568129
 30
0.0
 11
-34.11957443
 21
50.5138568129
 31
0.0
  0
LINE
  5
288
100
AcDbEntity
  8
LAYER0
 62
         3
100
AcDbLine
 10
-20.71957443
 20
48.0138568129
 30
0.0
 11
-20.71957443
 21
52.0138568129
 31
0.0
  0
LINE
  5
289
100
AcDbEntity
  8
LAYER0
 62
         3
100
AcDbLine
 10
-20.71957443
 20
44.0138568129
 30
0.0
 11
-20.71957443
 21
48.0138568129
 31
0.0
  0
LINE
  5
28A
100
AcDbEntity
  8
LAYER0
 62
         3
100
AcDbLine
 10
-29.71957443
 20
48.0138568129
 30
0.0
 11
-29.71957443
 21
52.0138568129
 31
0.0
  0
LINE
  5
28B
100
AcDbEntity
  8
LAYER0
 62
         3
100
AcDbLine
 10
-29.71957443
 20
44.0138568129
 30
0.0
 11
-29.71957443
 21
48.0138568129
 31
0.0
  0
LINE
  5
28C
100
AcDbEntity
  8
LAYER0
 62
         3
100
AcDbLine
 10
-21.41957443
 20
54.1138568129
 30
0.0
 11
-21.41957443
 21
53.296611776
 31
0.0
  0
LINE
  5
28D
100
AcDbEntity
  8
LAYER0
 62
         3
100
AcDbLine
 10
-22.71957443
 20
53.7296244779
 30
0.0
 11
-22.71957443
 21
54.6138568129
 31
0.0
  0
LINE
  5
28E
100
AcDbEntity
  8
LAYER0
 62
         3
100
AcDbLine
 10
-27.71957443
 20
53.7296244779
 30
0.0
 11
-27.71957443
 21
54.6138568129
 31
0.0
  0
LINE
  5
28F
100
AcDbEntity
  8
LAYER0
 62
         3
100
AcDbLine
 10
-29.01957443
 20
53.296611776
 30
0.0
 11
-29.01957443
 21
54.1138568129
 31
0.0
  0
LINE
  5
290
100
AcDbEntity
  8
LAYER0
 62
         3
100
AcDbLine
 10
-25.21957443
 20
51.1768197944
 30
0.0
 11
-22.71957443
 21
51.1768197944
 31
0.0
  0
LINE
  5
291
100
AcDbEntity
  8
LAYER0
 62
         3
100
AcDbLine
 10
-22.71957443
 20
53.6430219375
 30
0.0
 11
-25.21957443
 21
53.6430219375
 31
0.0
  0
LINE
  5
292
100
AcDbEntity
  8
LAYER0
 62
         3
100
AcDbLine
 10
-27.71957443
 20
51.1768197944
 30
0.0
 11
-25.21957443
 21
51.1768197944
 31
0.0
  0
LINE
  5
293
100
AcDbEntity
  8
LAYER0
 62
         3
100
AcDbLine
 10
-27.71957443
 20
53.6430219375
 30
0.0
 11
-25.21957443
 21
53.6430219375
 31
0.0
  0
LINE
  5
294
100
AcDbEntity
  8
LAYER0
 62
         3
100
AcDbLine
 10
-22.41957443
 20
24.5235813948
 30
0.0
 11
-22.41957443
 21
49.1526915365
 31
0.0
  0
LINE
  5
295
100
AcDbEntity
  8
LAYER0
 62
         3
100
AcDbLine
 10
-22.41957443
 20
49.1526915365
 30
0.0
 11
-28.01957443
 21
49.1526915365
 31
0.0
  0
LINE
  5
296
100
AcDbEntity
  8
LAYER0
 62
         3
100
AcDbLine
 10
-28.01957443
 20
49.1526915365
 30
0.0
 11
-28.01957443
 21
24.5235813948
 31
0.0
  0
LINE
  5
297
100
AcDbEntity
  8
LAYER0
 62
         3
100
AcDbLine
 10
-28.51957443
 20
53.7296244779
 30
0.0
 11
-27.71957443
 21
53.7296244779
 31
0.0
  0
LINE
  5
298
100
AcDbEntity
  8
LAYER0
 62
         3
100
AcDbLine
 10
-20.9842803124
 20
30.5373589444
 30
0.0
 11
-20.9842803124
 21
24.5138568129
 31
0.0
  0
LINE
  5
299
100
AcDbEntity
  8
LAYER0
 62
         3
100
AcDbLine
 10
-29.4548685476
 20
24.5138568129
 30
0.0
 11
-29.4548685476
 21
30.5373589444
 31
0.0
  0
LINE
  5
29A
100
AcDbEntity
  8
LAYER0
 62
         3
100
AcDbLine
 10
-20.61957443
 20
54.5138568129
 30
0.0
 11
-20.61957443
 21
41.5138568129
 31
0.0
  0
LINE
  5
29B
100
AcDbEntity
  8
LAYER0
 62
         3
100
AcDbLine
 10
-16.61957443
 20
54.5138568129
 30
0.0
 11
-16.61957443
 21
41.5138568129
 31
0.0
  0
LINE
  5
29C
100
AcDbEntity
  8
LAYER0
 62
         3
100
AcDbLine
 10
-33.81957443
 20
54.5138568129
 30
0.0
 11
-33.81957443
 21
41.5138568129
 31
0.0
  0
LINE
  5
29D
100
AcDbEntity
  8
LAYER0
 62
         3
100
AcDbLine
 10
-29.81957443
 20
54.5138568129
 30
0.0
 11
-29.81957443
 21
41.5138568129
 31
0.0
  0
LINE
  5
29E
100
AcDbEntity
  8
LAYER0
 62
         3
100
AcDbLine
 10
-16.31957443
 20
50.5138568129
 30
0.0
 11
-16.31957443
 21
45.5138568129
 31
0.0
  0
LINE
  5
29F
100
AcDbEntity
  8
LAYER0
 62
         3
100
AcDbLine
 10
-34.11957443
 20
50.5138568129
 30
0.0
 11
-34.11957443
 21
45.5138568129
 31
0.0
  0
LINE
  5
2A0
100
AcDbEntity
  8
LAYER0
 62
         3
100
AcDbLine
 10
-22.41957443
 20
24.0138568129
 30
0.0
 11
-22.41957443
 21
24.5235813948
 31
0.0
  0
LINE
  5
2A1
100
AcDbEntity
  8
LAYER0
 62
         3
100
AcDbLine
 10
-24.4364678446
 20
-10.4252447695
 30
0.0
 11
-24.0697671479
 21
-10.4580291868
 31
0.0
  0
LINE
  5
2A2
100
AcDbEntity
  8
LAYER0
 62
         3
100
AcDbLine
 10
-24.8229997459
 20
-10.4052360025
 30
0.0
 11
-24.4364678446
 21
-10.4252447695
 31
0.0
  0
LINE
  5
2A3
100
AcDbEntity
  8
LAYER0
 62
         3
100
AcDbLine
 10
-25.2195743896
 20
-10.3985096416
 30
0.0
 11
-24.8229997459
 21
-10.4052360025
 31
0.0
  0
LINE
  5
2A4
100
AcDbEntity
  8
LAYER0
 62
         3
100
AcDbLine
 10
-25.6161490333
 20
-10.4052360025
 30
0.0
 11
-25.2195743896
 21
-10.3985096416
 31
0.0
  0
LINE
  5
2A5
100
AcDbEntity
  8
LAYER0
 62
         3
100
AcDbLine
 10
-26.0026809346
 20
-10.4252447695
 30
0.0
 11
-25.6161490333
 21
-10.4052360025
 31
0.0
  0
LINE
  5
2A6
100
AcDbEntity
  8
LAYER0
 62
         3
100
AcDbLine
 10
-26.3693816314
 20
-10.4580291868
 30
0.0
 11
-26.0026809346
 21
-10.4252447695
 31
0.0
  0
LINE
  5
2A7
100
AcDbEntity
  8
LAYER0
 62
         3
100
AcDbLine
 10
-26.7069648771
 20
-10.5027589802
 30
0.0
 11
-26.3693816314
 21
-10.4580291868
 31
0.0
  0
LINE
  5
2A8
100
AcDbEntity
  8
LAYER0
 62
         3
100
AcDbLine
 10
-27.006881829
 20
-10.5583015452
 30
0.0
 11
-26.7069648771
 21
-10.5027589802
 31
0.0
  0
LINE
  5
2A9
100
AcDbEntity
  8
LAYER0
 62
         3
100
AcDbLine
 10
-27.2615373187
 20
-10.6232503517
 30
0.0
 11
-27.006881829
 21
-10.5583015452
 31
0.0
  0
LINE
  5
2AA
100
AcDbEntity
  8
LAYER0
 62
         3
100
AcDbLine
 10
-27.4644827522
 20
-10.6959605677
 30
0.0
 11
-27.2615373187
 21
-10.6232503517
 31
0.0
  0
LINE
  5
2AB
100
AcDbEntity
  8
LAYER0
 62
         3
100
AcDbLine
 10
-27.6105788589
 20
-10.7745908522
 30
0.0
 11
-27.4644827522
 21
-10.6959605677
 31
0.0
  0
LINE
  5
2AC
100
AcDbEntity
  8
LAYER0
 62
         3
100
AcDbLine
 10
-27.6961254939
 20
-10.8571500373
 30
0.0
 11
-27.6105788589
 21
-10.7745908522
 31
0.0
  0
LINE
  5
2AD
100
AcDbEntity
  8
LAYER0
 62
         3
100
AcDbLine
 10
-27.7195743337
 20
-10.9297384829
 30
0.0
 11
-27.6961254939
 21
-10.8571500373
 31
0.0
  0
LINE
  5
2AE
100
AcDbEntity
  8
LAYER0
 62
         3
100
AcDbLine
 10
-22.7503534924
 20
4.6489857282
 30
0.0
 11
-22.7861512039
 21
4.6103079017
 31
0.0
  0
LINE
  5
2AF
100
AcDbEntity
  8
LAYER0
 62
         3
100
AcDbLine
 10
-22.7195744455
 20
4.7320876415
 30
0.0
 11
-22.7503534924
 21
4.6489857282
 31
0.0
  0
LINE
  5
2B0
100
AcDbEntity
  8
LAYER0
 62
         3
100
AcDbLine
 10
-27.6887952868
 20
4.6489857282
 30
0.0
 11
-27.7195743337
 21
4.7320876415
 31
0.0
  0
LINE
  5
2B1
100
AcDbEntity
  8
LAYER0
 62
         3
100
AcDbLine
 10
-27.659904962
 20
4.6167172636
 30
0.0
 11
-27.6887952868
 21
4.6489857282
 31
0.0
  0
LINE
  5
2B2
100
AcDbEntity
  8
LAYER0
 62
         3
100
AcDbLine
 10
13.9415791375
 20
-13.5175726232
 30
0.0
 11
13.6781638605
 21
-13.1146102999
 31
0.0
  0
LINE
  5
2B3
100
AcDbEntity
  8
LAYER0
 62
         3
100
AcDbLine
 10
-28.51957443
 20
24.0138568129
 30
0.0
 11
-29.1725156065
 21
24.0138568129
 31
0.0
  0
LINE
  5
2B4
100
AcDbEntity
  8
LAYER0
 62
         3
100
AcDbLine
 10
-29.4548685476
 20
30.5373589444
 30
0.0
 11
-29.6060166879
 21
30.5138568129
 31
0.0
  0
LINE
  5
2B5
100
AcDbEntity
  8
LAYER0
 62
         3
100
AcDbLine
 10
-29.3144927962
 20
33.9073156589
 30
0.0
 11
-29.31437827
 21
33.9080821348
 31
0.0
  0
LINE
  5
2B6
100
AcDbEntity
  8
LAYER0
 62
         3
100
AcDbLine
 10
-18.21957443
 20
24.0138568129
 30
0.0
 11
-21.2666332535
 21
24.0138568129
 31
0.0
  0
LINE
  5
2B7
100
AcDbEntity
  8
LAYER0
 62
         3
100
AcDbLine
 10
-17.71957443
 20
30.5138568129
 30
0.0
 11
-20.8331321721
 21
30.5138568129
 31
0.0
  0
LINE
  5
2B8
100
AcDbEntity
  8
LAYER0
 62
         3
100
AcDbLine
 10
-29.1725156065
 20
24.0138568129
 30
0.0
 11
-32.21957443
 21
24.0138568129
 31
0.0
  0
LINE
  5
2B9
100
AcDbEntity
  8
LAYER0
 62
         3
100
AcDbLine
 10
-29.6060166879
 20
30.5138568129
 30
0.0
 11
-32.71957443
 21
30.5138568129
 31
0.0
  0
LINE
  5
2BA
100
AcDbEntity
  8
LAYER0
 62
         3
100
AcDbLine
 10
15.4837543261
 20
-15.8767202724
 30
0.0
 11
15.395790909
 21
-15.7421581302
 31
0.0
  0
LINE
  5
2BB
100
AcDbEntity
  8
LAYER0
 62
         3
100
AcDbLine
 10
15.7559631509
 20
-13.5497214128
 30
0.0
 11
15.9208072466
 21
-13.584240884
 31
0.0
  0
LINE
  5
2BC
100
AcDbEntity
  8
LAYER0
 62
         3
100
AcDbLine
 10
15.5475648237
 20
-13.5060805683
 30
0.0
 11
15.7559631509
 21
-13.5497214128
 31
0.0
  0
LINE
  5
2BD
100
AcDbEntity
  8
LAYER0
 62
         3
100
AcDbLine
 10
15.2999801678
 20
-13.4542338405
 30
0.0
 11
15.5475648237
 21
-13.5060805683
 31
0.0
  0
LINE
  5
2BE
100
AcDbEntity
  8
LAYER0
 62
         3
100
AcDbLine
 10
15.0183985126
 20
-13.395268083
 30
0.0
 11
15.2999801678
 21
-13.4542338405
 31
0.0
  0
LINE
  5
2BF
100
AcDbEntity
  8
LAYER0
 62
         3
100
AcDbLine
 10
14.7087225807
 20
-13.3304191608
 30
0.0
 11
15.0183985126
 21
-13.395268083
 31
0.0
  0
LINE
  5
2C0
100
AcDbEntity
  8
LAYER0
 62
         3
100
AcDbLine
 10
14.3774436903
 20
-13.2610463392
 30
0.0
 11
14.7087225807
 21
-13.3304191608
 31
0.0
  0
LINE
  5
2C1
100
AcDbEntity
  8
LAYER0
 62
         3
100
AcDbLine
 10
14.0315076453
 20
-13.1886038784
 30
0.0
 11
14.3774436903
 21
-13.2610463392
 31
0.0
  0
LINE
  5
2C2
100
AcDbEntity
  8
LAYER0
 62
         3
100
AcDbLine
 10
13.6781638605
 20
-13.1146102999
 30
0.0
 11
14.0315076453
 21
-13.1886038784
 31
0.0
  0
LINE
  5
2C3
100
AcDbEntity
  8
LAYER0
 62
         3
100
AcDbLine
 10
14.2150284839
 20
-10.9793145298
 30
0.0
 11
14.0714483452
 21
-10.9492475953
 31
0.0
  0
LINE
  5
2C4
100
AcDbEntity
  8
LAYER0
 62
         3
100
AcDbLine
 10
14.6049527568
 20
-11.0609683529
 30
0.0
 11
14.2150284839
 21
-10.9793145298
 31
0.0
  0
LINE
  5
2C5
100
AcDbEntity
  8
LAYER0
 62
         3
100
AcDbLine
 10
14.9826301378
 20
-11.1400576629
 30
0.0
 11
14.6049527568
 21
-11.0609683529
 31
0.0
  0
LINE
  5
2C6
100
AcDbEntity
  8
LAYER0
 62
         3
100
AcDbLine
 10
15.3383413446
 20
-11.2145471707
 30
0.0
 11
14.9826301378
 21
-11.1400576629
 31
0.0
  0
LINE
  5
2C7
100
AcDbEntity
  8
LAYER0
 62
         3
100
AcDbLine
 10
15.6629333389
 20
-11.2825197488
 30
0.0
 11
15.3383413446
 21
-11.2145471707
 31
0.0
  0
LINE
  5
2C8
100
AcDbEntity
  8
LAYER0
 62
         3
100
AcDbLine
 10
15.9480521572
 20
-11.3422263734
 30
0.0
 11
15.6629333389
 21
-11.2825197488
 31
0.0
  0
LINE
  5
2C9
100
AcDbEntity
  8
LAYER0
 62
         3
100
AcDbLine
 10
16.1863608402
 20
-11.3921305951
 30
0.0
 11
15.9480521572
 21
-11.3422263734
 31
0.0
  0
LINE
  5
2CA
100
AcDbEntity
  8
LAYER0
 62
         3
100
AcDbLine
 10
16.3717256975
 20
-11.4309478872
 30
0.0
 11
16.1863608402
 21
-11.3921305951
 31
0.0
  0
LINE
  5
2CB
100
AcDbEntity
  8
LAYER0
 62
         3
100
AcDbLine
 10
19.0761281294
 20
0.5695236992
 30
0.0
 11
19.0970605356
 21
0.5651399638
 31
0.0
  0
LINE
  5
2CC
100
AcDbEntity
  8
LAYER0
 62
         3
100
AcDbLine
 10
-22.7430232853
 20
-10.8571500373
 30
0.0
 11
-22.7195744455
 21
-10.9297384829
 31
0.0
  0
LINE
  5
2CD
100
AcDbEntity
  8
LAYER0
 62
         3
100
AcDbLine
 10
-22.8285699204
 20
-10.7745908522
 30
0.0
 11
-22.7430232853
 21
-10.8571500373
 31
0.0
  0
LINE
  5
2CE
100
AcDbEntity
  8
LAYER0
 62
         3
100
AcDbLine
 10
-22.974666027
 20
-10.6959605677
 30
0.0
 11
-22.8285699204
 21
-10.7745908522
 31
0.0
  0
LINE
  5
2CF
100
AcDbEntity
  8
LAYER0
 62
         3
100
AcDbLine
 10
-23.1776114605
 20
-10.6232503517
 30
0.0
 11
-22.974666027
 21
-10.6959605677
 31
0.0
  0
LINE
  5
2D0
100
AcDbEntity
  8
LAYER0
 62
         3
100
AcDbLine
 10
-23.4322669502
 20
-10.5583015452
 30
0.0
 11
-23.1776114605
 21
-10.6232503517
 31
0.0
  0
LINE
  5
2D1
100
AcDbEntity
  8
LAYER0
 62
         3
100
AcDbLine
 10
-23.7321839022
 20
-10.5027589802
 30
0.0
 11
-23.4322669502
 21
-10.5583015452
 31
0.0
  0
LINE
  5
2D2
100
AcDbEntity
  8
LAYER0
 62
         3
100
AcDbLine
 10
-24.0697671479
 20
-10.4580291868
 30
0.0
 11
-23.7321839022
 21
-10.5027589802
 31
0.0
  0
LINE
  5
2D3
100
AcDbEntity
  8
LAYER0
 62
         3
100
AcDbLine
 10
19.6121210349
 20
7.1779418882
 30
0.0
 11
19.8383690906
 21
7.1840122487
 31
0.0
  0
LINE
  5
2D4
100
AcDbEntity
  8
LAYER0
 62
         3
100
AcDbLine
 10
19.3327000481
 20
7.1704466041
 30
0.0
 11
19.6121210349
 21
7.1779418882
 31
0.0
  0
LINE
  5
2D5
100
AcDbEntity
  8
LAYER0
 62
         3
100
AcDbLine
 10
19.0076628816
 20
7.1617256995
 30
0.0
 11
19.3327000481
 21
7.1704466041
 31
0.0
  0
LINE
  5
2D6
100
AcDbEntity
  8
LAYER0
 62
         3
100
AcDbLine
 10
18.6458012206
 20
7.152017593
 30
0.0
 11
19.0076628816
 21
7.1617256995
 31
0.0
  0
LINE
  5
2D7
100
AcDbEntity
  8
LAYER0
 62
         3
100
AcDbLine
 10
18.2568995399
 20
7.1415830548
 30
0.0
 11
18.6458012206
 21
7.152017593
 31
0.0
  0
LINE
  5
2D8
100
AcDbEntity
  8
LAYER0
 62
         3
100
AcDbLine
 10
17.8514761967
 20
7.1307070698
 30
0.0
 11
18.2568995399
 21
7.1415830548
 31
0.0
  0
LINE
  5
2D9
100
AcDbEntity
  8
LAYER0
 62
         3
100
AcDbLine
 10
17.440496583
 20
7.1196802105
 30
0.0
 11
17.8514761967
 21
7.1307070698
 31
0.0
  0
LINE
  5
2DA
100
AcDbEntity
  8
LAYER0
 62
         3
100
AcDbLine
 10
17.0350732398
 20
7.1088042255
 30
0.0
 11
17.440496583
 21
7.1196802105
 31
0.0
  0
LINE
  5
2DB
100
AcDbEntity
  8
LAYER0
 62
         3
100
AcDbLine
 10
16.6461715591
 20
7.0983696874
 30
0.0
 11
17.0350732398
 21
7.1088042255
 31
0.0
  0
LINE
  5
2DC
100
AcDbEntity
  8
LAYER0
 62
         3
100
AcDbLine
 10
16.284309898
 20
7.0886615809
 30
0.0
 11
16.6461715591
 21
7.0983696874
 31
0.0
  0
LINE
  5
2DD
100
AcDbEntity
  8
LAYER0
 62
         3
100
AcDbLine
 10
15.9592727316
 20
7.0799406763
 30
0.0
 11
16.284309898
 21
7.0886615809
 31
0.0
  0
LINE
  5
2DE
100
AcDbEntity
  8
LAYER0
 62
         3
100
AcDbLine
 10
15.6798536074
 20
7.0724453922
 30
0.0
 11
15.9592727316
 21
7.0799406763
 31
0.0
  0
LINE
  5
2DF
100
AcDbEntity
  8
LAYER0
 62
         3
100
AcDbLine
 10
15.4536036891
 20
7.0663750317
 30
0.0
 11
15.6798536074
 21
7.0724453922
 31
0.0
  0
LINE
  5
2E0
100
AcDbEntity
  8
LAYER0
 62
         3
100
AcDbLine
 10
14.0697347117
 20
-10.9415475367
 30
0.0
 11
14.0729421866
 21
-10.9422453301
 31
0.0
  0
LINE
  5
2E1
100
AcDbEntity
  8
LAYER0
 62
         3
100
AcDbLine
 10
13.6816246552
 20
-10.8571500373
 30
0.0
 11
14.0697347117
 21
-10.9415475367
 31
0.0
  0
LINE
  5
2E2
100
AcDbEntity
  8
LAYER0
 62
         3
100
AcDbLine
 10
13.3019672823
 20
-10.7745908522
 30
0.0
 11
13.6816246552
 21
-10.8571500373
 31
0.0
  0
LINE
  5
2E3
100
AcDbEntity
  8
LAYER0
 62
         3
100
AcDbLine
 10
12.9403794301
 20
-10.6959605677
 30
0.0
 11
13.3019672823
 21
-10.7745908522
 31
0.0
  0
LINE
  5
2E4
100
AcDbEntity
  8
LAYER0
 62
         3
100
AcDbLine
 10
12.6060141367
 20
-10.6232503517
 30
0.0
 11
12.9403794301
 21
-10.6959605677
 31
0.0
  0
LINE
  5
2E5
100
AcDbEntity
  8
LAYER0
 62
         3
100
AcDbLine
 10
14.2000900698
 20
-13.9130284865
 30
0.0
 11
13.9415791375
 21
-13.5175726232
 31
0.0
  0
LINE
  5
2E6
100
AcDbEntity
  8
LAYER0
 62
         3
100
AcDbLine
 10
14.4488761318
 20
-14.293611594
 30
0.0
 11
14.2000900698
 21
-13.9130284865
 31
0.0
  0
LINE
  5
2E7
100
AcDbEntity
  8
LAYER0
 62
         3
100
AcDbLine
 10
14.6833067876
 20
-14.6522322525
 30
0.0
 11
14.4488761318
 21
-14.293611594
 31
0.0
  0
LINE
  5
2E8
100
AcDbEntity
  8
LAYER0
 62
         3
100
AcDbLine
 10
14.8990122718
 20
-14.9822096195
 30
0.0
 11
14.6833067876
 21
-14.6522322525
 31
0.0
  0
LINE
  5
2E9
100
AcDbEntity
  8
LAYER0
 62
         3
100
AcDbLine
 10
15.0919767213
 20
-15.2773974318
 30
0.0
 11
14.8990122718
 21
-14.9822096195
 31
0.0
  0
LINE
  5
2EA
100
AcDbEntity
  8
LAYER0
 62
         3
100
AcDbLine
 10
15.2586033684
 20
-15.5322962296
 30
0.0
 11
15.0919767213
 21
-15.2773974318
 31
0.0
  0
LINE
  5
2EB
100
AcDbEntity
  8
LAYER0
 62
         3
100
AcDbLine
 10
15.395790909
 20
-15.7421581302
 30
0.0
 11
15.2586033684
 21
-15.5322962296
 31
0.0
  0
LINE
  5
2EC
100
AcDbEntity
  8
LAYER0
 62
         3
100
AcDbLine
 10
15.7994577778
 20
-11.3176892832
 30
0.0
 11
16.0415979219
 21
-11.3703441661
 31
0.0
  0
LINE
  5
2ED
100
AcDbEntity
  8
LAYER0
 62
         3
100
AcDbLine
 10
15.5121410382
 20
-11.2552098785
 30
0.0
 11
15.7994577778
 21
-11.3176892832
 31
0.0
  0
LINE
  5
2EE
100
AcDbEntity
  8
LAYER0
 62
         3
100
AcDbLine
 10
15.1869213325
 20
-11.184488269
 30
0.0
 11
15.5121410382
 21
-11.2552098785
 31
0.0
  0
LINE
  5
2EF
100
AcDbEntity
  8
LAYER0
 62
         3
100
AcDbLine
 10
14.9818962556
 20
-11.1399039947
 30
0.0
 11
15.1869213325
 21
-11.184488269
 31
0.0
  0
LINE
  5
2F0
100
AcDbEntity
  8
LAYER0
 62
         3
100
AcDbLine
 10
13.9365835232
 20
-12.9593343795
 30
0.0
 11
13.5904463125
 21
-12.8840644233
 31
0.0
  0
LINE
  5
2F1
100
AcDbEntity
  8
LAYER0
 62
         3
100
AcDbLine
 10
14.2757358146
 20
-13.0330855813
 30
0.0
 11
13.9365835232
 21
-12.9593343795
 31
0.0
  0
LINE
  5
2F2
100
AcDbEntity
  8
LAYER0
 62
         3
100
AcDbLine
 10
14.6010598284
 20
-13.1038297754
 30
0.0
 11
14.2757358146
 21
-13.0330855813
 31
0.0
  0
LINE
  5
2F3
100
AcDbEntity
  8
LAYER0
 62
         3
100
AcDbLine
 10
14.9059916032
 20
-13.1701399427
 30
0.0
 11
14.6010598284
 21
-13.1038297754
 31
0.0
  0
LINE
  5
2F4
100
AcDbEntity
  8
LAYER0
 62
         3
100
AcDbLine
 10
15.1843788219
 20
-13.2306773071
 30
0.0
 11
14.9059916032
 21
-13.1701399427
 31
0.0
  0
LINE
  5
2F5
100
AcDbEntity
  8
LAYER0
 62
         3
100
AcDbLine
 10
15.4306037468
 20
-13.2842209045
 30
0.0
 11
15.1843788219
 21
-13.2306773071
 31
0.0
  0
LINE
  5
2F6
100
AcDbEntity
  8
LAYER0
 62
         3
100
AcDbLine
 10
15.6396987033
 20
-13.3296899353
 30
0.0
 11
15.4306037468
 21
-13.2842209045
 31
0.0
  0
LINE
  5
2F7
100
AcDbEntity
  8
LAYER0
 62
         3
100
AcDbLine
 10
15.8074429375
 20
-13.3661670465
 30
0.0
 11
15.6396987033
 21
-13.3296899353
 31
0.0
  0
LINE
  5
2F8
100
AcDbEntity
  8
LAYER0
 62
         3
100
AcDbLine
 10
35.3641201393
 20
-13.329998203
 30
0.0
 11
35.3340440081
 21
-13.3365388815
 31
0.0
  0
LINE
  5
2F9
100
AcDbEntity
  8
LAYER0
 62
         3
100
AcDbLine
 10
10.9350482118
 20
-13.329998203
 30
0.0
 11
10.9427223099
 21
-13.3316675988
 31
0.0
  0
LINE
  5
2FA
100
AcDbEntity
  8
LAYER0
 62
         3
100
AcDbLine
 10
14.9783050758
 20
5.2633168321
 30
0.0
 11
14.997415815
 21
5.2591612707
 31
0.0
  0
LINE
  5
2FB
100
AcDbEntity
  8
LAYER0
 62
         3
100
AcDbLine
 10
-27.7195743337
 20
3.0467001866
 30
0.0
 11
-27.7195743337
 21
-10.9297384829
 31
0.0
  0
LINE
  5
2FC
100
AcDbEntity
  8
LAYER0
 62
         3
100
AcDbLine
 10
-27.7195743337
 20
6.9501664634
 30
0.0
 11
-27.7195743337
 21
4.9827959533
 31
0.0
  0
LINE
  5
2FD
100
AcDbEntity
  8
LAYER0
 62
         3
100
AcDbLine
 10
-22.7195744455
 20
4.9796052422
 30
0.0
 11
-22.7195744455
 21
6.9501664634
 31
0.0
  0
LINE
  5
2FE
100
AcDbEntity
  8
LAYER0
 62
         3
100
AcDbLine
 10
19.0136848134
 20
0.5825994681
 30
0.0
 11
19.0761281294
 21
0.5695236992
 31
0.0
  0
LINE
  5
2FF
100
AcDbEntity
  8
LAYER0
 62
         3
100
AcDbLine
 10
18.9107997459
 20
0.6041446846
 30
0.0
 11
19.0136848134
 21
0.5825994681
 31
0.0
  0
LINE
  5
300
100
AcDbEntity
  8
LAYER0
 62
         3
100
AcDbLine
 10
18.7692349893
 20
0.6337896134
 30
0.0
 11
18.9107997459
 21
0.6041446846
 31
0.0
  0
LINE
  5
301
100
AcDbEntity
  8
LAYER0
 62
         3
100
AcDbLine
 10
14.3894745153
 20
1.5509532909
 30
0.0
 11
14.531039272
 21
1.5213083621
 31
0.0
  0
LINE
  5
302
100
AcDbEntity
  8
LAYER0
 62
         3
100
AcDbLine
 10
14.2865894479
 20
1.5724985074
 30
0.0
 11
14.3894745153
 21
1.5509532909
 31
0.0
  0
LINE
  5
303
100
AcDbEntity
  8
LAYER0
 62
         3
100
AcDbLine
 10
14.2241461319
 20
1.5855742763
 30
0.0
 11
14.2865894479
 21
1.5724985074
 31
0.0
  0
LINE
  5
304
100
AcDbEntity
  8
LAYER0
 62
         3
100
AcDbLine
 10
14.2032137257
 20
1.5899580117
 30
0.0
 11
14.2241461319
 21
1.5855742763
 31
0.0
  0
LINE
  5
305
100
AcDbEntity
  8
LAYER0
 62
         3
100
AcDbLine
 10
-27.7195743337
 20
19.013857856
 30
0.0
 11
-27.7195743337
 21
10.2854002412
 31
0.0
  0
LINE
  5
306
100
AcDbEntity
  8
LAYER0
 62
         3
100
AcDbLine
 10
-22.7195744455
 20
10.2854002412
 30
0.0
 11
-22.7195744455
 21
19.013857856
 31
0.0
  0
LINE
  5
307
100
AcDbEntity
  8
LAYER0
 62
         3
100
AcDbLine
 10
-22.7195744455
 20
7.1251936402
 30
0.0
 11
-22.7195744455
 21
10.2854002412
 31
0.0
  0
LINE
  5
308
100
AcDbEntity
  8
LAYER0
 62
         3
100
AcDbLine
 10
-27.7195743337
 20
10.2854002412
 30
0.0
 11
-27.7195743337
 21
7.1251936402
 31
0.0
  0
LINE
  5
309
100
AcDbEntity
  8
LAYER0
 62
         3
100
AcDbLine
 10
-22.7195744455
 20
4.7320876415
 30
0.0
 11
-22.7195744455
 21
4.9796052422
 31
0.0
  0
LINE
  5
30A
100
AcDbEntity
  8
LAYER0
 62
         3
100
AcDbLine
 10
-22.7195744455
 20
6.9501664634
 30
0.0
 11
-22.7195744455
 21
7.1251936402
 31
0.0
  0
LINE
  5
30B
100
AcDbEntity
  8
LAYER0
 62
         3
100
AcDbLine
 10
-27.7195743337
 20
7.1251936402
 30
0.0
 11
-27.7195743337
 21
6.9501664634
 31
0.0
  0
LINE
  5
30C
100
AcDbEntity
  8
LAYER0
 62
         3
100
AcDbLine
 10
-27.7195743337
 20
4.7320876415
 30
0.0
 11
-27.7195743337
 21
3.0467001866
 31
0.0
  0
LINE
  5
30D
100
AcDbEntity
  8
LAYER0
 62
         3
100
AcDbLine
 10
-22.7195744455
 20
3.0350875254
 30
0.0
 11
-22.7195744455
 21
4.7320876415
 31
0.0
  0
LINE
  5
30E
100
AcDbEntity
  8
LAYER0
 62
         3
100
AcDbLine
 10
-26.4695743617
 20
6.4901843812
 30
0.0
 11
-26.4695743617
 21
1.5213083621
 31
0.0
  0
ARC
  5
30F
100
AcDbEntity
  8
LAYER0
 62
         3
100
AcDbCircle
 10
-25.2195743896
 20
-9.691841507
 30
0.0
 40
11.2826074077
210
0.0
220
-0.0
230
1.0
100
AcDbArc
 50
83.6391443524
 51
96.360858718
  0
LINE
  5
310
100
AcDbEntity
  8
LAYER0
 62
         3
100
AcDbLine
 10
-23.9695744175
 20
1.5213083621
 30
0.0
 11
-23.9695744175
 21
6.4901843812
 31
0.0
  0
LINE
  5
311
100
AcDbEntity
  8
LAYER0
 62
         3
100
AcDbLine
 10
-23.9695744175
 20
7.0138577517
 30
0.0
 11
-23.9695744175
 21
6.4901843812
 31
0.0
  0
LINE
  5
312
100
AcDbEntity
  8
LAYER0
 62
         3
100
AcDbLine
 10
-26.4695743617
 20
6.4901843812
 30
0.0
 11
-26.4695743617
 21
7.0138577517
 31
0.0
  0
ARC
  5
313
100
AcDbEntity
  8
LAYER0
 62
         3
100
AcDbCircle
 10
-23.68977509
 20
14.1728112425
 30
0.0
 40
7.1140848434
210
0.0
220
0.0
230
1.0
100
AcDbArc
 50
267.3428921298
 51
277.8382764306
  0
LINE
  5
314
100
AcDbEntity
  8
LAYER0
 62
         3
100
AcDbLine
 10
-24.0195743326
 20
7.0663750317
 30
0.0
 11
-24.0195743326
 21
5.1981186639
 31
0.0
  0
LINE
  5
315
100
AcDbEntity
  8
LAYER0
 62
         3
100
AcDbLine
 10
-26.4195744466
 20
5.1981186639
 30
0.0
 11
-26.4195744466
 21
7.0663750317
 31
0.0
  0
ARC
  5
316
100
AcDbEntity
  8
LAYER0
 62
         3
100
AcDbCircle
 10
-26.7493736892
 20
14.1728112425
 30
0.0
 40
7.1140848434
210
0.0
220
0.0
230
1.0
100
AcDbArc
 50
262.161720499
 51
272.6571047997
  0
LINE
  5
317
100
AcDbEntity
  8
LAYER0
 62
         3
100
AcDbLine
 10
12.3073408497
 20
-10.5583015452
 30
0.0
 11
12.6060141367
 21
-10.6232503517
 31
0.0
  0
LINE
  5
318
100
AcDbEntity
  8
LAYER0
 62
         3
100
AcDbLine
 10
12.0519219083
 20
-10.5027589802
 30
0.0
 11
12.3073408497
 21
-10.5583015452
 31
0.0
  0
LINE
  5
319
100
AcDbEntity
  8
LAYER0
 62
         3
100
AcDbLine
 10
11.8462281418
 20
-10.4580291868
 30
0.0
 11
12.0519219083
 21
-10.5027589802
 31
0.0
  0
LINE
  5
31A
100
AcDbEntity
  8
LAYER0
 62
         3
100
AcDbLine
 10
11.6954656434
 20
-10.4252447695
 30
0.0
 11
11.8462281418
 21
-10.4580291868
 31
0.0
  0
LINE
  5
31B
100
AcDbEntity
  8
LAYER0
 62
         3
100
AcDbLine
 10
11.6034546984
 20
-10.4052360025
 30
0.0
 11
11.6954656434
 21
-10.4252447695
 31
0.0
  0
LINE
  5
31C
100
AcDbEntity
  8
LAYER0
 62
         3
100
AcDbLine
 10
11.5725217504
 20
-10.3985096416
 30
0.0
 11
11.6034546984
 21
-10.4052360025
 31
0.0
  0
LINE
  5
31D
100
AcDbEntity
  8
LAYER0
 62
         3
100
AcDbLine
 10
16.0415979219
 20
-11.3703441661
 30
0.0
 11
16.2324259174
 21
-11.4118413389
 31
0.0
  0
LINE
  5
31E
100
AcDbEntity
  8
LAYER0
 62
         3
100
AcDbLine
 10
-26.8195743492
 20
24.0138568129
 30
0.0
 11
-26.8195743492
 21
23.2509434368
 31
0.0
  0
LINE
  5
31F
100
AcDbEntity
  8
LAYER0
 62
         3
100
AcDbLine
 10
-25.3195743871
 20
23.5971644666
 30
0.0
 11
-25.3195743871
 21
24.0138568129
 31
0.0
  0
ARC
  5
320
100
AcDbEntity
  8
LAYER0
 62
         3
100
AcDbCircle
 10
-27.3195743896
 20
23.5971635219
 30
0.0
 40
2.0
210
-0.0
220
0.0
230
1.0
100
AcDbArc
 50
292.4463494292
 51
0.0
  0
ARC
  5
321
100
AcDbEntity
  8
LAYER0
 62
         3
100
AcDbCircle
 10
-25.2195743896
 20
18.513857511
 30
0.0
 40
3.5
210
-0.0
220
0.0
230
1.0
100
AcDbArc
 50
315.5846906452
 51
67.5536505709
  0
ARC
  5
322
100
AcDbEntity
  8
LAYER0
 62
         3
100
AcDbCircle
 10
-25.2195743896
 20
18.513857511
 30
0.0
 40
3.5
210
0.0
220
0.0
230
1.0
100
AcDbArc
 50
112.4463524995
 51
224.4153062844
  0
ARC
  5
323
100
AcDbEntity
  8
LAYER0
 62
         3
100
AcDbCircle
 10
-23.1195743896
 20
23.5971635219
 30
0.0
 40
2.0
210
0.0
220
0.0
230
1.0
100
AcDbArc
 50
179.9999969295
 51
247.5536475005
  0
LINE
  5
324
100
AcDbEntity
  8
LAYER0
 62
         3
100
AcDbLine
 10
-25.1195743921
 20
24.0138568129
 30
0.0
 11
-25.1195743921
 21
23.5971644666
 31
0.0
  0
ARC
  5
325
100
AcDbEntity
  8
LAYER0
 62
         3
100
AcDbCircle
 10
-25.2195743896
 20
-5.6958827425
 30
0.0
 40
10.9598935569
210
0.0
220
-0.0
230
1.0
100
AcDbArc
 50
83.7140773822
 51
96.2859256883
  0
LINE
  5
326
100
AcDbEntity
  8
LAYER0
 62
         3
100
AcDbLine
 10
-23.9695744175
 20
4.2720301222
 30
0.0
 11
-24.0195743326
 21
4.2660575505
 31
0.0
  0
LINE
  5
327
100
AcDbEntity
  8
LAYER0
 62
         3
100
AcDbLine
 10
-26.4195744466
 20
4.2660575505
 30
0.0
 11
-26.4695743617
 21
4.2720301222
 31
0.0
  0
LINE
  5
328
100
AcDbEntity
  8
LAYER0
 62
         3
100
AcDbLine
 10
14.2032137257
 20
1.5899580117
 30
0.0
 11
11.687478621
 21
-10.4235078529
 31
0.0
  0
LINE
  5
329
100
AcDbEntity
  8
LAYER0
 62
         3
100
AcDbLine
 10
15.6126791728
 20
-16.0739431944
 30
0.0
 11
19.0970605356
 21
0.5651399638
 31
0.0
  0
ARC
  5
32A
100
AcDbEntity
  8
LAYER0
 62
         3
100
AcDbCircle
 10
23.1495837781
 20
-15.986142489
 30
0.0
 40
7.5
210
0.0
220
-0.0
230
1.0
100
AcDbArc
 50
180.7829512127
 51
12.2684023518
  0
ARC
  5
32B
100
AcDbEntity
  8
LAYER0
 62
         3
100
AcDbCircle
 10
23.1495837781
 20
-15.986142489
 30
0.0
 40
12.5
210
0.0
220
-0.0
230
1.0
100
AcDbArc
 50
167.7316007187
 51
0.0
  0
ARC
  5
32C
100
AcDbEntity
  8
LAYER0
 62
         3
100
AcDbCircle
 10
23.1495837781
 20
-15.986142489
 30
0.0
 40
12.5
210
0.0
220
0.0
230
1.0
100
AcDbArc
 50
0.0
 51
12.2684023518
  0
LINE
  5
32D
100
AcDbEntity
  8
LAYER0
 62
         3
100
AcDbLine
 10
26.4350470272
 20
4.2008593823
 30
0.0
 11
30.4783057538
 21
-14.3924561184
 31
0.0
  0
LINE
  5
32E
100
AcDbEntity
  8
LAYER0
 62
         3
100
AcDbLine
 10
35.3641201393
 20
-13.329998203
 30
0.0
 11
31.3208621112
 21
5.2633168321
 31
0.0
  0
ARC
  5
32F
100
AcDbEntity
  8
LAYER0
 62
         3
100
AcDbCircle
 10
38.6495837781
 20
6.8570032615
 30
0.0
 40
7.5
210
0.0
220
0.0
230
1.0
100
AcDbArc
 50
179.9999969295
 51
192.2683992813
  0
LINE
  5
330
100
AcDbEntity
  8
LAYER0
 62
         3
100
AcDbLine
 10
-22.7195744455
 20
-10.9297384829
 30
0.0
 11
-22.7195744455
 21
3.0350875254
 31
0.0
  0
LINE
  5
331
100
AcDbEntity
  8
LAYER0
 62
         3
100
AcDbLine
 10
-22.797146631
 20
7.0138577517
 30
0.0
 11
-23.9695744175
 21
7.0138577517
 31
0.0
  0
LINE
  5
332
100
AcDbEntity
  8
LAYER0
 62
         3
100
AcDbLine
 10
-26.4695743617
 20
7.0138577517
 30
0.0
 11
-27.6286700327
 21
7.0138577517
 31
0.0
  0
ARC
  5
333
100
AcDbEntity
  8
LAYER0
 62
         3
100
AcDbCircle
 10
-25.2195743896
 20
-25.986142489
 30
0.0
 40
2.5
210
0.0
220
-0.0
230
1.0
100
AcDbArc
 50
179.9999969295
 51
0.0
  0
LINE
  5
334
100
AcDbEntity
  8
LAYER0
 62
         3
100
AcDbLine
 10
-22.7195744455
 20
-25.986142489
 30
0.0
 11
-22.7195744455
 21
-10.9297384829
 31
0.0
  0
LINE
  5
335
100
AcDbEntity
  8
LAYER0
 62
         3
100
AcDbLine
 10
-27.7195743337
 20
-10.9297384829
 30
0.0
 11
-27.7195743337
 21
-25.986142489
 31
0.0
  0
ARC
  5
336
100
AcDbEntity
  8
LAYER0
 62
         3
100
AcDbCircle
 10
-25.2195743896
 20
19.013857511
 30
0.0
 40
2.5
210
0.0
220
-0.0
230
1.0
100
AcDbArc
 50
0.0
 51
179.9999969295
  0
ARC
  5
337
100
AcDbEntity
  8
LAYER0
 62
         3
100
AcDbCircle
 10
7.6495837781
 20
6.8570032615
 30
0.0
 40
7.5
210
-0.0
220
0.0
230
1.0
100
AcDbArc
 50
347.7315976482
 51
20.0499760662
  0
ARC
  5
338
100
AcDbEntity
  8
LAYER0
 62
         3
100
AcDbCircle
 10
7.6495837781
 20
6.8570032615
 30
0.0
 40
12.5
210
-0.0
220
0.0
230
1.0
100
AcDbArc
 50
347.7315976482
 51
0.0
  0
ARC
  5
339
100
AcDbEntity
  8
LAYER0
 62
         3
100
AcDbCircle
 10
7.6495837781
 20
6.8570032615
 30
0.0
 40
12.5
210
0.0
220
0.0
230
1.0
100
AcDbArc
 50
0.0
 51
20.0499760662
  0
LINE
  5
33A
100
AcDbEntity
  8
LAYER0
 62
         3
100
AcDbLine
 10
11.5725217504
 20
-10.3985096416
 30
0.0
 11
10.9350482118
 21
-13.329998203
 31
0.0
  0
LINE
  5
33B
100
AcDbEntity
  8
LAYER0
 62
         3
100
AcDbLine
 10
19.7079355014
 20
3.4826290007
 30
0.0
 11
19.8641201598
 21
4.2008593823
 31
0.0
  0
LINE
  5
33C
100
AcDbEntity
  8
LAYER0
 62
         3
100
AcDbLine
 10
14.9783050758
 20
5.2633168321
 30
0.0
 11
14.8221204174
 21
4.5450864505
 31
0.0
  0
LINE
  5
33D
100
AcDbEntity
  8
LAYER0
 62
         3
100
AcDbLine
 10
20.1495835674
 20
13.5138578858
 30
0.0
 11
26.1495836196
 21
13.5138578858
 31
0.0
  0
LINE
  5
33E
100
AcDbEntity
  8
LAYER0
 62
         3
100
AcDbLine
 10
15.9208072466
 20
-13.584240884
 30
0.0
 11
16.3717256975
 21
-11.4309478872
 31
0.0
  0
LINE
  5
33F
100
AcDbEntity
  8
LAYER0
 62
         3
100
AcDbLine
 10
14.531039272
 20
1.5213083621
 30
0.0
 11
15.5715687317
 21
6.4901843812
 31
0.0
  0
LINE
  5
340
100
AcDbEntity
  8
LAYER0
 62
         3
100
AcDbLine
 10
19.8097663117
 20
5.6026656325
 30
0.0
 11
18.7692349893
 21
0.6337896134
 31
0.0
  0
LINE
  5
341
100
AcDbEntity
  8
LAYER0
 62
         3
100
AcDbLine
 10
13.6930240435
 20
-13.0436507374
 30
0.0
 11
13.7205185485
 21
-12.9123496212
 31
0.0
  0
LINE
  5
342
100
AcDbEntity
  8
LAYER0
 62
         3
100
AcDbLine
 10
17.469991569
 20
4.9926269944
 30
0.0
 11
17.4093661946
 21
5.0033856328
 31
0.0
  0
ARC
  5
343
100
AcDbEntity
  8
LAYER0
 62
         3
100
AcDbCircle
 10
17.2650281741
 20
4.013857511
 30
0.0
 40
1.0
210
0.0
220
0.0
230
1.0
100
AcDbArc
 50
244.0844572202
 51
281.4447647084
  0
LINE
  5
344
100
AcDbEntity
  8
LAYER0
 62
         3
100
AcDbLine
 10
17.5796566648
 20
4.9630724039
 30
0.0
 11
17.469991569
 21
4.9926269944
 31
0.0
  0
ARC
  5
345
100
AcDbEntity
  8
LAYER0
 62
         3
100
AcDbCircle
 10
7.6495837781
 20
6.8570032615
 30
0.0
 40
12.1931712199
210
-0.0
220
0.0
230
1.0
100
AcDbArc
 50
354.3810242785
 51
1.5368016567
  0
ARC
  5
346
100
AcDbEntity
  8
LAYER0
 62
         3
100
AcDbCircle
 10
7.6495837781
 20
6.8570032615
 30
0.0
 40
7.8068287801
210
-0.0
220
0.0
230
1.0
100
AcDbArc
 50
347.7315976482
 51
1.5368016567
  0
LINE
  5
347
100
AcDbEntity
  8
LAYER0
 62
         3
100
AcDbLine
 10
15.8074429375
 20
-13.3661670465
 30
0.0
 11
16.2324259174
 21
-11.4118413389
 31
0.0
  0
LINE
  5
348
100
AcDbEntity
  8
LAYER0
 62
         3
100
AcDbLine
 10
13.5904463125
 20
-12.8840644233
 30
0.0
 11
13.7480391306
 21
-13.1292427745
 31
0.0
  0
LINE
  5
349
100
AcDbEntity
  8
LAYER0
 62
         3
100
AcDbLine
 10
-24.0195743326
 20
5.1981186639
 30
0.0
 11
-24.0195743326
 21
3.3072926249
 31
0.0
  0
LINE
  5
34A
100
AcDbEntity
  8
LAYER0
 62
         3
100
AcDbLine
 10
-26.4195744466
 20
3.3072926249
 30
0.0
 11
-26.4195744466
 21
5.1981186639
 31
0.0
  0
LINE
  5
34B
100
AcDbEntity
  8
LAYER0
 62
         3
100
AcDbLine
 10
-24.0195743326
 20
3.3072926249
 30
0.0
 11
-24.0195743326
 21
1.5270695235
 31
0.0
  0
LINE
  5
34C
100
AcDbEntity
  8
LAYER0
 62
         3
100
AcDbLine
 10
-26.4195744466
 20
1.5270695235
 30
0.0
 11
-26.4195744466
 21
3.3072926249
 31
0.0
  0
LINE
  5
34D
100
AcDbEntity
  8
LAYER0
 62
         3
100
AcDbLine
 10
-23.61957443
 20
23.2509434368
 30
0.0
 11
-23.61957443
 21
24.0138568129
 31
0.0
  0
ARC
  5
34E
100
AcDbEntity
  8
LAYER0
 62
         3
100
AcDbCircle
 10
-25.2195743896
 20
18.513857511
 30
0.0
 40
5.0
210
0.0
220
0.0
230
1.0
100
AcDbArc
 50
108.6629267385
 51
239.999997953
  0
ARC
  5
34F
100
AcDbEntity
  8
LAYER0
 62
         3
100
AcDbCircle
 10
-25.2195743896
 20
18.513857511
 30
0.0
 40
5.0
210
-0.0
220
0.0
230
1.0
100
AcDbArc
 50
299.9999989765
 51
71.337076332
  0
LINE
  5
350
100
AcDbEntity
  8
LAYER0
 62
         3
100
AcDbLine
 10
14.8669524235
 20
3.3072926249
 30
0.0
 11
14.8897251231
 21
3.2341549318
 31
0.0
  0
LINE
  5
351
100
AcDbEntity
  8
LAYER0
 62
         3
100
AcDbLine
 10
19.1279227031
 20
2.3466361831
 30
0.0
 11
19.1531242919
 21
2.3752315115
 31
0.0
  0
LINE
  5
352
100
AcDbEntity
  8
LAYER0
 62
         3
100
AcDbLine
 10
15.2781276149
 20
5.1981186639
 30
0.0
 11
14.8669524235
 21
3.3072926249
 31
0.0
  0
LINE
  5
353
100
AcDbEntity
  8
LAYER0
 62
         3
100
AcDbLine
 10
19.1531242919
 20
2.3752315115
 30
0.0
 11
19.5642976207
 21
4.2660575505
 31
0.0
  0
ARC
  5
354
100
AcDbEntity
  8
LAYER0
 62
         3
100
AcDbCircle
 10
17.2650281741
 20
4.013857511
 30
0.0
 40
2.5
210
0.0
220
0.0
230
1.0
100
AcDbArc
 50
319.0461951448
 51
347.7315976482
  0
ARC
  5
355
100
AcDbEntity
  8
LAYER0
 62
         3
100
AcDbCircle
 10
17.2650281741
 20
4.013857511
 30
0.0
 40
2.5
210
0.0
220
0.0
230
1.0
100
AcDbArc
 50
167.7316007187
 51
196.4169970812
  0
LINE
  5
356
100
AcDbEntity
  8
LAYER0
 62
         3
100
AcDbLine
 10
20.1495835674
 20
13.5138578858
 30
0.0
 11
20.1495835674
 21
23.2509434368
 31
0.0
  0
LINE
  5
357
100
AcDbEntity
  8
LAYER0
 62
         3
100
AcDbLine
 10
26.1495836196
 20
13.5138578858
 30
0.0
 11
26.1495836196
 21
23.2509434368
 31
0.0
  0
LINE
  5
358
100
AcDbEntity
  8
LAYER0
 62
         3
100
AcDbLine
 10
20.1495835674
 20
23.2509434368
 30
0.0
 11
20.1495835674
 21
24.0138568129
 31
0.0
  0
LINE
  5
359
100
AcDbEntity
  8
LAYER0
 62
         3
100
AcDbLine
 10
26.1495836196
 20
23.2509434368
 30
0.0
 11
26.1495836196
 21
24.0138568129
 31
0.0
  0
LINE
  5
35A
100
AcDbEntity
  8
LAYER0
 62
         3
100
AcDbLine
 10
60.0
 20
-125.5
 30
0.0
 11
60.0
 21
-138.5
 31
0.0
  0
LINE
  5
35B
100
AcDbEntity
  8
LAYER0
 62
         3
100
AcDbLine
 10
-25.0
 20
-125.5
 30
0.0
 11
-25.0
 21
-138.5
 31
0.0
  0
LINE
  5
35C
100
AcDbEntity
  8
LAYER0
 62
         3
100
AcDbLine
 10
-40.0
 20
-138.5
 30
0.0
 11
-40.0
 21
-125.5
 31
0.0
  0
LINE
  5
35D
100
AcDbEntity
  8
LAYER0
 62
         3
100
AcDbLine
 10
10.0
 20
-138.5
 30
0.0
 11
10.0
 21
-125.5
 31
0.0
  0
LINE
  5
35E
100
AcDbEntity
  8
LAYER0
 62
         3
100
AcDbLine
 10
95.0
 20
-125.5
 30
0.0
 11
-40.0
 21
-125.5
 31
0.0
  0
LINE
  5
35F
100
AcDbEntity
  8
LAYER0
 62
         3
100
AcDbLine
 10
95.0
 20
-130.5
 30
0.0
 11
-40.0
 21
-130.5
 31
0.0
  0
LINE
  5
360
100
AcDbEntity
  8
LAYER0
 62
         3
100
AcDbLine
 10
95.0
 20
-138.5
 30
0.0
 11
95.0
 21
-125.5
 31
0.0
  0
LINE
  5
361
100
AcDbEntity
  8
LAYER0
 62
         3
100
AcDbLine
 10
95.0
 20
-138.5
 30
0.0
 11
-40.0
 21
-138.5
 31
0.0
  0
ARC
  5
362
100
AcDbEntity
  8
LAYER0
 62
         3
100
AcDbCircle
 10
38.6495837781
 20
6.8570032615
 30
0.0
 40
7.5
210
0.0
220
0.0
230
1.0
100
AcDbArc
 50
159.9500270043
 51
179.9999969295
  0
ARC
  5
363
100
AcDbEntity
  8
LAYER0
 62
         3
100
AcDbCircle
 10
38.6495837781
 20
6.8570032615
 30
0.0
 40
12.5
210
0.0
220
0.0
230
1.0
100
AcDbArc
 50
159.9500270043
 51
192.2683992813
  0
ARC
  5
364
100
AcDbEntity
  8
LAYER0
 62
         3
100
AcDbCircle
 10
23.1495837781
 20
12.513857511
 30
0.0
 40
4.0
210
0.0
220
0.0
230
1.0
100
AcDbArc
 50
138.5903802548
 51
200.0499729957
  0
ARC
  5
365
100
AcDbEntity
  8
LAYER0
 62
         3
100
AcDbCircle
 10
7.6495837781
 20
6.8570032615
 30
0.0
 40
12.1931712199
210
0.0
220
0.0
230
1.0
100
AcDbArc
 50
347.7315976482
 51
352.456267346
  0
ARC
  5
366
100
AcDbEntity
  8
LAYER0
 62
         3
100
AcDbCircle
 10
23.1495837781
 20
12.513857511
 30
0.0
 40
4.0
210
-0.0
220
0.0
230
1.0
100
AcDbArc
 50
339.9500239338
 51
41.4096228157
  0
ARC
  5
367
100
AcDbEntity
  8
LAYER0
 62
         3
100
AcDbCircle
 10
23.1495837781
 20
12.513857511
 30
0.0
 40
9.0
210
-0.0
220
0.0
230
1.0
100
AcDbArc
 50
339.9500239338
 51
70.5287805686
  0
ARC
  5
368
100
AcDbEntity
  8
LAYER0
 62
         3
100
AcDbCircle
 10
23.1495837781
 20
12.513857511
 30
0.0
 40
9.0
210
0.0
220
0.0
230
1.0
100
AcDbArc
 50
109.4712225019
 51
200.0499729957
  0
ENDSEC
  0
SECTION
  2
OBJECTS
  0
DICTIONARY
  5
19
100
AcDbDictionary
280
         0
281
         1
  3
ACAD_GROUP
350
1A
  3
ACAD_MLINESTYLE
350
1B
  3
ACAD_LAYOUT
350
1E
  3
ACAD_PLOTSETTINGS
350
22
  3
ACAD_PLOTSTYLENAME
350
1F
  3
ACAD_WIPEOUT_VARS
350
23
  0
DICTIONARY
  5
1A
102
{ACAD_REACTORS
330
19
102
}
100
AcDbDictionary
280
         0
281
         1
  0
DICTIONARY
  5
1B
102
{ACAD_REACTORS
330
19
102
}
100
AcDbDictionary
280
         0
281
         1
  3
Standard
350
1C
  0
MLINESTYLE
  5
1C
102
{ACAD_REACTORS
330
1B
102
}
100
AcDbMlineStyle
  2
Standard
 70
         0
  3

 62
         0
 51
90.0
 52
90.0
 71
         2
 49
0.5
 62
       256
  6
BYLAYER
 49
-0.5
 62
       256
  6
BYLAYER
  0
ACDBDICTIONARYWDFLT
  5
1F
102
{ACAD_REACTORS
330
19
102
}
100
AcDbDictionary
281
         1
  3
Normal
350
1D
100
AcDbDictionaryWithDefault
340
1D
  0
ACDBPLACEHOLDER
  5
1D
102
{ACAD_REACTORS
330
1F
102
}
  0
LAYOUT
  5
20
102
{ACAD_REACTORS
330
1E
102
}
100
AcDbPlotSettings
  1

  2

  4

  6

 40
0.0
 41
0.0
 42
0.0
 43
0.0
 44
0.0
 45
0.0
 46
0.0
 47
0.0
 48
0.0
 49
0.0
140
0.0
141
0.0
142
1.0
143
1.0
 70
         0
 72
         0
 73
         0
 74
         0
  7

 75
         0
147
1.0
148
0.0
149
0.0
100
AcDbLayout
  1
Model
 70
         0
 71
         0
 10
0.0
 20
0.0
 11
0.0
 21
0.0
 12
0.0
 22
0.0
 32
0.0
 14
0.0
 24
0.0
 34
0.0
 15
0.0
 25
0.0
 35
0.0
146
0.0
 13
0.0
 23
0.0
 33
0.0
 16
0.0
 26
0.0
 36
0.0
 17
0.0
 27
0.0
 37
0.0
 76
         0
330
A
331
0
345
0
346
0
  0
LAYOUT
  5
21
102
{ACAD_REACTORS
330
1E
102
}
100
AcDbPlotSettings
  1

  2

  4

  6

 40
0.0
 41
0.0
 42
0.0
 43
0.0
 44
0.0
 45
0.0
 46
0.0
 47
0.0
 48
0.0
 49
0.0
140
0.0
141
0.0
142
1.0
143
1.0
 70
         0
 72
         0
 73
         0
 74
         0
  7

 75
         0
147
1.0
148
0.0
149
0.0
100
AcDbLayout
  1
Layout1
 70
         0
 71
         0
 10
0.0
 20
0.0
 11
0.0
 21
0.0
 12
0.0
 22
0.0
 32
0.0
 14
0.0
 24
0.0
 34
0.0
 15
0.0
 25
0.0
 35
0.0
146
0.0
 13
0.0
 23
0.0
 33
0.0
 16
0.0
 26
0.0
 36
0.0
 17
0.0
 27
0.0
 37
0.0
 76
         0
330
B
331
0
345
0
346
0
  0
DICTIONARY
  5
1E
102
{ACAD_REACTORS
330
19
102
}
100
AcDbDictionary
280
         0
281
         1
  3
Layout1
350
21
  3
Model
350
20
  0
DICTIONARY
  5
22
102
{ACAD_REACTORS
330
19
102
}
100
AcDbDictionary
280
         0
281
         1
  0
WIPEOUTVARIABLES
  5
23
100
AcDbWipeoutVariables
 70
         1
  0
ENDSEC
  0
EOF
