  0
SECTION
  2
HEADER
  9
$ACADVER
  1
AC1015
  9
$ACADMAINTVER
 70
         6
  9
$DWGCODEPAGE
  3
ANSI_932
  9
$INSBASE
 10
0.0
 20
0.0
 30
0.0
  9
$EXTMIN
 10
1.0000000000E+20
 20
1.0000000000E+20
 30
1.0000000000E+20
  9
$EXTMAX
 10
-1.0000000000E+20
 20
-1.0000000000E+20
 30
-1.0000000000E+20
  9
$LIMMIN
 10
0.0
 20
0.0
  9
$LIMMAX
 10
0.0
 20
0.0
  9
$ORTHOMODE
 70
         0
  9
$REGENMODE
 70
         1
  9
$FILLMODE
 70
         1
  9
$QTEXTMODE
 70
         0
  9
$MIRRTEXT
 70
         1
  9
$LTSCALE
 40
1.0
  9
$ATTMODE
 70
         1
  9
$TEXTSIZE
 40
0.2
  9
$TRACEWID
 40
0.05
  9
$TEXTSTYLE
  7
Standard
  9
$CLAYER
  8
0
  9
$CELTYPE
  6
Continuous
  9
$CECOLOR
 62
       256
  9
$CELTSCALE
 40
1.0
  9
$DISPSILH
 70
         0
  9
$DIMSCALE
 40
1.0
  9
$DIMASZ
 40
0.18
  9
$DIMEXO
 40
0.0625
  9
$DIMDLI
 40
0.38
  9
$DIMRND
 40
0.0
  9
$DIMDLE
 40
0.0
  9
$DIMEXE
 40
0.18
  9
$DIMTP
 40
0.0
  9
$DIMTM
 40
0.0
  9
$DIMTXT
 40
0.18
  9
$DIMCEN
 40
0.09
  9
$DIMTSZ
 40
0.0
  9
$DIMTOL
 70
         0
  9
$DIMLIM
 70
         0
  9
$DIMTIH
 70
         1
  9
$DIMTOH
 70
         1
  9
$DIMSE1
 70
         0
  9
$DIMSE2
 70
         0
  9
$DIMTAD
 70
         0
  9
$DIMZIN
 70
         0
  9
$DIMBLK
  1

  9
$DIMASO
 70
         1
  9
$DIMSHO
 70
         1
  9
$DIMPOST
  1

  9
$DIMAPOST
  1

  9
$DIMALT
 70
         0
  9
$DIMALTD
 70
         2
  9
$DIMALTF
 40
25.4
  9
$DIMLFAC
 40
1.0
  9
$DIMTOFL
 70
         0
  9
$DIMTVP
 40
0.0
  9
$DIMTIX
 70
         0
  9
$DIMSOXD
 70
         0
  9
$DIMSAH
 70
         0
  9
$DIMBLK1
  1

  9
$DIMBLK2
  1

  9
$DIMSTYLE
  2
Standard
  9
$DIMCLRD
 70
         0
  9
$DIMCLRE
 70
         0
  9
$DIMCLRT
 70
         0
  9
$DIMTFAC
 40
1.0
  9
$DIMGAP
 40
0.09
  9
$DIMJUST
 70
         0
  9
$DIMSD1
 70
         0
  9
$DIMSD2
 70
         0
  9
$DIMTOLJ
 70
         1
  9
$DIMTZIN
 70
         0
  9
$DIMALTZ
 70
         0
  9
$DIMALTTZ
 70
         0
  9
$DIMUPT
 70
         0
  9
$DIMDEC
 70
         4
  9
$DIMTDEC
 70
         4
  9
$DIMALTU
 70
         2
  9
$DIMALTTD
 70
         2
  9
$DIMTXSTY
  7
Standard
  9
$DIMAUNIT
 70
         0
  9
$DIMADEC
 70
         0
  9
$DIMALTRND
 40
0.0
  9
$DIMAZIN
 70
         0
  9
$DIMDSEP
 70
         0
  9
$DIMATFIT
 70
         3
  9
$DIMFRAC
 70
         0
  9
$DIMLDRBLK
  1

  9
$DIMLUNIT
 70
         2
  9
$DIMLWD
 70
         0
  9
$DIMLWE
 70
         0
  9
$DIMTMOVE
 70
         0
  9
$LUNITS
 70
         2
  9
$LUPREC
 70
         4
  9
$SKETCHINC
 40
0.1
  9
$FILLETRAD
 40
0.0
  9
$AUNITS
 70
         0
  9
$AUPREC
 70
         0
  9
$MENU
  1
acad
  9
$ELEVATION
 40
0.0
  9
$PELEVATION
 40
0.0
  9
$THICKNESS
 40
0.0
  9
$LIMCHECK
 70
         0
  9
$CHAMFERA
 40
0.0
  9
$CHAMFERB
 40
0.0
  9
$CHAMFERC
 40
0.0
  9
$CHAMFERD
 40
0.0
  9
$SKPOLY
 70
         0
  9
$TDCREATE
 40
0.000000000
  9
$TDUCREATE
 40
0.000000000
  9
$TDUPDATE
 40
0.000000000
  9
$TDUUPDATE
 40
0.000000000
  9
$TDINDWG
 40
0.0000000000
  9
$TDUSRTIMER
 40
0.0000000000
  9
$USRTIMER
 70
         1
  9
$ANGBASE
 50
0.0
  9
$ANGDIR
 70
         0
  9
$PDMODE
 70
         3
  9
$PDSIZE
 40
-1.0
  9
$PLINEWID
 40
0.0
  9
$SPLFRAME
 70
         0
  9
$SPLINETYPE
 70
         6
  9
$SPLINESEGS
 70
         8
  9
$HANDSEED
  5
1D9
  9
$SURFTAB1
 70
         6
  9
$SURFTAB2
 70
         6
  9
$SURFTYPE
 70
         6
  9
$SURFU
 70
         6
  9
$SURFV
 70
         6
  9
$UCSBASE
  2

  9
$UCSNAME
  2

  9
$UCSORG
 10
0.0
 20
0.0
 30
0.0
  9
$UCSXDIR
 10
1.0
 20
0.0
 30
0.0
  9
$UCSYDIR
 10
0.0
 20
1.0
 30
0.0
  9
$UCSORTHOREF
  2

  9
$UCSORTHOVIEW
 70
         0
  9
$UCSORGTOP
 10
0.0
 20
0.0
 30
0.0
  9
$UCSORGBOTTOM
 10
0.0
 20
0.0
 30
0.0
  9
$UCSORGLEFT
 10
0.0
 20
0.0
 30
0.0
  9
$UCSORGRIGHT
 10
0.0
 20
0.0
 30
0.0
  9
$UCSORGFRONT
 10
0.0
 20
0.0
 30
0.0
  9
$UCSORGBACK
 10
0.0
 20
0.0
 30
0.0
  9
$PUCSBASE
  2

  9
$PUCSNAME
  2

  9
$PUCSORG
 10
0.0
 20
0.0
 30
0.0
  9
$PUCSXDIR
 10
1.0
 20
0.0
 30
0.0
  9
$PUCSYDIR
 10
0.0
 20
1.0
 30
0.0
  9
$PUCSORTHOREF
  2

  9
$PUCSORTHOVIEW
 70
         0
  9
$PUCSORGTOP
 10
0.0
 20
0.0
 30
0.0
  9
$PUCSORGBOTTOM
 10
0.0
 20
0.0
 30
0.0
  9
$PUCSORGLEFT
 10
0.0
 20
0.0
 30
0.0
  9
$PUCSORGRIGHT
 10
0.0
 20
0.0
 30
0.0
  9
$PUCSORGFRONT
 10
0.0
 20
0.0
 30
0.0
  9
$PUCSORGBACK
 10
0.0
 20
0.0
 30
0.0
  9
$USERI1
 70
         0
  9
$USERI2
 70
         0
  9
$USERI3
 70
         0
  9
$USERI4
 70
         0
  9
$USERI5
 70
         0
  9
$USERR1
 40
0.0
  9
$USERR2
 40
0.0
  9
$USERR3
 40
0.0
  9
$USERR4
 40
0.0
  9
$USERR5
 40
0.0
  9
$WORLDVIEW
 70
         1
  9
$SHADEDGE
 70
         3
  9
$SHADEDIF
 70
        70
  9
$TILEMODE
 70
         1
  9
$MAXACTVP
 70
        16
  9
$PINSBASE
 10
0.0
 20
0.0
 30
0.0
  9
$PLIMCHECK
 70
         0
  9
$PEXTMIN
 10
1.0000000000E+20
 20
1.0000000000E+20
 30
1.0000000000E+20
  9
$PEXTMAX
 10
-1.0000000000E+20
 20
-1.0000000000E+20
 30
-1.0000000000E+20
  9
$PLIMMIN
 10
0.0
 20
0.0
  9
$PLIMMAX
 10
12.0
 20
9.0
  9
$UNITMODE
 70
         0
  9
$VISRETAIN
 70
         0
  9
$PLINEGEN
 70
         1
  9
$PSLTSCALE
 70
         0
  9
$TREEDEPTH
 70
      3020
  9
$CMLSTYLE
  2
Standard
  9
$CMLJUST
 70
         0
  9
$CMLSCALE
 40
1.0
  9
$PROXYGRAPHICS
 70
         0
  9
$MEASUREMENT
 70
         0
  9
$CELWEIGHT
370
         0
  9
$ENDCAPS
280
         0
  9
$JOINSTYLE
280
         0
  9
$LWDISPLAY
290
         0
  9
$INSUNITS
 70
         0
  9
$HYPERLINKBASE
  1

  9
$XEDIT
290
         1
  9
$CEPSNTYPE
380
         0
  9
$PSTYLEMODE
290
         0
  9
$FINGERPRINTGUID
  2

  9
$VERSIONGUID
  2

  9
$EXTNAMES
290
         1
  9
$PSVPSCALE
 40
0.0
  0
ENDSEC
  0
SECTION
  2
CLASSES
  0
CLASS
  1
LWPOLYLINE
  2
AcDbPolyline
  3
"AutoCAD"
 90
        0
280
         0
281
         1
  0
CLASS
  1
IMAGE
  2
AcDbRasterImage
  3
ISM
 90
      127
280
         0
281
         1
  0
CLASS
  1
OLE2FRAME
  2
AcDbOle2Frame
  3
""
 90
        0
280
         0
281
         1
  0
CLASS
  1
HATCH
  2
AcDbHatch
  3
"ACAD_SEDONA"
 90
        0
280
         0
281
         1
  0
CLASS
  1
DICTIONARYVAR
  2
AcDbDictionaryVar
  3
"AutoCAD"
 90
        0
280
         0
281
         0
  0
CLASS
  1
RASTERVARIABLES
  2
AcDbRasterVariables
  3
ISM
 90
        0
280
         0
281
         0
  0
CLASS
  1
IMAGEDEF
  2
AcDbRasterImageDef
  3
ISM
 90
        0
280
         0
281
         0
  0
CLASS
  1
IMAGEDEF_REACTOR
  2
AcDbRasterImageDefReactor
  3
ISM
 90
        1
280
         0
281
         0
  0
CLASS
  1
IDBUFFER
  2
AcDbIdBuffer
  3
"Acad"
 90
        0
280
         0
281
         0
  0
CLASS
  1
SPATIAL_FILTER
  2
AcDbSpatialFilter
  3
"Acad"
 90
        0
280
         0
281
         0
  0
CLASS
  1
XRECORD
  2
AcDbXrecord
  3
"<Built In>"
 90
        0
280
         0
281
         0
  0
CLASS
  1
SORTENTSTABLE
  2
AcDbSortentsTable
  3
"AutoCAD"
 90
        0
280
         0
281
         0
  0
CLASS
  1
LAYER_INDEX
  2
AcDbLayerIndex
  3
"Acad"
 90
        0
280
         0
281
         0
  0
CLASS
  1
SPATIAL_INDEX
  2
AcDbSpatialIndex
  3
"Acad"
 90
        0
280
         0
281
         0
  0
CLASS
  1
OBJECT_PTR
  2
CAseDLPNTableRecord
  3
"ASE-LPNTableRecord"
 90
        1
280
         0
281
         0
  0
CLASS
  1
LAYOUT
  2
AcDbLayout
  3
"AutoCAD 2000"
 90
        1
280
         0
281
         0
  0
CLASS
  1
PLOTSETTINGS
  2
AcDbPlotSettings
  3
"AutoCAD 2000"
 90
        1
280
         0
281
         0
  0
CLASS
  1
ACDBDICTIONARYWDFLT
  2
AcDbDictionaryWithDefault
  3
"AutoCAD 2000"
 90
        1
280
         0
281
         0
  0
CLASS
  1
ACDBPLACEHOLDER
  2
AcDbPlaceHolder
  3
"AutoCAD 2000"
 90
        1
280
         0
281
         0
  0
CLASS
  1
VBA_PROJECT
  2
AcDbVbaProject
  3
"acadvba"
 90
        1
280
         0
281
         0
  0
CLASS
  1
WIPEOUT
  2
AcDbWipeout
  3
WipeOut|AutoCAD Express Tool|expresstools@autodesk.com
 90
      127
280
         0
281
         1
  0
CLASS
  1
WIPEOUTVARIABLES
  2
AcDbWipeoutVariables
  3
WipeOut|AutoCAD Express Tool|expresstools@autodesk.com
 90
        0
280
         0
281
         0
  0
CLASS
  1
RTEXT
  2
RText
  3
RText|AutoCAD Express Tool|expresstools@autodesk.com
 90
        0
280
         0
281
         1
  0
CLASS
  1
ARCALIGNEDTEXT
  2
AcDbArcAlignedText
  3
ATEXT|AutoCAD Express Tool|expresstools@autodesk.com
 90
        0
280
         0
281
         1
  0
ENDSEC
  0
SECTION
  2
TABLES
  0
TABLE
  2
VPORT
  5
7
100
AcDbSymbolTable
 70
         1
  0
VPORT
  5
15
100
AcDbSymbolTableRecord
100
AcDbViewportTableRecord
  2
*ACTIVE
 70
         0
 10
0.0
 20
0.0
 11
1.0
 21
1.0
 12
6.591288
 22
4.579184
 13
0.0
 23
0.0
 14
1.0
 24
1.0
 15
0.0
 25
0.0
 16
0.0
 26
0.0
 36
1.0
 17
0.0
 27
0.0
 37
0.0
 40
9.158369
 41
0.688564
 42
50.0
 43
0.0
 44
0.0
 50
0.0
 51
0.0
 71
         0
 72
       100
 73
         1
 74
         1
 75
         0
 76
         0
 77
         0
 78
         0
281
         0
 65
         0
110
0.0
120
0.0
130
0.0
111
1.0
121
0.0
131
0.0
112
0.0
122
1.0
132
0.0
345
0
346
0
 79
         0
146
0.0
  0
ENDTAB
  0
TABLE
  2
LTYPE
  5
4
100
AcDbSymbolTable
 70
        13
  0
LTYPE
  5
11
100
AcDbSymbolTableRecord
100
AcDbLinetypeTableRecord
  2
ByBlock
 70
        64
  3

 72
        65
 73
         0
 40
0.0
  0
LTYPE
  5
12
100
AcDbSymbolTableRecord
100
AcDbLinetypeTableRecord
  2
ByLayer
 70
        64
  3

 72
        65
 73
         0
 40
0.0
  0
LTYPE
  5
13
100
AcDbSymbolTableRecord
100
AcDbLinetypeTableRecord
  2
Continuous
 70
        64
  3
Solid line
 72
        65
 73
         0
 40
0.0
  0
LTYPE
  5
24
100
AcDbSymbolTableRecord
100
AcDbLinetypeTableRecord
  2
DOT
 70
        64
  3
. . . . . . . . 
 72
        65
 73
         2
 40
1.0
 49
0.0
 74
         0
 49
-1.0
 74
         0
  0
LTYPE
  5
25
100
AcDbSymbolTableRecord
100
AcDbLinetypeTableRecord
  2
DASHED
 70
        64
  3
___  ___  ___  ___  
 72
        65
 73
         2
 40
4.0
 49
3.0
 74
         0
 49
-1.0
 74
         0
  0
LTYPE
  5
26
100
AcDbSymbolTableRecord
100
AcDbLinetypeTableRecord
  2
HIDDEN
 70
        64
  3
__ __ __ __ 
 72
        65
 73
         2
 40
3.0
 49
2.0
 74
         0
 49
-1.0
 74
         0
  0
LTYPE
  5
27
100
AcDbSymbolTableRecord
100
AcDbLinetypeTableRecord
  2
STITCH
 70
        64
  3
_ _ _ _ 
 72
        65
 73
         2
 40
2.0
 49
1.0
 74
         0
 49
-1.0
 74
         0
  0
LTYPE
  5
28
100
AcDbSymbolTableRecord
100
AcDbLinetypeTableRecord
  2
CENTER
 70
        64
  3
______  __  ______  __  
 72
        65
 73
         4
 40
43.0
 49
40.0
 74
         0
 49
-1.0
 74
         0
 49
1.0
 74
         0
 49
-1.0
 74
         0
  0
LTYPE
  5
29
100
AcDbSymbolTableRecord
100
AcDbLinetypeTableRecord
  2
DASHDOT
 70
        64
  3
____ . ____ . 
 72
        65
 73
         4
 40
32.0
 49
30.0
 74
         0
 49
-1.0
 74
         0
 49
0.0
 74
         0
 49
-1.0
 74
         0
  0
LTYPE
  5
2A
100
AcDbSymbolTableRecord
100
AcDbLinetypeTableRecord
  2
BORDER
 70
        64
  3
__ . __ . 
 72
        65
 73
         4
 40
22.0
 49
20.0
 74
         0
 49
-1.0
 74
         0
 49
0.0
 74
         0
 49
-1.0
 74
         0
  0
LTYPE
  5
2B
100
AcDbSymbolTableRecord
100
AcDbLinetypeTableRecord
  2
CUTTING
 70
        64
  3
________   ___   ___   
 72
        65
 73
         6
 40
45.0
 49
40.0
 74
         0
 49
-1.0
 74
         0
 49
1.0
 74
         0
 49
-1.0
 74
         0
 49
1.0
 74
         0
 49
-1.0
 74
         0
  0
LTYPE
  5
2C
100
AcDbSymbolTableRecord
100
AcDbLinetypeTableRecord
  2
PHANTOM
 70
        64
  3
______  __  __  
 72
        65
 73
         6
 40
35.0
 49
30.0
 74
         0
 49
-1.0
 74
         0
 49
1.0
 74
         0
 49
-1.0
 74
         0
 49
1.0
 74
         0
 49
-1.0
 74
         0
  0
LTYPE
  5
2D
100
AcDbSymbolTableRecord
100
AcDbLinetypeTableRecord
  2
DIVIDE
 70
        64
  3
____ . . ____ . . 
 72
        65
 73
         6
 40
23.0
 49
20.0
 74
         0
 49
-1.0
 74
         0
 49
0.0
 74
         0
 49
-1.0
 74
         0
 49
0.0
 74
         0
 49
-1.0
 74
         0
  0
ENDTAB
  0
TABLE
  2
LAYER
  5
2
100
AcDbSymbolTable
 70
         5
  0
LAYER
  5
14
100
AcDbSymbolTableRecord
100
AcDbLayerTableRecord
  2
0
 70
         0
 62
         7
  6
Continuous
290
         1
370
        -3
390
1D
  0
LAYER
  5
2E
100
AcDbSymbolTableRecord
100
AcDbLayerTableRecord
  2
LAYER1
 70
         0
 62
         7
  6
Continuous
290
         1
370
        -3
390
1F
  0
LAYER
  5
38
100
AcDbSymbolTableRecord
100
AcDbLayerTableRecord
  2
LAYER0
 70
         0
 62
         7
  6
Continuous
290
         1
370
        -3
390
1F
  0
LAYER
  5
FE
100
AcDbSymbolTableRecord
100
AcDbLayerTableRecord
  2
LAYER4
 70
         0
 62
         7
  6
Continuous
290
         1
370
        -3
390
1F
  0
LAYER
  5
169
100
AcDbSymbolTableRecord
100
AcDbLayerTableRecord
  2
LAYER3
 70
         0
 62
         7
  6
Continuous
290
         1
370
        -3
390
1F
  0
ENDTAB
  0
TABLE
  2
STYLE
  5
3
100
AcDbSymbolTable
 70
         1
  0
STYLE
  5
17
100
AcDbSymbolTableRecord
100
AcDbTextStyleTableRecord
  2
Standard
 70
         0
 40
0.0
 41
1.0
 50
0.0
 71
         0
 42
0.0
  3
txt
  4
extfont
  0
ENDTAB
  0
TABLE
  2
VIEW
  5
5
100
AcDbSymbolTable
 70
         0
  0
ENDTAB
  0
TABLE
  2
UCS
  5
6
100
AcDbSymbolTable
 70
         0
  0
ENDTAB
  0
TABLE
  2
APPID
  5
8
100
AcDbSymbolTable
 70
         1
  0
APPID
  5
16
100
AcDbSymbolTableRecord
100
AcDbRegAppTableRecord
  2
ACAD
 70
         0
  0
ENDTAB
  0
TABLE
  2
DIMSTYLE
  5
9
100
AcDbSymbolTable
 70
         1
100
AcDbDimStyleTable
 71
         0
  0
DIMSTYLE
105
18
100
AcDbSymbolTableRecord
100
AcDbDimStyleTableRecord
  2
Standard
 70
         0
  3

  4

 40
1.0
 41
0.18
 42
0.0625
 43
0.38
 44
0.18
 45
0.0
 46
0.0
 47
0.0
 48
0.0
 71
         0
 72
         0
 73
         1
 74
         1
 75
         0
 76
         0
 77
         0
 78
         0
 79
         0
140
0.18
141
0.09
142
0.0
143
25.4
144
1.0
145
0.0
146
1.0
147
0.09
148
0.0
170
         0
171
         2
172
         0
173
         0
174
         0
175
         0
176
         0
177
         0
178
         0
179
         0
271
         4
272
         4
273
         2
274
         2
275
         0
276
         0
277
         2
278
        46
279
         0
280
         0
281
         0
282
         0
283
         1
284
         0
285
         0
286
         0
288
         0
340
17
341
0
342
0
343
0
344
0
371
        -2
372
        -2
  0
ENDTAB
  0
TABLE
  2
BLOCK_RECORD
  5
1
100
AcDbSymbolTable
 70
        28
  0
BLOCK_RECORD
  5
A
100
AcDbSymbolTableRecord
100
AcDbBlockTableRecord
  2
*MODEL_SPACE
340
20
  0
BLOCK_RECORD
  5
B
100
AcDbSymbolTableRecord
100
AcDbBlockTableRecord
  2
*PAPER_SPACE
340
21
  0
BLOCK_RECORD
  5
32
100
AcDbSymbolTableRecord
100
AcDbBlockTableRecord
  2
CLUMP0
340
0
  0
BLOCK_RECORD
  5
35
100
AcDbSymbolTableRecord
100
AcDbBlockTableRecord
  2
CLUMP1
340
0
  0
BLOCK_RECORD
  5
3F
100
AcDbSymbolTableRecord
100
AcDbBlockTableRecord
  2
CLUMP2
340
0
  0
BLOCK_RECORD
  5
42
100
AcDbSymbolTableRecord
100
AcDbBlockTableRecord
  2
CLUMP3
340
0
  0
BLOCK_RECORD
  5
4B
100
AcDbSymbolTableRecord
100
AcDbBlockTableRecord
  2
CLUMP4
340
0
  0
BLOCK_RECORD
  5
4E
100
AcDbSymbolTableRecord
100
AcDbBlockTableRecord
  2
CLUMP5
340
0
  0
BLOCK_RECORD
  5
55
100
AcDbSymbolTableRecord
100
AcDbBlockTableRecord
  2
CLUMP6
340
0
  0
BLOCK_RECORD
  5
58
100
AcDbSymbolTableRecord
100
AcDbBlockTableRecord
  2
CLUMP7
340
0
  0
BLOCK_RECORD
  5
5F
100
AcDbSymbolTableRecord
100
AcDbBlockTableRecord
  2
CLUMP8
340
0
  0
BLOCK_RECORD
  5
62
100
AcDbSymbolTableRecord
100
AcDbBlockTableRecord
  2
CLUMP9
340
0
  0
BLOCK_RECORD
  5
78
100
AcDbSymbolTableRecord
100
AcDbBlockTableRecord
  2
CLUMP10
340
0
  0
BLOCK_RECORD
  5
7B
100
AcDbSymbolTableRecord
100
AcDbBlockTableRecord
  2
CLUMP11
340
0
  0
BLOCK_RECORD
  5
8D
100
AcDbSymbolTableRecord
100
AcDbBlockTableRecord
  2
CLUMP12
340
0
  0
BLOCK_RECORD
  5
90
100
AcDbSymbolTableRecord
100
AcDbBlockTableRecord
  2
CLUMP13
340
0
  0
BLOCK_RECORD
  5
A2
100
AcDbSymbolTableRecord
100
AcDbBlockTableRecord
  2
CLUMP14
340
0
  0
BLOCK_RECORD
  5
A5
100
AcDbSymbolTableRecord
100
AcDbBlockTableRecord
  2
CLUMP15
340
0
  0
BLOCK_RECORD
  5
B5
100
AcDbSymbolTableRecord
100
AcDbBlockTableRecord
  2
CLUMP16
340
0
  0
BLOCK_RECORD
  5
B8
100
AcDbSymbolTableRecord
100
AcDbBlockTableRecord
  2
CLUMP17
340
0
  0
BLOCK_RECORD
  5
D1
100
AcDbSymbolTableRecord
100
AcDbBlockTableRecord
  2
CLUMP18
340
0
  0
BLOCK_RECORD
  5
D4
100
AcDbSymbolTableRecord
100
AcDbBlockTableRecord
  2
CLUMP19
340
0
  0
BLOCK_RECORD
  5
E8
100
AcDbSymbolTableRecord
100
AcDbBlockTableRecord
  2
CLUMP20
340
0
  0
BLOCK_RECORD
  5
EB
100
AcDbSymbolTableRecord
100
AcDbBlockTableRecord
  2
CLUMP21
340
0
  0
BLOCK_RECORD
  5
11A
100
AcDbSymbolTableRecord
100
AcDbBlockTableRecord
  2
CLUMP22
340
0
  0
BLOCK_RECORD
  5
11D
100
AcDbSymbolTableRecord
100
AcDbBlockTableRecord
  2
CLUMP23
340
0
  0
BLOCK_RECORD
  5
149
100
AcDbSymbolTableRecord
100
AcDbBlockTableRecord
  2
CLUMP24
340
0
  0
BLOCK_RECORD
  5
14C
100
AcDbSymbolTableRecord
100
AcDbBlockTableRecord
  2
CLUMP25
340
0
  0
BLOCK_RECORD
  5
19A
100
AcDbSymbolTableRecord
100
AcDbBlockTableRecord
  2
CLUMP26
340
0
  0
BLOCK_RECORD
  5
19D
100
AcDbSymbolTableRecord
100
AcDbBlockTableRecord
  2
CLUMP27
340
0
  0
ENDTAB
  0
ENDSEC
  0
SECTION
  2
BLOCKS
  0
BLOCK
  5
D
100
AcDbEntity
  8
0
100
AcDbBlockBegin
  2
*MODEL_SPACE
 70
         0
 10
0.0
 20
0.0
 30
0.0
  3
*MODEL_SPACE
  1

  0
ENDBLK
  5
E
100
AcDbEntity
  8
0
100
AcDbBlockEnd
  0
BLOCK
  5
F
100
AcDbEntity
 67
         1
  8
0
100
AcDbBlockBegin
  2
*PAPER_SPACE
 70
         0
 10
0.0
 20
0.0
 30
0.0
  3
*PAPER_SPACE
  1

  0
ENDBLK
  5
10
100
AcDbEntity
 67
         1
  8
0
100
AcDbBlockEnd
  0
BLOCK
  5
34
100
AcDbEntity
  8
0
100
AcDbBlockBegin
  2
CLUMP0
 70
         0
 10
0.0
 20
0.0
 30
0.0
  3

  1

  0
INSERT
  5
36
100
AcDbEntity
  8
0
100
AcDbBlockReference
  2
CLUMP1
 10
0.0
 20
0.0
 30
0.0
  0
ENDBLK
  5
3E
100
AcDbEntity
  8
0
100
AcDbBlockEnd
  0
BLOCK
  5
37
100
AcDbEntity
  8
0
100
AcDbBlockBegin
  2
CLUMP1
 70
         0
 10
0.0
 20
0.0
 30
0.0
  3

  1

  0
LINE
  5
39
100
AcDbEntity
  8
LAYER0
 62
         3
100
AcDbLine
 10
13.8211592349
 20
16.4320029382
 30
0.0
 11
14.2021414458
 21
16.8401667696
 31
0.0
  0
LINE
  5
3A
100
AcDbEntity
  8
LAYER0
 62
         3
100
AcDbLine
 10
14.2021414458
 20
16.8401667696
 30
0.0
 11
14.6058808795
 21
17.2566219791
 31
0.0
  0
LINE
  5
3B
100
AcDbEntity
  8
LAYER0
 62
         3
100
AcDbLine
 10
14.6058808795
 20
17.2566219791
 30
0.0
 11
15.0211592349
 21
17.6697969451
 31
0.0
  0
LINE
  5
3C
100
AcDbEntity
  8
LAYER0
 62
         3
100
AcDbLine
 10
15.0211592349
 20
17.6697969451
 30
0.0
 11
13.8211592349
 21
16.4320029382
 31
0.0
  0
ENDBLK
  5
3D
100
AcDbEntity
  8
0
100
AcDbBlockEnd
  0
BLOCK
  5
41
100
AcDbEntity
  8
0
100
AcDbBlockBegin
  2
CLUMP2
 70
         0
 10
0.0
 20
0.0
 30
0.0
  3

  1

  0
INSERT
  5
43
100
AcDbEntity
  8
0
100
AcDbBlockReference
  2
CLUMP3
 10
0.0
 20
0.0
 30
0.0
  0
ENDBLK
  5
4A
100
AcDbEntity
  8
0
100
AcDbBlockEnd
  0
BLOCK
  5
44
100
AcDbEntity
  8
0
100
AcDbBlockBegin
  2
CLUMP3
 70
         0
 10
0.0
 20
0.0
 30
0.0
  3

  1

  0
LINE
  5
45
100
AcDbEntity
  8
LAYER0
 62
         3
100
AcDbLine
 10
15.021159235
 20
17.6697969451
 30
0.0
 11
15.4364375903
 21
17.2566219791
 31
0.0
  0
LINE
  5
46
100
AcDbEntity
  8
LAYER0
 62
         3
100
AcDbLine
 10
15.4364375903
 20
17.2566219791
 30
0.0
 11
15.840177024
 21
16.8401667696
 31
0.0
  0
LINE
  5
47
100
AcDbEntity
  8
LAYER0
 62
         3
100
AcDbLine
 10
15.840177024
 20
16.8401667696
 30
0.0
 11
16.2211592349
 21
16.4320029382
 31
0.0
  0
LINE
  5
48
100
AcDbEntity
  8
LAYER0
 62
         3
100
AcDbLine
 10
16.2211592349
 20
16.4320029382
 30
0.0
 11
15.021159235
 21
17.6697969451
 31
0.0
  0
ENDBLK
  5
49
100
AcDbEntity
  8
0
100
AcDbBlockEnd
  0
BLOCK
  5
4D
100
AcDbEntity
  8
0
100
AcDbBlockBegin
  2
CLUMP4
 70
         0
 10
0.0
 20
0.0
 30
0.0
  3

  1

  0
INSERT
  5
4F
100
AcDbEntity
  8
0
100
AcDbBlockReference
  2
CLUMP5
 10
0.0
 20
0.0
 30
0.0
  0
ENDBLK
  5
54
100
AcDbEntity
  8
0
100
AcDbBlockEnd
  0
BLOCK
  5
50
100
AcDbEntity
  8
0
100
AcDbBlockBegin
  2
CLUMP5
 70
         0
 10
0.0
 20
0.0
 30
0.0
  3

  1

  0
LINE
  5
51
100
AcDbEntity
  8
LAYER1
 62
         3
100
AcDbLine
 10
13.7711592349
 20
17.396740967
 30
0.0
 11
13.8167750497
 21
17.3912792567
 31
0.0
  0
LINE
  5
52
100
AcDbEntity
  8
LAYER1
 62
         3
100
AcDbLine
 10
13.8167750497
 20
17.3912792567
 30
0.0
 11
13.8211592349
 21
17.3907683167
 31
0.0
  0
ENDBLK
  5
53
100
AcDbEntity
  8
0
100
AcDbBlockEnd
  0
BLOCK
  5
57
100
AcDbEntity
  8
0
100
AcDbBlockBegin
  2
CLUMP6
 70
         0
 10
0.0
 20
0.0
 30
0.0
  3

  1

  0
INSERT
  5
59
100
AcDbEntity
  8
0
100
AcDbBlockReference
  2
CLUMP7
 10
0.0
 20
0.0
 30
0.0
  0
ENDBLK
  5
5E
100
AcDbEntity
  8
0
100
AcDbBlockEnd
  0
BLOCK
  5
5A
100
AcDbEntity
  8
0
100
AcDbBlockBegin
  2
CLUMP7
 70
         0
 10
0.0
 20
0.0
 30
0.0
  3

  1

  0
LINE
  5
5B
100
AcDbEntity
  8
LAYER1
 62
         3
100
AcDbLine
 10
16.2211592349
 20
17.3907683167
 30
0.0
 11
16.2255434202
 21
17.3912792567
 31
0.0
  0
LINE
  5
5C
100
AcDbEntity
  8
LAYER1
 62
         3
100
AcDbLine
 10
16.2255434202
 20
17.3912792567
 30
0.0
 11
16.2711592349
 21
17.396740967
 31
0.0
  0
ENDBLK
  5
5D
100
AcDbEntity
  8
0
100
AcDbBlockEnd
  0
BLOCK
  5
61
100
AcDbEntity
  8
0
100
AcDbBlockBegin
  2
CLUMP8
 70
         0
 10
0.0
 20
0.0
 30
0.0
  3

  1

  0
INSERT
  5
63
100
AcDbEntity
  8
0
100
AcDbBlockReference
  2
CLUMP9
 10
0.0
 20
0.0
 30
0.0
  0
ENDBLK
  5
77
100
AcDbEntity
  8
0
100
AcDbBlockEnd
  0
BLOCK
  5
64
100
AcDbEntity
  8
0
100
AcDbBlockBegin
  2
CLUMP9
 70
         0
 10
0.0
 20
0.0
 30
0.0
  3

  1

  0
LINE
  5
65
100
AcDbEntity
  8
LAYER0
 62
         3
100
AcDbLine
 10
17.3124470824
 20
17.3435318207
 30
0.0
 11
17.320225687
 21
17.4965188053
 31
0.0
  0
LINE
  5
66
100
AcDbEntity
  8
LAYER0
 62
         3
100
AcDbLine
 10
17.320225687
 20
17.4965188053
 30
0.0
 11
17.3260155341
 21
17.5706652575
 31
0.0
  0
LINE
  5
67
100
AcDbEntity
  8
LAYER0
 62
         3
100
AcDbLine
 10
17.3260155341
 20
17.5706652575
 30
0.0
 11
17.3340860349
 21
17.6419952616
 31
0.0
  0
LINE
  5
68
100
AcDbEntity
  8
LAYER0
 62
         3
100
AcDbLine
 10
17.3340860349
 20
17.6419952616
 30
0.0
 11
17.3449267497
 21
17.70952901
 31
0.0
  0
LINE
  5
69
100
AcDbEntity
  8
LAYER0
 62
         3
100
AcDbLine
 10
17.3449267497
 20
17.70952901
 30
0.0
 11
17.3580852936
 21
17.7729444527
 31
0.0
  0
LINE
  5
6A
100
AcDbEntity
  8
LAYER0
 62
         3
100
AcDbLine
 10
17.3580852936
 20
17.7729444527
 30
0.0
 11
17.3728510233
 21
17.8318632363
 31
0.0
  0
LINE
  5
6B
100
AcDbEntity
  8
LAYER0
 62
         3
100
AcDbLine
 10
17.3728510233
 20
17.8318632363
 30
0.0
 11
17.388513295
 21
17.8859070075
 31
0.0
  0
LINE
  5
6C
100
AcDbEntity
  8
LAYER0
 62
         3
100
AcDbLine
 10
17.388513295
 20
17.8859070075
 30
0.0
 11
17.405300199
 21
17.9372321257
 31
0.0
  0
LINE
  5
6D
100
AcDbEntity
  8
LAYER0
 62
         3
100
AcDbLine
 10
17.405300199
 20
17.9372321257
 30
0.0
 11
17.4222186277
 21
17.9832412551
 31
0.0
  0
LINE
  5
6E
100
AcDbEntity
  8
LAYER0
 62
         3
100
AcDbLine
 10
17.4222186277
 20
17.9832412551
 30
0.0
 11
17.4391944367
 21
18.0244304722
 31
0.0
  0
LINE
  5
6F
100
AcDbEntity
  8
LAYER0
 62
         3
100
AcDbLine
 10
17.4391944367
 20
18.0244304722
 30
0.0
 11
17.4561534814
 21
18.0612958534
 31
0.0
  0
LINE
  5
70
100
AcDbEntity
  8
LAYER0
 62
         3
100
AcDbLine
 10
17.4561534814
 20
18.0612958534
 30
0.0
 11
17.4734156311
 21
18.0948912235
 31
0.0
  0
LINE
  5
71
100
AcDbEntity
  8
LAYER0
 62
         3
100
AcDbLine
 10
17.4734156311
 20
18.0948912235
 30
0.0
 11
17.4889596462
 21
18.1210063722
 31
0.0
  0
LINE
  5
72
100
AcDbEntity
  8
LAYER0
 62
         3
100
AcDbLine
 10
17.4889596462
 20
18.1210063722
 30
0.0
 11
17.5011654756
 21
18.1362909417
 31
0.0
  0
LINE
  5
73
100
AcDbEntity
  8
LAYER0
 62
         3
100
AcDbLine
 10
17.5011654756
 20
18.1362909417
 30
0.0
 11
17.5055103046
 21
18.1388247722
 31
0.0
  0
LINE
  5
74
100
AcDbEntity
  8
LAYER0
 62
         3
100
AcDbLine
 10
17.5055103046
 20
18.1388247722
 30
0.0
 11
17.5084130681
 21
18.1373945737
 31
0.0
  0
LINE
  5
75
100
AcDbEntity
  8
LAYER0
 62
         3
100
AcDbLine
 10
17.5084130681
 20
18.1373945737
 30
0.0
 11
17.5100740889
 21
18.1317296636
 31
0.0
  0
ENDBLK
  5
76
100
AcDbEntity
  8
0
100
AcDbBlockEnd
  0
BLOCK
  5
7A
100
AcDbEntity
  8
0
100
AcDbBlockBegin
  2
CLUMP10
 70
         0
 10
0.0
 20
0.0
 30
0.0
  3

  1

  0
INSERT
  5
7C
100
AcDbEntity
  8
0
100
AcDbBlockReference
  2
CLUMP11
 10
0.0
 20
0.0
 30
0.0
  0
ENDBLK
  5
8C
100
AcDbEntity
  8
0
100
AcDbBlockEnd
  0
BLOCK
  5
7D
100
AcDbEntity
  8
0
100
AcDbBlockBegin
  2
CLUMP11
 70
         0
 10
0.0
 20
0.0
 30
0.0
  3

  1

  0
LINE
  5
7E
100
AcDbEntity
  8
LAYER0
 62
         3
100
AcDbLine
 10
17.5171847723
 20
18.1074786828
 30
0.0
 11
17.5199184343
 21
18.0981555307
 31
0.0
  0
LINE
  5
7F
100
AcDbEntity
  8
LAYER0
 62
         3
100
AcDbLine
 10
17.5199184343
 20
18.0981555307
 30
0.0
 11
17.5182523903
 21
18.0782113847
 31
0.0
  0
LINE
  5
80
100
AcDbEntity
  8
LAYER0
 62
         3
100
AcDbLine
 10
17.5182523903
 20
18.0782113847
 30
0.0
 11
17.5122430903
 21
18.0475501536
 31
0.0
  0
LINE
  5
81
100
AcDbEntity
  8
LAYER0
 62
         3
100
AcDbLine
 10
17.5122430903
 20
18.0475501536
 30
0.0
 11
17.5030165179
 21
18.008754325
 31
0.0
  0
LINE
  5
82
100
AcDbEntity
  8
LAYER0
 62
         3
100
AcDbLine
 10
17.5030165179
 20
18.008754325
 30
0.0
 11
17.4916986568
 21
17.9644063865
 31
0.0
  0
LINE
  5
83
100
AcDbEntity
  8
LAYER0
 62
         3
100
AcDbLine
 10
17.4916986568
 20
17.9644063865
 30
0.0
 11
17.4653732523
 21
17.8639494868
 31
0.0
  0
LINE
  5
84
100
AcDbEntity
  8
LAYER0
 62
         3
100
AcDbLine
 10
17.4653732523
 20
17.8639494868
 30
0.0
 11
17.450748348
 21
17.8084521161
 31
0.0
  0
LINE
  5
85
100
AcDbEntity
  8
LAYER0
 62
         3
100
AcDbLine
 10
17.450748348
 20
17.8084521161
 30
0.0
 11
17.4351653503
 21
17.7490825096
 31
0.0
  0
LINE
  5
86
100
AcDbEntity
  8
LAYER0
 62
         3
100
AcDbLine
 10
17.4351653503
 20
17.7490825096
 30
0.0
 11
17.4176585189
 21
17.6813858754
 31
0.0
  0
LINE
  5
87
100
AcDbEntity
  8
LAYER0
 62
         3
100
AcDbLine
 10
17.4176585189
 20
17.6813858754
 30
0.0
 11
17.3999401879
 21
17.6095108165
 31
0.0
  0
LINE
  5
88
100
AcDbEntity
  8
LAYER0
 62
         3
100
AcDbLine
 10
17.3999401879
 20
17.6095108165
 30
0.0
 11
17.3673189532
 21
17.4553296397
 31
0.0
  0
LINE
  5
89
100
AcDbEntity
  8
LAYER0
 62
         3
100
AcDbLine
 10
17.3673189532
 20
17.4553296397
 30
0.0
 11
17.3442042972
 21
17.3061708955
 31
0.0
  0
LINE
  5
8A
100
AcDbEntity
  8
LAYER0
 62
         3
100
AcDbLine
 10
17.3442042972
 20
17.3061708955
 30
0.0
 11
17.3250192416
 21
17.1527115485
 31
0.0
  0
ENDBLK
  5
8B
100
AcDbEntity
  8
0
100
AcDbBlockEnd
  0
BLOCK
  5
8F
100
AcDbEntity
  8
0
100
AcDbBlockBegin
  2
CLUMP12
 70
         0
 10
0.0
 20
0.0
 30
0.0
  3

  1

  0
INSERT
  5
91
100
AcDbEntity
  8
0
100
AcDbBlockReference
  2
CLUMP13
 10
0.0
 20
0.0
 30
0.0
  0
ENDBLK
  5
A1
100
AcDbEntity
  8
0
100
AcDbBlockEnd
  0
BLOCK
  5
92
100
AcDbEntity
  8
0
100
AcDbBlockBegin
  2
CLUMP13
 70
         0
 10
0.0
 20
0.0
 30
0.0
  3

  1

  0
LINE
  5
93
100
AcDbEntity
  8
LAYER0
 62
         3
100
AcDbLine
 10
17.5164470782
 20
16.1713918997
 30
0.0
 11
17.5160532301
 21
16.1939860066
 31
0.0
  0
LINE
  5
94
100
AcDbEntity
  8
LAYER0
 62
         3
100
AcDbLine
 10
17.5160532301
 20
16.1939860066
 30
0.0
 11
17.5123186185
 21
16.2246907709
 31
0.0
  0
LINE
  5
95
100
AcDbEntity
  8
LAYER0
 62
         3
100
AcDbLine
 10
17.5123186185
 20
16.2246907709
 30
0.0
 11
17.5057429061
 21
16.256785873
 31
0.0
  0
LINE
  5
96
100
AcDbEntity
  8
LAYER0
 62
         3
100
AcDbLine
 10
17.5057429061
 20
16.256785873
 30
0.0
 11
17.4961653238
 21
16.2964569409
 31
0.0
  0
LINE
  5
97
100
AcDbEntity
  8
LAYER0
 62
         3
100
AcDbLine
 10
17.4961653238
 20
16.2964569409
 30
0.0
 11
17.4842751436
 21
16.3423186395
 31
0.0
  0
LINE
  5
98
100
AcDbEntity
  8
LAYER0
 62
         3
100
AcDbLine
 10
17.4842751436
 20
16.3423186395
 30
0.0
 11
17.4707616375
 21
16.3929856338
 31
0.0
  0
LINE
  5
99
100
AcDbEntity
  8
LAYER0
 62
         3
100
AcDbLine
 10
17.4707616375
 20
16.3929856338
 30
0.0
 11
17.439646441
 21
16.5102847631
 31
0.0
  0
LINE
  5
9A
100
AcDbEntity
  8
LAYER0
 62
         3
100
AcDbLine
 10
17.439646441
 20
16.5102847631
 30
0.0
 11
17.4066851057
 21
16.6420650484
 31
0.0
  0
LINE
  5
9B
100
AcDbEntity
  8
LAYER0
 62
         3
100
AcDbLine
 10
17.4066851057
 20
16.6420650484
 30
0.0
 11
17.3724160133
 21
16.7966624326
 31
0.0
  0
LINE
  5
9C
100
AcDbEntity
  8
LAYER0
 62
         3
100
AcDbLine
 10
17.3724160133
 20
16.7966624326
 30
0.0
 11
17.3427686223
 21
16.9626058224
 31
0.0
  0
LINE
  5
9D
100
AcDbEntity
  8
LAYER0
 62
         3
100
AcDbLine
 10
17.3427686223
 20
16.9626058224
 30
0.0
 11
17.3232376216
 21
17.1192691658
 31
0.0
  0
LINE
  5
9E
100
AcDbEntity
  8
LAYER0
 62
         3
100
AcDbLine
 10
17.3232376216
 20
17.1192691658
 30
0.0
 11
17.3134532525
 21
17.2765897162
 31
0.0
  0
LINE
  5
9F
100
AcDbEntity
  8
LAYER0
 62
         3
100
AcDbLine
 10
17.3134532525
 20
17.2765897162
 30
0.0
 11
17.3124470824
 21
17.3435318207
 31
0.0
  0
ENDBLK
  5
A0
100
AcDbEntity
  8
0
100
AcDbBlockEnd
  0
BLOCK
  5
A4
100
AcDbEntity
  8
0
100
AcDbBlockBegin
  2
CLUMP14
 70
         0
 10
0.0
 20
0.0
 30
0.0
  3

  1

  0
INSERT
  5
A6
100
AcDbEntity
  8
0
100
AcDbBlockReference
  2
CLUMP15
 10
0.0
 20
0.0
 30
0.0
  0
ENDBLK
  5
B4
100
AcDbEntity
  8
0
100
AcDbBlockEnd
  0
BLOCK
  5
A7
100
AcDbEntity
  8
0
100
AcDbBlockBegin
  2
CLUMP15
 70
         0
 10
0.0
 20
0.0
 30
0.0
  3

  1

  0
LINE
  5
A8
100
AcDbEntity
  8
LAYER0
 62
         3
100
AcDbLine
 10
12.7182043435
 20
17.1186120729
 30
0.0
 11
12.6983235606
 21
17.3225391725
 31
0.0
  0
LINE
  5
A9
100
AcDbEntity
  8
LAYER0
 62
         3
100
AcDbLine
 10
12.6983235606
 20
17.3225391725
 30
0.0
 11
12.6722283068
 21
17.4740814381
 31
0.0
  0
LINE
  5
AA
100
AcDbEntity
  8
LAYER0
 62
         3
100
AcDbLine
 10
12.6722283068
 20
17.4740814381
 30
0.0
 11
12.6401259258
 21
17.6161820977
 31
0.0
  0
LINE
  5
AB
100
AcDbEntity
  8
LAYER0
 62
         3
100
AcDbLine
 10
12.6401259258
 20
17.6161820977
 30
0.0
 11
12.6053603221
 21
17.7554054344
 31
0.0
  0
LINE
  5
AC
100
AcDbEntity
  8
LAYER0
 62
         3
100
AcDbLine
 10
12.6053603221
 20
17.7554054344
 30
0.0
 11
12.5728140511
 21
17.8794092002
 31
0.0
  0
LINE
  5
AD
100
AcDbEntity
  8
LAYER0
 62
         3
100
AcDbLine
 10
12.5728140511
 20
17.8794092002
 30
0.0
 11
12.5576717867
 21
17.9363338085
 31
0.0
  0
LINE
  5
AE
100
AcDbEntity
  8
LAYER0
 62
         3
100
AcDbLine
 10
12.5576717867
 20
17.9363338085
 30
0.0
 11
12.5444622575
 21
17.9873002871
 31
0.0
  0
LINE
  5
AF
100
AcDbEntity
  8
LAYER0
 62
         3
100
AcDbLine
 10
12.5444622575
 20
17.9873002871
 30
0.0
 11
12.5341775907
 21
18.0303682006
 31
0.0
  0
LINE
  5
B0
100
AcDbEntity
  8
LAYER0
 62
         3
100
AcDbLine
 10
12.5341775907
 20
18.0303682006
 30
0.0
 11
12.527809914
 21
18.0635971136
 31
0.0
  0
LINE
  5
B1
100
AcDbEntity
  8
LAYER0
 62
         3
100
AcDbLine
 10
12.527809914
 20
18.0635971136
 30
0.0
 11
12.5257821826
 21
18.0871940021
 31
0.0
  0
LINE
  5
B2
100
AcDbEntity
  8
LAYER0
 62
         3
100
AcDbLine
 10
12.5257821826
 20
18.0871940021
 30
0.0
 11
12.5264494343
 21
18.1043242737
 31
0.0
  0
ENDBLK
  5
B3
100
AcDbEntity
  8
0
100
AcDbBlockEnd
  0
BLOCK
  5
B7
100
AcDbEntity
  8
0
100
AcDbBlockBegin
  2
CLUMP16
 70
         0
 10
0.0
 20
0.0
 30
0.0
  3

  1

  0
INSERT
  5
B9
100
AcDbEntity
  8
0
100
AcDbBlockReference
  2
CLUMP17
 10
0.0
 20
0.0
 30
0.0
  0
ENDBLK
  5
D0
100
AcDbEntity
  8
0
100
AcDbBlockEnd
  0
BLOCK
  5
BA
100
AcDbEntity
  8
0
100
AcDbBlockBegin
  2
CLUMP17
 70
         0
 10
0.0
 20
0.0
 30
0.0
  3

  1

  0
LINE
  5
BB
100
AcDbEntity
  8
LAYER0
 62
         3
100
AcDbLine
 10
12.5321983601
 20
18.1309750343
 30
0.0
 11
12.5447627131
 21
18.1244602126
 31
0.0
  0
LINE
  5
BC
100
AcDbEntity
  8
LAYER0
 62
         3
100
AcDbLine
 10
12.5447627131
 20
18.1244602126
 30
0.0
 11
12.5604964331
 21
18.1072038165
 31
0.0
  0
LINE
  5
BD
100
AcDbEntity
  8
LAYER0
 62
         3
100
AcDbLine
 10
12.5604964331
 20
18.1072038165
 30
0.0
 11
12.5734432746
 21
18.0862065238
 31
0.0
  0
LINE
  5
BE
100
AcDbEntity
  8
LAYER0
 62
         3
100
AcDbLine
 10
12.5734432746
 20
18.0862065238
 30
0.0
 11
12.5883201536
 21
18.0574601576
 31
0.0
  0
LINE
  5
BF
100
AcDbEntity
  8
LAYER0
 62
         3
100
AcDbLine
 10
12.5883201536
 20
18.0574601576
 30
0.0
 11
12.6211990852
 21
17.9809209111
 31
0.0
  0
LINE
  5
C0
100
AcDbEntity
  8
LAYER0
 62
         3
100
AcDbLine
 10
12.6211990852
 20
17.9809209111
 30
0.0
 11
12.6563402617
 21
17.8776593161
 31
0.0
  0
LINE
  5
C1
100
AcDbEntity
  8
LAYER0
 62
         3
100
AcDbLine
 10
12.6563402617
 20
17.8776593161
 30
0.0
 11
12.6878728413
 21
17.7539073229
 31
0.0
  0
LINE
  5
C2
100
AcDbEntity
  8
LAYER0
 62
         3
100
AcDbLine
 10
12.6878728413
 20
17.7539073229
 30
0.0
 11
12.7126959967
 21
17.6095271259
 31
0.0
  0
LINE
  5
C3
100
AcDbEntity
  8
LAYER0
 62
         3
100
AcDbLine
 10
12.7126959967
 20
17.6095271259
 30
0.0
 11
12.7272346754
 21
17.4499087007
 31
0.0
  0
LINE
  5
C4
100
AcDbEntity
  8
LAYER0
 62
         3
100
AcDbLine
 10
12.7272346754
 20
17.4499087007
 30
0.0
 11
12.7292175303
 21
17.2928413001
 31
0.0
  0
LINE
  5
C5
100
AcDbEntity
  8
LAYER0
 62
         3
100
AcDbLine
 10
12.7292175303
 20
17.2928413001
 30
0.0
 11
12.7201511639
 21
17.1321130999
 31
0.0
  0
LINE
  5
C6
100
AcDbEntity
  8
LAYER0
 62
         3
100
AcDbLine
 10
12.7201511639
 20
17.1321130999
 30
0.0
 11
12.7019207333
 21
16.9786486449
 31
0.0
  0
LINE
  5
C7
100
AcDbEntity
  8
LAYER0
 62
         3
100
AcDbLine
 10
12.7019207333
 20
16.9786486449
 30
0.0
 11
12.6765680285
 21
16.8298679204
 31
0.0
  0
LINE
  5
C8
100
AcDbEntity
  8
LAYER0
 62
         3
100
AcDbLine
 10
12.6765680285
 20
16.8298679204
 30
0.0
 11
12.6448752747
 21
16.681270506
 31
0.0
  0
LINE
  5
C9
100
AcDbEntity
  8
LAYER0
 62
         3
100
AcDbLine
 10
12.6448752747
 20
16.681270506
 30
0.0
 11
12.611462453
 21
16.5448014883
 31
0.0
  0
LINE
  5
CA
100
AcDbEntity
  8
LAYER0
 62
         3
100
AcDbLine
 10
12.611462453
 20
16.5448014883
 30
0.0
 11
12.5777386797
 21
16.4161796146
 31
0.0
  0
LINE
  5
CB
100
AcDbEntity
  8
LAYER0
 62
         3
100
AcDbLine
 10
12.5777386797
 20
16.4161796146
 30
0.0
 11
12.5494325821
 21
16.3080396445
 31
0.0
  0
LINE
  5
CC
100
AcDbEntity
  8
LAYER0
 62
         3
100
AcDbLine
 10
12.5494325821
 20
16.3080396445
 30
0.0
 11
12.5301254574
 21
16.225303764
 31
0.0
  0
LINE
  5
CD
100
AcDbEntity
  8
LAYER0
 62
         3
100
AcDbLine
 10
12.5301254574
 20
16.225303764
 30
0.0
 11
12.5215234532
 21
16.1694364603
 31
0.0
  0
LINE
  5
CE
100
AcDbEntity
  8
LAYER0
 62
         3
100
AcDbLine
 10
12.5215234532
 20
16.1694364603
 30
0.0
 11
12.5211592349
 21
16.1597985521
 31
0.0
  0
ENDBLK
  5
CF
100
AcDbEntity
  8
0
100
AcDbBlockEnd
  0
BLOCK
  5
D3
100
AcDbEntity
  8
0
100
AcDbBlockBegin
  2
CLUMP18
 70
         0
 10
0.0
 20
0.0
 30
0.0
  3

  1

  0
INSERT
  5
D5
100
AcDbEntity
  8
0
100
AcDbBlockReference
  2
CLUMP19
 10
0.0
 20
0.0
 30
0.0
  0
ENDBLK
  5
E7
100
AcDbEntity
  8
0
100
AcDbBlockEnd
  0
BLOCK
  5
D6
100
AcDbEntity
  8
0
100
AcDbBlockBegin
  2
CLUMP19
 70
         0
 10
0.0
 20
0.0
 30
0.0
  3

  1

  0
LINE
  5
D7
100
AcDbEntity
  8
LAYER0
 62
         3
100
AcDbLine
 10
17.5153905659
 20
20.07021717
 30
0.0
 11
17.519039109
 21
20.0942462783
 31
0.0
  0
LINE
  5
D8
100
AcDbEntity
  8
LAYER0
 62
         3
100
AcDbLine
 10
17.519039109
 20
20.0942462783
 30
0.0
 11
17.5166541734
 21
20.1089889867
 31
0.0
  0
LINE
  5
D9
100
AcDbEntity
  8
LAYER0
 62
         3
100
AcDbLine
 10
17.5166541734
 20
20.1089889867
 30
0.0
 11
17.5093998994
 21
20.1197127802
 31
0.0
  0
LINE
  5
DA
100
AcDbEntity
  8
LAYER0
 62
         3
100
AcDbLine
 10
17.5093998994
 20
20.1197127802
 30
0.0
 11
17.484537214
 21
20.1324589384
 31
0.0
  0
LINE
  5
DB
100
AcDbEntity
  8
LAYER0
 62
         3
100
AcDbLine
 10
17.484537214
 20
20.1324589384
 30
0.0
 11
17.450208906
 21
20.137902837
 31
0.0
  0
LINE
  5
DC
100
AcDbEntity
  8
LAYER0
 62
         3
100
AcDbLine
 10
17.450208906
 20
20.137902837
 30
0.0
 11
17.4070220603
 21
20.1355121854
 31
0.0
  0
LINE
  5
DD
100
AcDbEntity
  8
LAYER0
 62
         3
100
AcDbLine
 10
17.4070220603
 20
20.1355121854
 30
0.0
 11
17.3543742226
 21
20.124412413
 31
0.0
  0
LINE
  5
DE
100
AcDbEntity
  8
LAYER0
 62
         3
100
AcDbLine
 10
17.3543742226
 20
20.124412413
 30
0.0
 11
17.2926064853
 21
20.1052787453
 31
0.0
  0
LINE
  5
DF
100
AcDbEntity
  8
LAYER0
 62
         3
100
AcDbLine
 10
17.2926064853
 20
20.1052787453
 30
0.0
 11
17.2212400484
 21
20.0784569224
 31
0.0
  0
LINE
  5
E0
100
AcDbEntity
  8
LAYER0
 62
         3
100
AcDbLine
 10
17.2212400484
 20
20.0784569224
 30
0.0
 11
17.1420498589
 21
20.0449371844
 31
0.0
  0
LINE
  5
E1
100
AcDbEntity
  8
LAYER0
 62
         3
100
AcDbLine
 10
17.1420498589
 20
20.0449371844
 30
0.0
 11
17.0173959736
 21
19.9871908895
 31
0.0
  0
LINE
  5
E2
100
AcDbEntity
  8
LAYER0
 62
         3
100
AcDbLine
 10
17.0173959736
 20
19.9871908895
 30
0.0
 11
16.8797186173
 21
19.9192283985
 31
0.0
  0
LINE
  5
E3
100
AcDbEntity
  8
LAYER0
 62
         3
100
AcDbLine
 10
16.8797186173
 20
19.9192283985
 30
0.0
 11
16.7259702122
 21
19.840872565
 31
0.0
  0
LINE
  5
E4
100
AcDbEntity
  8
LAYER0
 62
         3
100
AcDbLine
 10
16.7259702122
 20
19.840872565
 30
0.0
 11
16.559353119
 21
19.7563519289
 31
0.0
  0
LINE
  5
E5
100
AcDbEntity
  8
LAYER0
 62
         3
100
AcDbLine
 10
16.559353119
 20
19.7563519289
 30
0.0
 11
16.2711592349
 21
19.6148952198
 31
0.0
  0
ENDBLK
  5
E6
100
AcDbEntity
  8
0
100
AcDbBlockEnd
  0
BLOCK
  5
EA
100
AcDbEntity
  8
0
100
AcDbBlockBegin
  2
CLUMP20
 70
         0
 10
0.0
 20
0.0
 30
0.0
  3

  1

  0
INSERT
  5
EC
100
AcDbEntity
  8
0
100
AcDbBlockReference
  2
CLUMP21
 10
0.0
 20
0.0
 30
0.0
  0
ENDBLK
  5
FD
100
AcDbEntity
  8
0
100
AcDbBlockEnd
  0
BLOCK
  5
ED
100
AcDbEntity
  8
0
100
AcDbBlockBegin
  2
CLUMP21
 70
         0
 10
0.0
 20
0.0
 30
0.0
  3

  1

  0
LINE
  5
EE
100
AcDbEntity
  8
LAYER0
 62
         3
100
AcDbLine
 10
13.7711592349
 20
19.6148952198
 30
0.0
 11
13.6043414163
 21
19.6965354417
 31
0.0
  0
LINE
  5
EF
100
AcDbEntity
  8
LAYER0
 62
         3
100
AcDbLine
 10
13.6043414163
 20
19.6965354417
 30
0.0
 11
13.4434515111
 21
19.776378512
 31
0.0
  0
LINE
  5
F0
100
AcDbEntity
  8
LAYER0
 62
         3
100
AcDbLine
 10
13.4434515111
 20
19.776378512
 30
0.0
 11
13.2798771588
 21
19.8594724491
 31
0.0
  0
LINE
  5
F1
100
AcDbEntity
  8
LAYER0
 62
         3
100
AcDbLine
 10
13.2798771588
 20
19.8594724491
 30
0.0
 11
13.1293640955
 21
19.935869561
 31
0.0
  0
LINE
  5
F2
100
AcDbEntity
  8
LAYER0
 62
         3
100
AcDbLine
 10
13.1293640955
 20
19.935869561
 30
0.0
 11
12.9875389173
 21
20.0049986977
 31
0.0
  0
LINE
  5
F3
100
AcDbEntity
  8
LAYER0
 62
         3
100
AcDbLine
 10
12.9875389173
 20
20.0049986977
 30
0.0
 11
12.8605721178
 21
20.0621572931
 31
0.0
  0
LINE
  5
F4
100
AcDbEntity
  8
LAYER0
 62
         3
100
AcDbLine
 10
12.8605721178
 20
20.0621572931
 30
0.0
 11
12.7796048557
 21
20.0945670092
 31
0.0
  0
LINE
  5
F5
100
AcDbEntity
  8
LAYER0
 62
         3
100
AcDbLine
 10
12.7796048557
 20
20.0945670092
 30
0.0
 11
12.7083292475
 21
20.1185885309
 31
0.0
  0
LINE
  5
F6
100
AcDbEntity
  8
LAYER0
 62
         3
100
AcDbLine
 10
12.7083292475
 20
20.1185885309
 30
0.0
 11
12.6460565
 21
20.1336301919
 31
0.0
  0
LINE
  5
F7
100
AcDbEntity
  8
LAYER0
 62
         3
100
AcDbLine
 10
12.6460565
 20
20.1336301919
 30
0.0
 11
12.595229286
 21
20.1385476588
 31
0.0
  0
LINE
  5
F8
100
AcDbEntity
  8
LAYER0
 62
         3
100
AcDbLine
 10
12.595229286
 20
20.1385476588
 30
0.0
 11
12.5630167863
 21
20.1347192272
 31
0.0
  0
LINE
  5
F9
100
AcDbEntity
  8
LAYER0
 62
         3
100
AcDbLine
 10
12.5630167863
 20
20.1347192272
 30
0.0
 11
12.5403885107
 21
20.122642946
 31
0.0
  0
LINE
  5
FA
100
AcDbEntity
  8
LAYER0
 62
         3
100
AcDbLine
 10
12.5403885107
 20
20.122642946
 30
0.0
 11
12.5277667241
 21
20.1013057181
 31
0.0
  0
LINE
  5
FB
100
AcDbEntity
  8
LAYER0
 62
         3
100
AcDbLine
 10
12.5277667241
 20
20.1013057181
 30
0.0
 11
12.5211592349
 21
20.0748768609
 31
0.0
  0
ENDBLK
  5
FC
100
AcDbEntity
  8
0
100
AcDbBlockEnd
  0
BLOCK
  5
11C
100
AcDbEntity
  8
0
100
AcDbBlockBegin
  2
CLUMP22
 70
         0
 10
0.0
 20
0.0
 30
0.0
  3

  1

  0
INSERT
  5
11E
100
AcDbEntity
  8
0
100
AcDbBlockReference
  2
CLUMP23
 10
0.0
 20
0.0
 30
0.0
  0
ENDBLK
  5
148
100
AcDbEntity
  8
0
100
AcDbBlockEnd
  0
BLOCK
  5
11F
100
AcDbEntity
  8
0
100
AcDbBlockBegin
  2
CLUMP23
 70
         0
 10
0.0
 20
0.0
 30
0.0
  3

  1

  0
LINE
  5
120
100
AcDbEntity
  8
LAYER0
 62
         3
100
AcDbLine
 10
-11.51806316
 20
18.0431542984
 30
0.0
 11
-11.6556794012
 21
17.9644063865
 31
0.0
  0
LINE
  5
121
100
AcDbEntity
  8
LAYER0
 62
         3
100
AcDbLine
 10
-11.6556794012
 20
17.9644063865
 30
0.0
 11
-11.7770817063
 21
17.8668201965
 31
0.0
  0
LINE
  5
122
100
AcDbEntity
  8
LAYER0
 62
         3
100
AcDbLine
 10
-11.7770817063
 20
17.8668201965
 30
0.0
 11
-11.883777512
 21
17.7490825096
 31
0.0
  0
LINE
  5
123
100
AcDbEntity
  8
LAYER0
 62
         3
100
AcDbLine
 10
-11.883777512
 20
17.7490825096
 30
0.0
 11
-11.9731972597
 21
17.6108922893
 31
0.0
  0
LINE
  5
124
100
AcDbEntity
  8
LAYER0
 62
         3
100
AcDbLine
 10
-11.9731972597
 20
17.6108922893
 30
0.0
 11
-12.040277557
 21
17.4553296397
 31
0.0
  0
LINE
  5
125
100
AcDbEntity
  8
LAYER0
 62
         3
100
AcDbLine
 10
-12.040277557
 20
17.4553296397
 30
0.0
 11
-12.0802364546
 21
17.2900233877
 31
0.0
  0
LINE
  5
126
100
AcDbEntity
  8
LAYER0
 62
         3
100
AcDbLine
 10
-12.0802364546
 20
17.2900233877
 30
0.0
 11
-12.0914567498
 21
17.1134467827
 31
0.0
  0
LINE
  5
127
100
AcDbEntity
  8
LAYER0
 62
         3
100
AcDbLine
 10
-12.0914567498
 20
17.1134467827
 30
0.0
 11
-12.0743526235
 21
16.9527295227
 31
0.0
  0
LINE
  5
128
100
AcDbEntity
  8
LAYER0
 62
         3
100
AcDbLine
 10
-12.0743526235
 20
16.9527295227
 30
0.0
 11
-12.0297252738
 21
16.7918055373
 31
0.0
  0
LINE
  5
129
100
AcDbEntity
  8
LAYER0
 62
         3
100
AcDbLine
 10
-12.0297252738
 20
16.7918055373
 30
0.0
 11
-11.9661792408
 21
16.6533747936
 31
0.0
  0
LINE
  5
12A
100
AcDbEntity
  8
LAYER0
 62
         3
100
AcDbLine
 10
-11.9661792408
 20
16.6533747936
 30
0.0
 11
-11.8804295501
 21
16.5237349763
 31
0.0
  0
LINE
  5
12B
100
AcDbEntity
  8
LAYER0
 62
         3
100
AcDbLine
 10
-11.8804295501
 20
16.5237349763
 30
0.0
 11
-11.7747060862
 21
16.4080878084
 31
0.0
  0
LINE
  5
12C
100
AcDbEntity
  8
LAYER0
 62
         3
100
AcDbLine
 10
-11.7747060862
 20
16.4080878084
 30
0.0
 11
-11.649431898
 21
16.3084983623
 31
0.0
  0
LINE
  5
12D
100
AcDbEntity
  8
LAYER0
 62
         3
100
AcDbLine
 10
-11.649431898
 20
16.3084983623
 30
0.0
 11
-11.5031366989
 21
16.2270971398
 31
0.0
  0
LINE
  5
12E
100
AcDbEntity
  8
LAYER0
 62
         3
100
AcDbLine
 10
-11.5031366989
 20
16.2270971398
 30
0.0
 11
-11.3398677637
 21
16.1698325302
 31
0.0
  0
LINE
  5
12F
100
AcDbEntity
  8
LAYER0
 62
         3
100
AcDbLine
 10
-11.3398677637
 20
16.1698325302
 30
0.0
 11
-11.1733204476
 21
16.1418987226
 31
0.0
  0
LINE
  5
130
100
AcDbEntity
  8
LAYER0
 62
         3
100
AcDbLine
 10
-11.1733204476
 20
16.1418987226
 30
0.0
 11
-10.9977773052
 21
16.1429954633
 31
0.0
  0
LINE
  5
131
100
AcDbEntity
  8
LAYER0
 62
         3
100
AcDbLine
 10
-10.9977773052
 20
16.1429954633
 30
0.0
 11
-10.8407619782
 21
16.1705837297
 31
0.0
  0
LINE
  5
132
100
AcDbEntity
  8
LAYER0
 62
         3
100
AcDbLine
 10
-10.8407619782
 20
16.1705837297
 30
0.0
 11
-10.6857819788
 21
16.2246907709
 31
0.0
  0
LINE
  5
133
100
AcDbEntity
  8
LAYER0
 62
         3
100
AcDbLine
 10
-10.6857819788
 20
16.2246907709
 30
0.0
 11
-10.5503282325
 21
16.2978313823
 31
0.0
  0
LINE
  5
134
100
AcDbEntity
  8
LAYER0
 62
         3
100
AcDbLine
 10
-10.5503282325
 20
16.2978313823
 30
0.0
 11
-10.4253589987
 21
16.3929856338
 31
0.0
  0
LINE
  5
135
100
AcDbEntity
  8
LAYER0
 62
         3
100
AcDbLine
 10
-10.4253589987
 20
16.3929856338
 30
0.0
 11
-10.3156410976
 21
16.5079967268
 31
0.0
  0
LINE
  5
136
100
AcDbEntity
  8
LAYER0
 62
         3
100
AcDbLine
 10
-10.3156410976
 20
16.5079967268
 30
0.0
 11
-10.2237373813
 21
16.6420650484
 31
0.0
  0
LINE
  5
137
100
AcDbEntity
  8
LAYER0
 62
         3
100
AcDbLine
 10
-10.2237373813
 20
16.6420650484
 30
0.0
 11
-10.152802831
 21
16.7945677515
 31
0.0
  0
LINE
  5
138
100
AcDbEntity
  8
LAYER0
 62
         3
100
AcDbLine
 10
-10.152802831
 20
16.7945677515
 30
0.0
 11
-10.1073754357
 21
16.9626058224
 31
0.0
  0
LINE
  5
139
100
AcDbEntity
  8
LAYER0
 62
         3
100
AcDbLine
 10
-10.1073754357
 20
16.9626058224
 30
0.0
 11
-10.0920113583
 21
17.1167054176
 31
0.0
  0
LINE
  5
13A
100
AcDbEntity
  8
LAYER0
 62
         3
100
AcDbLine
 10
-10.0920113583
 20
17.1167054176
 30
0.0
 11
-10.1013431198
 21
17.2765897162
 31
0.0
  0
LINE
  5
13B
100
AcDbEntity
  8
LAYER0
 62
         3
100
AcDbLine
 10
-10.1013431198
 20
17.2765897162
 30
0.0
 11
-10.1130027634
 21
17.3435318207
 31
0.0
  0
LINE
  5
13C
100
AcDbEntity
  8
LAYER0
 62
         3
100
AcDbLine
 10
-10.1130027634
 20
17.3435318207
 30
0.0
 11
-10.1576166817
 21
17.4954339374
 31
0.0
  0
LINE
  5
13D
100
AcDbEntity
  8
LAYER0
 62
         3
100
AcDbLine
 10
-10.1576166817
 20
17.4954339374
 30
0.0
 11
-10.2277346548
 21
17.6419952616
 31
0.0
  0
LINE
  5
13E
100
AcDbEntity
  8
LAYER0
 62
         3
100
AcDbLine
 10
-10.2277346548
 20
17.6419952616
 30
0.0
 11
-10.3168638896
 21
17.770641616
 31
0.0
  0
LINE
  5
13F
100
AcDbEntity
  8
LAYER0
 62
         3
100
AcDbLine
 10
-10.3168638896
 20
17.770641616
 30
0.0
 11
-10.4273292647
 21
17.8859070075
 31
0.0
  0
LINE
  5
140
100
AcDbEntity
  8
LAYER0
 62
         3
100
AcDbLine
 10
-10.4273292647
 20
17.8859070075
 30
0.0
 11
-10.5576249058
 21
17.9839594694
 31
0.0
  0
LINE
  5
141
100
AcDbEntity
  8
LAYER0
 62
         3
100
AcDbLine
 10
-10.5576249058
 20
17.9839594694
 30
0.0
 11
-10.7063199478
 21
18.0612958534
 31
0.0
  0
LINE
  5
142
100
AcDbEntity
  8
LAYER0
 62
         3
100
AcDbLine
 10
-10.7063199478
 20
18.0612958534
 30
0.0
 11
-10.8682664136
 21
18.1132706996
 31
0.0
  0
LINE
  5
143
100
AcDbEntity
  8
LAYER0
 62
         3
100
AcDbLine
 10
-10.8682664136
 20
18.1132706996
 30
0.0
 11
-11.043339563
 21
18.1373945737
 31
0.0
  0
LINE
  5
144
100
AcDbEntity
  8
LAYER0
 62
         3
100
AcDbLine
 10
-11.043339563
 20
18.1373945737
 30
0.0
 11
-11.2070514092
 21
18.131901274
 31
0.0
  0
LINE
  5
145
100
AcDbEntity
  8
LAYER0
 62
         3
100
AcDbLine
 10
-11.2070514092
 20
18.131901274
 30
0.0
 11
-11.3731831062
 21
18.0981555307
 31
0.0
  0
LINE
  5
146
100
AcDbEntity
  8
LAYER0
 62
         3
100
AcDbLine
 10
-11.3731831062
 20
18.0981555307
 30
0.0
 11
-11.51806316
 21
18.0431542984
 31
0.0
  0
ENDBLK
  5
147
100
AcDbEntity
  8
0
100
AcDbBlockEnd
  0
BLOCK
  5
14B
100
AcDbEntity
  8
0
100
AcDbBlockBegin
  2
CLUMP24
 70
         0
 10
0.0
 20
0.0
 30
0.0
  3

  1

  0
INSERT
  5
14D
100
AcDbEntity
  8
0
100
AcDbBlockReference
  2
CLUMP25
 10
0.0
 20
0.0
 30
0.0
  0
ENDBLK
  5
15F
100
AcDbEntity
  8
0
100
AcDbBlockEnd
  0
BLOCK
  5
14E
100
AcDbEntity
  8
0
100
AcDbBlockBegin
  2
CLUMP25
 70
         0
 10
0.0
 20
0.0
 30
0.0
  3

  1

  0
LINE
  5
14F
100
AcDbEntity
  8
LAYER0
 62
         3
100
AcDbLine
 10
-13.6365097088
 20
18.7273764019
 30
0.0
 11
-13.4743384437
 21
18.9615817783
 31
0.0
  0
LINE
  5
150
100
AcDbEntity
  8
LAYER0
 62
         3
100
AcDbLine
 10
-13.4743384437
 20
18.9615817783
 30
0.0
 11
-13.2292532294
 21
19.2436038654
 31
0.0
  0
LINE
  5
151
100
AcDbEntity
  8
LAYER0
 62
         3
100
AcDbLine
 10
-13.2292532294
 20
19.2436038654
 30
0.0
 11
-13.0797574473
 21
19.3853247284
 31
0.0
  0
LINE
  5
152
100
AcDbEntity
  8
LAYER0
 62
         3
100
AcDbLine
 10
-13.0797574473
 20
19.3853247284
 30
0.0
 11
-12.912122853
 21
19.5231695661
 31
0.0
  0
LINE
  5
153
100
AcDbEntity
  8
LAYER0
 62
         3
100
AcDbLine
 10
-12.912122853
 20
19.5231695661
 30
0.0
 11
-12.6363928609
 21
19.7103666145
 31
0.0
  0
LINE
  5
154
100
AcDbEntity
  8
LAYER0
 62
         3
100
AcDbLine
 10
-12.6363928609
 20
19.7103666145
 30
0.0
 11
-12.3178259128
 21
19.8765952727
 31
0.0
  0
LINE
  5
155
100
AcDbEntity
  8
LAYER0
 62
         3
100
AcDbLine
 10
-12.3178259128
 20
19.8765952727
 30
0.0
 11
-11.9779184937
 21
20.0047057735
 31
0.0
  0
LINE
  5
156
100
AcDbEntity
  8
LAYER0
 62
         3
100
AcDbLine
 10
-11.9779184937
 20
20.0047057735
 30
0.0
 11
-11.605549218
 21
20.0942462783
 31
0.0
  0
LINE
  5
157
100
AcDbEntity
  8
LAYER0
 62
         3
100
AcDbLine
 10
-11.605549218
 20
20.0942462783
 30
0.0
 11
-11.2831301817
 21
20.1324589384
 31
0.0
  0
LINE
  5
158
100
AcDbEntity
  8
LAYER0
 62
         3
100
AcDbLine
 10
-11.2831301817
 20
20.1324589384
 30
0.0
 11
-10.9563975834
 21
20.1355121854
 31
0.0
  0
LINE
  5
159
100
AcDbEntity
  8
LAYER0
 62
         3
100
AcDbLine
 10
-10.9563975834
 20
20.1355121854
 30
0.0
 11
-10.6460951916
 21
20.1052787453
 31
0.0
  0
LINE
  5
15A
100
AcDbEntity
  8
LAYER0
 62
         3
100
AcDbLine
 10
-10.6460951916
 20
20.1052787453
 30
0.0
 11
-10.3481199248
 21
20.0449371844
 31
0.0
  0
LINE
  5
15B
100
AcDbEntity
  8
LAYER0
 62
         3
100
AcDbLine
 10
-10.3481199248
 20
20.0449371844
 30
0.0
 11
-9.9657490429
 21
19.9192283985
 31
0.0
  0
LINE
  5
15C
100
AcDbEntity
  8
LAYER0
 62
         3
100
AcDbLine
 10
-9.9657490429
 20
19.9192283985
 30
0.0
 11
-9.6264368914
 21
19.7563519289
 31
0.0
  0
LINE
  5
15D
100
AcDbEntity
  8
LAYER0
 62
         3
100
AcDbLine
 10
-9.6264368914
 20
19.7563519289
 30
0.0
 11
-9.3983131174
 21
19.6148952198
 31
0.0
  0
ENDBLK
  5
15E
100
AcDbEntity
  8
0
100
AcDbBlockEnd
  0
BLOCK
  5
19C
100
AcDbEntity
  8
0
100
AcDbBlockBegin
  2
CLUMP26
 70
         0
 10
0.0
 20
0.0
 30
0.0
  3

  1

  0
INSERT
  5
19E
100
AcDbEntity
  8
0
100
AcDbBlockReference
  2
CLUMP27
 10
0.0
 20
0.0
 30
0.0
  0
ENDBLK
  5
1B0
100
AcDbEntity
  8
0
100
AcDbBlockEnd
  0
BLOCK
  5
19F
100
AcDbEntity
  8
0
100
AcDbBlockBegin
  2
CLUMP27
 70
         0
 10
0.0
 20
0.0
 30
0.0
  3

  1

  0
LINE
  5
1A0
100
AcDbEntity
  8
LAYER0
 62
         3
100
AcDbLine
 10
-9.3430797991
 20
-2.7555988083
 30
0.0
 11
-9.3784070907
 21
-2.8105600244
 31
0.0
  0
LINE
  5
1A1
100
AcDbEntity
  8
LAYER0
 62
         3
100
AcDbLine
 10
-9.3784070907
 20
-2.8105600244
 30
0.0
 11
-9.3949783243
 21
-2.836341088
 31
0.0
  0
LINE
  5
1A2
100
AcDbEntity
  8
LAYER0
 62
         3
100
AcDbLine
 10
-9.3949783243
 20
-2.836341088
 30
0.0
 11
-9.4102386633
 21
-2.8600826983
 31
0.0
  0
LINE
  5
1A3
100
AcDbEntity
  8
LAYER0
 62
         3
100
AcDbLine
 10
-9.4102386633
 20
-2.8600826983
 30
0.0
 11
-9.4241928636
 21
-2.8817922544
 31
0.0
  0
LINE
  5
1A4
100
AcDbEntity
  8
LAYER0
 62
         3
100
AcDbLine
 10
-9.4241928636
 20
-2.8817922544
 30
0.0
 11
-9.4365280105
 21
-2.9009829324
 31
0.0
  0
LINE
  5
1A5
100
AcDbEntity
  8
LAYER0
 62
         3
100
AcDbLine
 10
-9.4365280105
 20
-2.9009829324
 30
0.0
 11
-9.4474655687
 21
-2.9179992808
 31
0.0
  0
LINE
  5
1A6
100
AcDbEntity
  8
LAYER0
 62
         3
100
AcDbLine
 10
-9.4474655687
 20
-2.9179992808
 30
0.0
 11
-9.4572270029
 21
-2.9331858481
 31
0.0
  0
LINE
  5
1A7
100
AcDbEntity
  8
LAYER0
 62
         3
100
AcDbLine
 10
-9.4572270029
 20
-2.9331858481
 30
0.0
 11
-9.4669766738
 21
-2.9483541145
 31
0.0
  0
LINE
  5
1A8
100
AcDbEntity
  8
LAYER0
 62
         3
100
AcDbLine
 10
-9.4669766738
 20
-2.9483541145
 30
0.0
 11
-9.4710178185
 21
-2.9546412148
 31
0.0
  0
LINE
  5
1A9
100
AcDbEntity
  8
LAYER0
 62
         3
100
AcDbLine
 10
-9.4710178185
 20
-2.9546412148
 30
0.0
 11
-9.4743079225
 21
-2.959759867
 31
0.0
  0
LINE
  5
1AA
100
AcDbEntity
  8
LAYER0
 62
         3
100
AcDbLine
 10
-9.4743079225
 20
-2.959759867
 30
0.0
 11
-9.4767005507
 21
-2.9634822514
 31
0.0
  0
LINE
  5
1AB
100
AcDbEntity
  8
LAYER0
 62
         3
100
AcDbLine
 10
-9.4767005507
 20
-2.9634822514
 30
0.0
 11
-9.4780492681
 21
-2.9655805483
 31
0.0
  0
LINE
  5
1AC
100
AcDbEntity
  8
LAYER0
 62
         3
100
AcDbLine
 10
-9.4780492681
 20
-2.9655805483
 30
0.0
 11
-9.4782076396
 21
-2.9658269382
 31
0.0
  0
LINE
  5
1AD
100
AcDbEntity
  8
LAYER0
 62
         3
100
AcDbLine
 10
-9.4782076396
 20
-2.9658269382
 30
0.0
 11
-9.4770292299
 21
-2.9639936013
 31
0.0
  0
LINE
  5
1AE
100
AcDbEntity
  8
LAYER0
 62
         3
100
AcDbLine
 10
-9.4770292299
 20
-2.9639936013
 30
0.0
 11
-9.4770206228
 21
-2.9639802106
 31
0.0
  0
ENDBLK
  5
1AF
100
AcDbEntity
  8
0
100
AcDbBlockEnd
  0
ENDSEC
  0
SECTION
  2
ENTITIES
  0
LINE
  5
2F
100
AcDbEntity
  8
LAYER1
 62
         3
100
AcDbLine
 10
17.5211592349
 20
20.2499042036
 30
0.0
 11
17.5211592349
 21
20.0822787942
 31
0.0
  0
LINE
  5
30
100
AcDbEntity
  8
LAYER1
 62
         3
100
AcDbLine
 10
17.5211592349
 20
18.1004154769
 30
0.0
 11
17.5211592349
 21
17.8567986167
 31
0.0
  0
LINE
  5
31
100
AcDbEntity
  8
LAYER1
 62
         3
100
AcDbLine
 10
17.5211592349
 20
17.8567986167
 30
0.0
 11
17.5211592349
 21
16.1714108733
 31
0.0
  0
INSERT
  5
33
100
AcDbEntity
  8
0
100
AcDbBlockReference
  2
CLUMP0
 10
0.0
 20
0.0
 30
0.0
  0
INSERT
  5
40
100
AcDbEntity
  8
0
100
AcDbBlockReference
  2
CLUMP2
 10
0.0
 20
0.0
 30
0.0
  0
INSERT
  5
4C
100
AcDbEntity
  8
0
100
AcDbBlockReference
  2
CLUMP4
 10
0.0
 20
0.0
 30
0.0
  0
INSERT
  5
56
100
AcDbEntity
  8
0
100
AcDbBlockReference
  2
CLUMP6
 10
0.0
 20
0.0
 30
0.0
  0
INSERT
  5
60
100
AcDbEntity
  8
0
100
AcDbBlockReference
  2
CLUMP8
 10
0.0
 20
0.0
 30
0.0
  0
INSERT
  5
79
100
AcDbEntity
  8
0
100
AcDbBlockReference
  2
CLUMP10
 10
0.0
 20
0.0
 30
0.0
  0
INSERT
  5
8E
100
AcDbEntity
  8
0
100
AcDbBlockReference
  2
CLUMP12
 10
0.0
 20
0.0
 30
0.0
  0
INSERT
  5
A3
100
AcDbEntity
  8
0
100
AcDbBlockReference
  2
CLUMP14
 10
0.0
 20
0.0
 30
0.0
  0
INSERT
  5
B6
100
AcDbEntity
  8
0
100
AcDbBlockReference
  2
CLUMP16
 10
0.0
 20
0.0
 30
0.0
  0
INSERT
  5
D2
100
AcDbEntity
  8
0
100
AcDbBlockReference
  2
CLUMP18
 10
0.0
 20
0.0
 30
0.0
  0
INSERT
  5
E9
100
AcDbEntity
  8
0
100
AcDbBlockReference
  2
CLUMP20
 10
0.0
 20
0.0
 30
0.0
  0
ARC
  5
FF
100
AcDbEntity
  8
LAYER4
 62
         3
100
AcDbCircle
 10
12.7015186331
 20
2.1754629682
 30
0.0
 40
0.1804355184
210
0.0
220
0.0
230
1.0
100
AcDbArc
 50
108.1400904668
 51
180.0000030705
  0
ARC
  5
100
100
AcDbEntity
  8
LAYER4
 62
         3
100
AcDbCircle
 10
15.0211592349
 20
-4.9047070718
 30
0.0
 40
7.6309080079
210
0.0
220
-0.0
230
1.0
100
AcDbArc
 50
71.8599126037
 51
108.1400904668
  0
LINE
  5
101
100
AcDbEntity
  8
LAYER1
 62
         3
100
AcDbLine
 10
13.7711592349
 20
20.1385681293
 30
0.0
 11
13.7711592349
 21
19.6148952198
 31
0.0
  0
LINE
  5
102
100
AcDbEntity
  8
LAYER1
 62
         3
100
AcDbLine
 10
16.2711592349
 20
19.6148952198
 30
0.0
 11
16.2711592349
 21
20.1385681293
 31
0.0
  0
ARC
  5
103
100
AcDbEntity
  8
LAYER1
 62
         3
100
AcDbCircle
 10
13.5504455399
 20
28.6034061443
 30
0.0
 40
8.4166754108
210
0.0
220
0.0
230
1.0
100
AcDbArc
 50
262.9756389433
 51
271.8431761213
  0
LINE
  5
104
100
AcDbEntity
  8
LAYER1
 62
         3
100
AcDbLine
 10
13.8211592349
 20
20.1910854737
 30
0.0
 11
13.8211592349
 21
18.3228289167
 31
0.0
  0
ARC
  5
105
100
AcDbEntity
  8
LAYER1
 62
         3
100
AcDbCircle
 10
15.0211592349
 20
7.4289475341
 30
0.0
 40
10.9597742485
210
0.0
220
-0.0
230
1.0
100
AcDbArc
 50
83.7140089773
 51
96.2859940932
  0
LINE
  5
106
100
AcDbEntity
  8
LAYER1
 62
         3
100
AcDbLine
 10
16.2211592349
 20
18.3228289167
 30
0.0
 11
16.2211592349
 21
20.1910854737
 31
0.0
  0
ARC
  5
107
100
AcDbEntity
  8
LAYER1
 62
         3
100
AcDbCircle
 10
16.49187293
 20
28.6034061443
 30
0.0
 40
8.4166754108
210
0.0
220
0.0
230
1.0
100
AcDbArc
 50
268.1568208082
 51
277.0243579862
  0
LINE
  5
108
100
AcDbEntity
  8
LAYER1
 62
         3
100
AcDbLine
 10
13.8211592349
 20
18.3228289167
 30
0.0
 11
13.8211592349
 21
16.4320029382
 31
0.0
  0
LINE
  5
109
100
AcDbEntity
  8
LAYER1
 62
         3
100
AcDbLine
 10
16.2211592349
 20
16.4320029382
 30
0.0
 11
16.2211592349
 21
18.3228289167
 31
0.0
  0
LINE
  5
10A
100
AcDbEntity
  8
LAYER1
 62
         3
100
AcDbLine
 10
13.8211592349
 20
16.4320029382
 30
0.0
 11
13.8211592349
 21
14.6517798668
 31
0.0
  0
LINE
  5
10B
100
AcDbEntity
  8
LAYER1
 62
         3
100
AcDbLine
 10
16.2211592349
 20
14.6517798668
 30
0.0
 11
16.2211592349
 21
16.4320029382
 31
0.0
  0
LINE
  5
10C
100
AcDbEntity
  8
LAYER1
 62
         3
100
AcDbLine
 10
17.5211592349
 20
16.1714108733
 30
0.0
 11
17.5211592349
 21
2.1949721203
 31
0.0
  0
LINE
  5
10D
100
AcDbEntity
  8
LAYER1
 62
         3
100
AcDbLine
 10
17.5211592349
 20
20.0748768609
 30
0.0
 11
17.5211592349
 21
18.1075070085
 31
0.0
  0
LINE
  5
10E
100
AcDbEntity
  8
LAYER1
 62
         3
100
AcDbLine
 10
12.5211592349
 20
18.1043161806
 30
0.0
 11
12.5211592349
 21
20.0748768609
 31
0.0
  0
LINE
  5
10F
100
AcDbEntity
  8
LAYER1
 62
         3
100
AcDbLine
 10
12.5211592349
 20
2.1949721203
 30
0.0
 11
12.5211592349
 21
16.1597985521
 31
0.0
  0
LINE
  5
110
100
AcDbEntity
  8
LAYER1
 62
         3
100
AcDbLine
 10
12.5987315468
 20
20.1385681293
 30
0.0
 11
13.7711592349
 21
20.1385681293
 31
0.0
  0
LINE
  5
111
100
AcDbEntity
  8
LAYER1
 62
         3
100
AcDbLine
 10
16.2711592349
 20
20.1385681293
 30
0.0
 11
17.4391292497
 21
20.1385681293
 31
0.0
  0
ARC
  5
112
100
AcDbEntity
  8
LAYER1
 62
         3
100
AcDbCircle
 10
15.0211592349
 20
32.1385681293
 30
0.0
 40
2.5
210
0.0
220
0.0
230
1.0
100
AcDbArc
 50
360.0
 51
180.0000030705
  0
ARC
  5
113
100
AcDbEntity
  8
LAYER4
 62
         3
100
AcDbCircle
 10
17.3407998368
 20
2.1754629682
 30
0.0
 40
0.1804355184
210
0.0
220
0.0
230
1.0
100
AcDbArc
 50
0.0
 51
71.8599126037
  0
LINE
  5
114
100
AcDbEntity
  8
LAYER1
 62
         3
100
AcDbLine
 10
17.5211592349
 20
32.1385681293
 30
0.0
 11
17.5211592349
 21
23.4101103947
 31
0.0
  0
LINE
  5
115
100
AcDbEntity
  8
LAYER1
 62
         3
100
AcDbLine
 10
12.5211592349
 20
23.4101103947
 30
0.0
 11
12.5211592349
 21
32.1385681293
 31
0.0
  0
LINE
  5
116
100
AcDbEntity
  8
LAYER1
 62
         3
100
AcDbLine
 10
12.5211592349
 20
20.2499042036
 30
0.0
 11
12.5211592349
 21
23.4101103947
 31
0.0
  0
LINE
  5
117
100
AcDbEntity
  8
LAYER1
 62
         3
100
AcDbLine
 10
17.5211592349
 20
23.4101103947
 30
0.0
 11
17.5211592349
 21
20.2499042036
 31
0.0
  0
LINE
  5
118
100
AcDbEntity
  8
LAYER1
 62
         3
100
AcDbLine
 10
12.5211592349
 20
17.8567986167
 30
0.0
 11
12.5211592349
 21
18.0823370197
 31
0.0
  0
LINE
  5
119
100
AcDbEntity
  8
LAYER1
 62
         3
100
AcDbLine
 10
12.5211592349
 20
20.0747049593
 30
0.0
 11
12.5211592349
 21
20.2499042036
 31
0.0
  0
INSERT
  5
11B
100
AcDbEntity
  8
0
100
AcDbBlockReference
  2
CLUMP22
 10
0.0
 20
0.0
 30
0.0
  0
INSERT
  5
14A
100
AcDbEntity
  8
0
100
AcDbBlockReference
  2
CLUMP24
 10
0.0
 20
0.0
 30
0.0
  0
MTEXT
  5
160
100
AcDbEntity
  8
LAYER0
100
AcDbMText
 10
17.7040602544
 20
-132.8866032766
 30
0.0
 40
2.4737683892
 41
38.3619758404
 71
         1
 72
         1
  1
\W0.8;ステンレス　ロングスナップ
  0
MTEXT
  5
161
100
AcDbEntity
  8
LAYER0
100
AcDbMText
 10
69.2920019132
 20
-133.1354167344
 30
0.0
 40
2.4737683892
 41
8.8634168007
 71
         1
 72
         1
  1
\W0.8;D56001
  0
LINE
  5
162
100
AcDbEntity
  8
LAYER0
 62
         3
100
AcDbLine
 10
60.0
 20
-125.5
 30
0.0
 11
60.0
 21
-138.5
 31
0.0
  0
MTEXT
  5
163
100
AcDbEntity
  8
LAYER0
100
AcDbMText
 10
72.5158633528
 20
-126.7970201517
 30
0.0
 40
2.1473683357
 41
10.2585839844
 71
         1
 72
         1
  1
\W0.8;管理図番
  0
MTEXT
  5
164
100
AcDbEntity
  8
LAYER0
100
AcDbMText
 10
32.0542682872
 20
-126.7970201517
 30
0.0
 40
2.1473683357
 41
7.6538653946
 71
         1
 72
         1
  1
\W0.8;品　名
  0
LINE
  5
165
100
AcDbEntity
  8
LAYER0
 62
         3
100
AcDbLine
 10
10.0
 20
-138.5
 30
0.0
 11
10.0
 21
-125.5
 31
0.0
  0
LINE
  5
166
100
AcDbEntity
  8
LAYER0
 62
         3
100
AcDbLine
 10
95.0
 20
-138.5
 30
0.0
 11
95.0
 21
-125.5
 31
0.0
  0
ARC
  5
167
100
AcDbEntity
  8
LAYER1
 62
         3
100
AcDbCircle
 10
15.0211592349
 20
-12.8614318707
 30
0.0
 40
2.5
210
0.0
220
0.0
230
1.0
100
AcDbArc
 50
180.0000030705
 51
360.0
  0
ARC
  5
168
100
AcDbEntity
  8
LAYER4
 62
         5
100
AcDbCircle
 10
15.0211592349
 20
-12.8614318707
 30
0.0
 40
2.5
210
0.0
220
0.0
230
1.0
100
AcDbArc
 50
360.0
 51
180.0000030705
  0
LINE
  5
16A
100
AcDbEntity
  8
LAYER3
 62
         4
100
AcDbLine
 10
12.7486972906
 20
-11.8193585952
 30
0.0
 11
9.8213423922
 21
-11.1631625123
 31
0.0
  0
LINE
  5
16B
100
AcDbEntity
  8
LAYER3
 62
         4
100
AcDbLine
 10
12.7486972906
 20
-11.8193585952
 30
0.0
 11
10.3413245122
 21
-10.0292311399
 31
0.0
  0
LINE
  5
16C
100
AcDbEntity
  8
LAYER3
 62
         4
100
AcDbLine
 10
8.2037734019
 20
-9.7352120442
 30
0.0
 11
12.7486972906
 21
-11.8193585952
 31
0.0
  0
LINE
  5
16D
100
AcDbEntity
  8
LAYER3
 62
         4
100
AcDbLine
 10
17.2936211793
 20
-13.9035051462
 30
0.0
 11
20.2209760776
 21
-14.559701229
 31
0.0
  0
LINE
  5
16E
100
AcDbEntity
  8
LAYER3
 62
         4
100
AcDbLine
 10
17.2936211793
 20
-13.9035051462
 30
0.0
 11
19.7009939576
 21
-15.6936326014
 31
0.0
  0
LINE
  5
16F
100
AcDbEntity
  8
LAYER3
 62
         4
100
AcDbLine
 10
35.6237283391
 20
-22.3090649645
 30
0.0
 11
17.2936211793
 21
-13.9035051462
 31
0.0
  0
MTEXT
  5
170
100
AcDbEntity
  8
LAYER3
100
AcDbMText
 10
31.9304238064
 20
-16.4485308801
 30
0.0
 40
2.1473683357
 41
3.8469689941
 71
         1
 72
         1
  1
\W0.8;φ5
 11
0.9089847747
 21
-0.4168293169
 31
0.0
  0
LINE
  5
171
100
AcDbEntity
  8
LAYER3
 62
         4
100
AcDbLine
 10
12.7486972906
 20
-11.8193585952
 30
0.0
 11
17.2936211793
 21
-13.9035051462
 31
0.0
  0
ARC
  5
172
100
AcDbEntity
  8
LAYER1
 62
         3
100
AcDbCircle
 10
12.6988469616
 20
17.8738342583
 30
0.0
 40
0.1785024966
210
0.0
220
0.0
230
1.0
100
AcDbArc
 50
185.4764367683
 51
234.4046562799
  0
ARC
  5
173
100
AcDbEntity
  8
LAYER1
 62
         3
100
AcDbCircle
 10
17.3342296344
 20
17.8767012853
 30
0.0
 40
0.1879861478
210
0.0
220
0.0
230
1.0
100
AcDbArc
 50
301.2258018812
 51
353.9225303087
  0
LINE
  5
174
100
AcDbEntity
  8
LAYER1
 62
         3
100
AcDbLine
 10
12.5211592349
 20
16.1597985521
 30
0.0
 11
12.5211592349
 21
17.8567986167
 31
0.0
  0
LINE
  5
175
100
AcDbEntity
  8
LAYER1
 62
         3
100
AcDbLine
 10
16.2711592349
 20
19.6148952198
 30
0.0
 11
16.2711592349
 21
14.6460188067
 31
0.0
  0
ARC
  5
176
100
AcDbEntity
  8
LAYER1
 62
         3
100
AcDbCircle
 10
15.0211592349
 20
3.4328418893
 30
0.0
 40
11.2826342927
210
0.0
220
-0.0
230
1.0
100
AcDbArc
 50
83.6391594293
 51
96.3608436411
  0
LINE
  5
177
100
AcDbEntity
  8
LAYER1
 62
         3
100
AcDbLine
 10
13.7711592349
 20
14.6460188067
 30
0.0
 11
13.7711592349
 21
19.6148952198
 31
0.0
  0
ARC
  5
178
100
AcDbEntity
  8
LAYER1
 62
         3
100
AcDbCircle
 10
-16.9763279446
 20
25.6385681293
 30
0.0
 40
4.0
210
-0.0
220
-0.0
230
1.0
100
AcDbArc
 50
339.9500239338
 51
90.0000015352
  0
ARC
  5
179
100
AcDbEntity
  8
LAYER1
 62
         3
100
AcDbCircle
 10
-1.4763279446
 20
19.9817138798
 30
0.0
 40
12.5
210
0.0
220
0.0
230
1.0
100
AcDbArc
 50
159.9500270043
 51
192.2683992813
  0
LINE
  5
17A
100
AcDbEntity
  8
LAYER1
 62
         3
100
AcDbLine
 10
-8.6936969393
 20
16.4320029382
 30
0.0
 11
-9.1048714674
 21
18.3228289167
 31
0.0
  0
LINE
  5
17B
100
AcDbEntity
  8
LAYER1
 62
         3
100
AcDbLine
 10
-12.9798680789
 20
15.4999423382
 30
0.0
 11
-12.9546660221
 21
15.4713467489
 31
0.0
  0
LINE
  5
17C
100
AcDbEntity
  8
LAYER1
 62
         3
100
AcDbLine
 10
-8.7164694307
 20
16.3588655668
 30
0.0
 11
-8.6936969393
 21
16.4320029382
 31
0.0
  0
LINE
  5
17D
100
AcDbEntity
  8
LAYER1
 62
         3
100
AcDbLine
 10
-13.391042607
 20
17.3907683167
 30
0.0
 11
-12.9798680789
 21
15.4999423382
 31
0.0
  0
ARC
  5
17E
100
AcDbEntity
  8
LAYER1
 62
         3
100
AcDbCircle
 10
-11.0917723406
 20
17.1385681293
 30
0.0
 40
2.5
210
0.0
220
0.0
230
1.0
100
AcDbArc
 50
192.2683992813
 51
220.9538017847
  0
LINE
  5
17F
100
AcDbEntity
  8
LAYER1
 62
         3
100
AcDbLine
 10
-13.6908643104
 20
17.3255698009
 30
0.0
 11
-13.391042607
 21
17.3907683167
 31
0.0
  0
LINE
  5
180
100
AcDbEntity
  8
LAYER1
 62
         3
100
AcDbLine
 10
-9.1048714674
 20
18.3228289167
 30
0.0
 11
-8.8050497641
 21
18.3880274324
 31
0.0
  0
LINE
  5
181
100
AcDbEntity
  8
LAYER1
 62
         3
100
AcDbLine
 10
-13.6908643104
 20
17.3255698009
 30
0.0
 11
-13.5346796138
 21
16.6073393135
 31
0.0
  0
LINE
  5
182
100
AcDbEntity
  8
LAYER1
 62
         3
100
AcDbLine
 10
-12.9238052095
 20
13.6898501693
 30
0.0
 11
-12.5959795622
 21
13.7584999888
 31
0.0
  0
LINE
  5
183
100
AcDbEntity
  8
LAYER1
 62
         3
100
AcDbLine
 10
-12.5959795622
 20
13.7584999888
 30
0.0
 11
-13.6365097088
 21
18.7273764019
 31
0.0
  0
ARC
  5
184
100
AcDbEntity
  8
LAYER1
 62
         3
100
AcDbCircle
 10
-32.4763279446
 20
19.9817138798
 30
0.0
 40
7.5
210
-0.0
220
0.0
230
1.0
100
AcDbArc
 50
347.7315976482
 51
20.0499760662
  0
ARC
  5
185
100
AcDbEntity
  8
LAYER1
 62
         3
100
AcDbCircle
 10
-32.4763279446
 20
19.9817138798
 30
0.0
 40
12.5
210
-0.0
220
0.0
230
1.0
100
AcDbArc
 50
347.7315976482
 51
20.0499760662
  0
ARC
  5
186
100
AcDbEntity
  8
LAYER1
 62
         3
100
AcDbCircle
 10
-11.0917723406
 20
17.1385681293
 30
0.0
 40
2.5
210
-0.0
220
0.0
230
1.0
100
AcDbArc
 50
343.5829998484
 51
12.2684023518
  0
LINE
  5
187
100
AcDbEntity
  8
LAYER1
 62
         3
100
AcDbLine
 10
-8.6488650675
 20
17.6697969451
 30
0.0
 11
-8.8050497641
 21
18.3880274324
 31
0.0
  0
LINE
  5
188
100
AcDbEntity
  8
LAYER1
 62
         3
100
AcDbLine
 10
-9.3983131174
 20
19.6148952198
 30
0.0
 11
-8.3577829708
 21
14.6460188067
 31
0.0
  0
LINE
  5
189
100
AcDbEntity
  8
LAYER1
 62
         3
100
AcDbLine
 10
-8.3577829708
 20
14.6460188067
 30
0.0
 11
-8.0299573235
 21
14.7146686262
 31
0.0
  0
LINE
  5
18A
100
AcDbEntity
  8
LAYER1
 62
         3
100
AcDbLine
 10
-5.5142228989
 20
2.7012027161
 30
0.0
 11
-8.0299573235
 21
14.7146686262
 31
0.0
  0
ARC
  5
18B
100
AcDbEntity
  8
LAYER1
 62
         3
100
AcDbCircle
 10
-16.9763279446
 20
25.6385681293
 30
0.0
 40
9.0
210
0.0
220
0.0
230
1.0
100
AcDbArc
 50
339.9500239338
 51
200.0499729957
  0
ARC
  5
18C
100
AcDbEntity
  8
LAYER1
 62
         3
100
AcDbCircle
 10
-1.4763279446
 20
19.9817138798
 30
0.0
 40
7.5
210
0.0
220
0.0
230
1.0
100
AcDbArc
 50
159.9500270043
 51
192.2683992813
  0
MTEXT
  5
18D
100
AcDbEntity
  8
LAYER3
100
AcDbMText
 10
-48.8863884836
 20
7.2385680546
 30
0.0
 40
2.1473683357
 41
2.5646459961
 71
         1
 72
         1
  1
\W0.8;50
 11
-0.0000000268
 21
1.0
 31
0.0
  0
LINE
  5
18E
100
AcDbEntity
  8
LAYER3
 62
         4
100
AcDbLine
 10
-45.0987297921
 20
34.6385681293
 30
0.0
 11
-44.4749947197
 21
31.7041253271
 31
0.0
  0
LINE
  5
18F
100
AcDbEntity
  8
LAYER3
 62
         4
100
AcDbLine
 10
-45.0987297921
 20
34.6385681293
 30
0.0
 11
-45.7224648646
 21
31.7041253271
 31
0.0
  0
LINE
  5
190
100
AcDbEntity
  8
LAYER3
 62
         4
100
AcDbLine
 10
-17.9763279446
 20
34.6385681293
 30
0.0
 11
-46.0987297921
 21
34.6385681293
 31
0.0
  0
LINE
  5
191
100
AcDbEntity
  8
LAYER1
 62
         3
100
AcDbLine
 10
17.5211592349
 20
2.1949721203
 30
0.0
 11
17.5211592349
 21
0.2406463017
 31
0.0
  0
MTEXT
  5
192
100
AcDbEntity
  8
LAYER0
100
AcDbMText
 10
-15.6501737419
 20
-132.5157576176
 30
0.0
 40
3.0922104359
 41
9.2327256828
 71
         1
 72
         1
  1
\W0.8;S-270
  0
MTEXT
  5
193
100
AcDbEntity
  8
LAYER0
100
AcDbMText
 10
-35.7051459079
 20
-126.6461242782
 30
0.0
 40
2.1473683357
 41
6.4116149902
 71
         1
 72
         1
  1
\W0.8;Ｎｏ.
  0
LINE
  5
194
100
AcDbEntity
  8
LAYER0
 62
         3
100
AcDbLine
 10
-25.0
 20
-125.5
 30
0.0
 11
-25.0
 21
-138.5
 31
0.0
  0
MTEXT
  5
195
100
AcDbEntity
  8
LAYER0
100
AcDbMText
 10
-10.6564309049
 20
-126.7970201517
 30
0.0
 40
2.1473683357
 41
7.6538653946
 71
         1
 72
         1
  1
\W0.8;品　番
  0
LINE
  5
196
100
AcDbEntity
  8
LAYER0
 62
         3
100
AcDbLine
 10
-40.0
 20
-138.5
 30
0.0
 11
-40.0
 21
-125.5
 31
0.0
  0
LINE
  5
197
100
AcDbEntity
  8
LAYER3
 62
         4
100
AcDbLine
 10
-45.0987297921
 20
-15.3614318707
 30
0.0
 11
-45.7224648646
 21
-12.4269890685
 31
0.0
  0
LINE
  5
198
100
AcDbEntity
  8
LAYER3
 62
         4
100
AcDbLine
 10
-45.0987297921
 20
-15.3614318707
 30
0.0
 11
-44.4749947197
 21
-12.4269890685
 31
0.0
  0
LINE
  5
199
100
AcDbEntity
  8
LAYER3
 62
         4
100
AcDbLine
 10
-17.9763279446
 20
-15.3614318707
 30
0.0
 11
-46.0987297921
 21
-15.3614318707
 31
0.0
  0
INSERT
  5
19B
100
AcDbEntity
  8
0
100
AcDbBlockReference
  2
CLUMP26
 10
0.0
 20
0.0
 30
0.0
  0
MTEXT
  5
1B1
100
AcDbEntity
  8
LAYER3
100
AcDbMText
 10
-19.3763279446
 20
-28.1072604772
 30
0.0
 40
2.1473683357
 41
2.5646459961
 71
         1
 72
         1
  1
\W0.8;25
  0
LINE
  5
1B2
100
AcDbEntity
  8
LAYER3
 62
         4
100
AcDbLine
 10
-4.4763279446
 20
-31.8949191686
 30
0.0
 11
-7.4107707468
 21
-32.518654241
 31
0.0
  0
LINE
  5
1B3
100
AcDbEntity
  8
LAYER3
 62
         4
100
AcDbLine
 10
-4.4763279446
 20
-31.8949191686
 30
0.0
 11
-7.4107707468
 21
-31.2711840961
 31
0.0
  0
LINE
  5
1B4
100
AcDbEntity
  8
LAYER3
 62
         4
100
AcDbLine
 10
-29.4763279446
 20
-31.8949191686
 30
0.0
 11
-26.5418851424
 21
-31.2711840961
 31
0.0
  0
LINE
  5
1B5
100
AcDbEntity
  8
LAYER3
 62
         4
100
AcDbLine
 10
-29.4763279446
 20
-31.8949191686
 30
0.0
 11
-26.5418851424
 21
-32.518654241
 31
0.0
  0
LINE
  5
1B6
100
AcDbEntity
  8
LAYER3
 62
         4
100
AcDbLine
 10
-29.4763279446
 20
-31.8949191686
 30
0.0
 11
-4.4763279446
 21
-31.8949191686
 31
0.0
  0
LINE
  5
1B7
100
AcDbEntity
  8
LAYER3
 62
         4
100
AcDbLine
 10
-4.4763279446
 20
-3.8614318707
 30
0.0
 11
-4.4763279446
 21
-32.8949191686
 31
0.0
  0
LINE
  5
1B8
100
AcDbEntity
  8
LAYER3
 62
         4
100
AcDbLine
 10
-29.4763279446
 20
-3.8614318707
 30
0.0
 11
-29.4763279446
 21
-32.8949191686
 31
0.0
  0
ARC
  5
1B9
100
AcDbEntity
  8
LAYER1
 62
         3
100
AcDbCircle
 10
-11.0917723406
 20
17.1385681293
 30
0.0
 40
1.0
210
0.0
220
0.0
230
1.0
100
AcDbArc
 50
11.7026416545
 51
33.2942477864
  0
LINE
  5
1BA
100
AcDbEntity
  8
LAYER1
 62
         3
100
AcDbLine
 10
-10.9135769897
 20
16.1545729988
 30
0.0
 11
-10.8868086493
 21
16.1597985521
 31
0.0
  0
ARC
  5
1BB
100
AcDbEntity
  8
LAYER1
 62
         3
100
AcDbCircle
 10
-1.4763279446
 20
19.9817138798
 30
0.0
 40
12.19317122
210
0.0
220
0.0
230
1.0
100
AcDbArc
 50
178.4632014138
 51
185.671764165
  0
ARC
  5
1BC
100
AcDbEntity
  8
LAYER1
 62
         3
100
AcDbCircle
 10
-1.4763279446
 20
19.9817138798
 30
0.0
 40
12.19317122
210
0.0
220
0.0
230
1.0
100
AcDbArc
 50
187.5437295835
 51
192.2683992813
  0
ARC
  5
1BD
100
AcDbEntity
  8
LAYER1
 62
         3
100
AcDbCircle
 10
-1.4763279446
 20
19.9817138798
 30
0.0
 40
7.8068287801
210
0.0
220
0.0
230
1.0
100
AcDbArc
 50
178.4632014138
 51
192.2683992813
  0
LINE
  5
1BE
100
AcDbEntity
  8
LAYER1
 62
         3
100
AcDbLine
 10
-9.2803486478
 20
20.1910854737
 30
0.0
 11
-13.6651133425
 21
20.3087229336
 31
0.0
  0
ARC
  5
1BF
100
AcDbEntity
  8
LAYER1
 62
         3
100
AcDbCircle
 10
-16.9763279446
 20
25.6385681293
 30
0.0
 40
4.0
210
0.0
220
0.0
230
1.0
100
AcDbArc
 50
90.0000015352
 51
200.0499729957
  0
LINE
  5
1C0
100
AcDbEntity
  8
LAYER0
 62
         3
100
AcDbLine
 10
95.0
 20
-125.5
 30
0.0
 11
-40.0
 21
-125.5
 31
0.0
  0
LINE
  5
1C1
100
AcDbEntity
  8
LAYER0
 62
         3
100
AcDbLine
 10
95.0
 20
-130.5
 30
0.0
 11
-40.0
 21
-130.5
 31
0.0
  0
LINE
  5
1C2
100
AcDbEntity
  8
LAYER0
 62
         3
100
AcDbLine
 10
95.0
 20
-138.5
 30
0.0
 11
-40.0
 21
-138.5
 31
0.0
  0
LINE
  5
1C3
100
AcDbEntity
  8
LAYER1
 62
         3
100
AcDbLine
 10
-9.6341876134
 20
-0.2414566535
 30
0.0
 11
-10.059170666
 21
1.712869165
 31
0.0
  0
LINE
  5
1C4
100
AcDbEntity
  8
LAYER1
 62
         3
100
AcDbLine
 10
-12.9238052095
 20
13.6898501693
 30
0.0
 11
-9.4463322486
 21
-2.9162360928
 31
0.0
  0
LINE
  5
1C5
100
AcDbEntity
  8
LAYER1
 62
         3
100
AcDbLine
 10
-25.1476061251
 20
18.3880274324
 30
0.0
 11
-29.1908643104
 21
-0.2052877917
 31
0.0
  0
LINE
  5
1C6
100
AcDbEntity
  8
LAYER1
 62
         3
100
AcDbLine
 10
-24.3050497641
 20
-1.2677454233
 30
0.0
 11
-20.2617915788
 21
17.3255698009
 31
0.0
  0
ARC
  5
1C7
100
AcDbEntity
  8
LAYER1
 62
         3
100
AcDbCircle
 10
-16.9763279446
 20
-2.8614318707
 30
0.0
 40
7.5
210
-0.0
220
-0.0
230
1.0
100
AcDbArc
 50
167.7316007187
 51
359.2169320801
  0
ARC
  5
1C8
100
AcDbEntity
  8
LAYER1
 62
         3
100
AcDbCircle
 10
-16.9763279446
 20
-2.8614318707
 30
0.0
 40
12.5
210
0.0
220
0.0
230
1.0
100
AcDbArc
 50
167.7316007187
 51
269.9999984648
  0
LINE
  5
1C9
100
AcDbEntity
  8
LAYER1
 62
         3
100
AcDbLine
 10
-10.1984707003
 20
1.6937627832
 30
0.0
 11
-9.7475505792
 21
-0.4595302866
 31
0.0
  0
LINE
  5
1CA
100
AcDbEntity
  8
LAYER1
 62
         3
100
AcDbLine
 10
-4.7617915788
 20
-0.2052877917
 30
0.0
 11
-5.3992661577
 21
2.7262009361
 31
0.0
  0
ARC
  5
1CB
100
AcDbEntity
  8
LAYER1
 62
         3
100
AcDbCircle
 10
-16.9763279446
 20
-2.8614318707
 30
0.0
 40
12.5
210
-0.0
220
0.0
230
1.0
100
AcDbArc
 50
269.9999984648
 51
12.2684023518
  0
LINE
  5
1CC
100
AcDbEntity
  8
LAYER1
 62
         3
100
AcDbLine
 10
-7.5049077416
 20
0.0101005286
 30
0.0
 11
-9.3104979997
 21
-2.7520098368
 31
0.0
  0
LINE
  5
1CD
100
AcDbEntity
  8
LAYER1
 62
         3
100
AcDbLine
 10
-7.8981926206
 20
2.1754629682
 30
0.0
 11
-10.1984707003
 21
1.6937627832
 31
0.0
  0
LINE
  5
1CE
100
AcDbEntity
  8
LAYER1
 62
         3
100
AcDbLine
 10
-9.7475505792
 20
-0.4595302866
 30
0.0
 11
-7.5049077416
 21
0.0101005286
 31
0.0
  0
LINE
  5
1CF
100
AcDbEntity
  8
LAYER1
 62
         3
100
AcDbLine
 10
-7.5472630178
 20
0.2123610144
 30
0.0
 11
-7.5197673218
 21
0.0810599505
 31
0.0
  0
LINE
  5
1D0
100
AcDbEntity
  8
LAYER1
 62
         3
100
AcDbLine
 10
-7.4171903782
 20
0.2406463017
 30
0.0
 11
-8.1818617612
 21
-0.9490081338
 31
0.0
  0
LINE
  5
1D1
100
AcDbEntity
  8
LAYER1
 62
         3
100
AcDbLine
 10
-7.4171903782
 20
0.2406463017
 30
0.0
 11
-9.6341876134
 21
-0.2414566535
 31
0.0
  0
LINE
  5
1D2
100
AcDbEntity
  8
LAYER1
 62
         3
100
AcDbLine
 10
-10.059170666
 20
1.712869165
 30
0.0
 11
-5.3992661577
 21
2.7262009361
 31
0.0
  0
LINE
  5
1D3
100
AcDbEntity
  8
LAYER3
 62
         4
100
AcDbLine
 10
-45.0987297921
 20
34.6385681293
 30
0.0
 11
-45.0987297921
 21
-15.3614318707
 31
0.0
  0
LINE
  5
1D4
100
AcDbEntity
  8
LAYER1
 62
         3
100
AcDbLine
 10
12.5211592349
 20
-12.8614318707
 30
0.0
 11
12.5211592349
 21
-0.7365166075
 31
0.0
  0
LINE
  5
1D5
100
AcDbEntity
  8
LAYER1
 62
         3
100
AcDbLine
 10
17.5211592349
 20
-0.7365166075
 30
0.0
 11
17.5211592349
 21
-12.8614318707
 31
0.0
  0
LINE
  5
1D6
100
AcDbEntity
  8
LAYER1
 62
         3
100
AcDbLine
 10
12.5211592349
 20
0.2406463017
 30
0.0
 11
12.5211592349
 21
2.1949721203
 31
0.0
  0
LINE
  5
1D7
100
AcDbEntity
  8
LAYER1
 62
         3
100
AcDbLine
 10
12.5211592349
 20
-0.7365166075
 30
0.0
 11
12.5211592349
 21
0.2406463017
 31
0.0
  0
LINE
  5
1D8
100
AcDbEntity
  8
LAYER1
 62
         3
100
AcDbLine
 10
17.5211592349
 20
0.2406463017
 30
0.0
 11
17.5211592349
 21
-0.7365166075
 31
0.0
  0
ENDSEC
  0
SECTION
  2
OBJECTS
  0
DICTIONARY
  5
19
100
AcDbDictionary
280
         0
281
         1
  3
ACAD_GROUP
350
1A
  3
ACAD_MLINESTYLE
350
1B
  3
ACAD_LAYOUT
350
1E
  3
ACAD_PLOTSETTINGS
350
22
  3
ACAD_PLOTSTYLENAME
350
1F
  3
ACAD_WIPEOUT_VARS
350
23
  0
DICTIONARY
  5
1A
102
{ACAD_REACTORS
330
19
102
}
100
AcDbDictionary
280
         0
281
         1
  0
DICTIONARY
  5
1B
102
{ACAD_REACTORS
330
19
102
}
100
AcDbDictionary
280
         0
281
         1
  3
Standard
350
1C
  0
MLINESTYLE
  5
1C
102
{ACAD_REACTORS
330
1B
102
}
100
AcDbMlineStyle
  2
Standard
 70
         0
  3

 62
         0
 51
90.0
 52
90.0
 71
         2
 49
0.5
 62
       256
  6
BYLAYER
 49
-0.5
 62
       256
  6
BYLAYER
  0
ACDBDICTIONARYWDFLT
  5
1F
102
{ACAD_REACTORS
330
19
102
}
100
AcDbDictionary
281
         1
  3
Normal
350
1D
100
AcDbDictionaryWithDefault
340
1D
  0
ACDBPLACEHOLDER
  5
1D
102
{ACAD_REACTORS
330
1F
102
}
  0
LAYOUT
  5
20
102
{ACAD_REACTORS
330
1E
102
}
100
AcDbPlotSettings
  1

  2

  4

  6

 40
0.0
 41
0.0
 42
0.0
 43
0.0
 44
0.0
 45
0.0
 46
0.0
 47
0.0
 48
0.0
 49
0.0
140
0.0
141
0.0
142
1.0
143
1.0
 70
         0
 72
         0
 73
         0
 74
         0
  7

 75
         0
147
1.0
148
0.0
149
0.0
100
AcDbLayout
  1
Model
 70
         0
 71
         0
 10
0.0
 20
0.0
 11
0.0
 21
0.0
 12
0.0
 22
0.0
 32
0.0
 14
0.0
 24
0.0
 34
0.0
 15
0.0
 25
0.0
 35
0.0
146
0.0
 13
0.0
 23
0.0
 33
0.0
 16
0.0
 26
0.0
 36
0.0
 17
0.0
 27
0.0
 37
0.0
 76
         0
330
A
331
0
345
0
346
0
  0
LAYOUT
  5
21
102
{ACAD_REACTORS
330
1E
102
}
100
AcDbPlotSettings
  1

  2

  4

  6

 40
0.0
 41
0.0
 42
0.0
 43
0.0
 44
0.0
 45
0.0
 46
0.0
 47
0.0
 48
0.0
 49
0.0
140
0.0
141
0.0
142
1.0
143
1.0
 70
         0
 72
         0
 73
         0
 74
         0
  7

 75
         0
147
1.0
148
0.0
149
0.0
100
AcDbLayout
  1
Layout1
 70
         0
 71
         0
 10
0.0
 20
0.0
 11
0.0
 21
0.0
 12
0.0
 22
0.0
 32
0.0
 14
0.0
 24
0.0
 34
0.0
 15
0.0
 25
0.0
 35
0.0
146
0.0
 13
0.0
 23
0.0
 33
0.0
 16
0.0
 26
0.0
 36
0.0
 17
0.0
 27
0.0
 37
0.0
 76
         0
330
B
331
0
345
0
346
0
  0
DICTIONARY
  5
1E
102
{ACAD_REACTORS
330
19
102
}
100
AcDbDictionary
280
         0
281
         1
  3
Layout1
350
21
  3
Model
350
20
  0
DICTIONARY
  5
22
102
{ACAD_REACTORS
330
19
102
}
100
AcDbDictionary
280
         0
281
         1
  0
WIPEOUTVARIABLES
  5
23
100
AcDbWipeoutVariables
 70
         1
  0
ENDSEC
  0
EOF
