  0
SECTION
  2
HEADER
  9
$ACADVER
  1
AC1015
  9
$ACADMAINTVER
 70
         6
  9
$DWGCODEPAGE
  3
ANSI_932
  9
$INSBASE
 10
0.0
 20
0.0
 30
0.0
  9
$EXTMIN
 10
1.0000000000E+20
 20
1.0000000000E+20
 30
1.0000000000E+20
  9
$EXTMAX
 10
-1.0000000000E+20
 20
-1.0000000000E+20
 30
-1.0000000000E+20
  9
$LIMMIN
 10
0.0
 20
0.0
  9
$LIMMAX
 10
0.0
 20
0.0
  9
$ORTHOMODE
 70
         0
  9
$REGENMODE
 70
         1
  9
$FILLMODE
 70
         1
  9
$QTEXTMODE
 70
         0
  9
$MIRRTEXT
 70
         1
  9
$LTSCALE
 40
1.0
  9
$ATTMODE
 70
         1
  9
$TEXTSIZE
 40
0.2
  9
$TRACEWID
 40
0.05
  9
$TEXTSTYLE
  7
Standard
  9
$CLAYER
  8
0
  9
$CELTYPE
  6
Continuous
  9
$CECOLOR
 62
       256
  9
$CELTSCALE
 40
1.0
  9
$DISPSILH
 70
         0
  9
$DIMSCALE
 40
1.0
  9
$DIMASZ
 40
0.18
  9
$DIMEXO
 40
0.0625
  9
$DIMDLI
 40
0.38
  9
$DIMRND
 40
0.0
  9
$DIMDLE
 40
0.0
  9
$DIMEXE
 40
0.18
  9
$DIMTP
 40
0.0
  9
$DIMTM
 40
0.0
  9
$DIMTXT
 40
0.18
  9
$DIMCEN
 40
0.09
  9
$DIMTSZ
 40
0.0
  9
$DIMTOL
 70
         0
  9
$DIMLIM
 70
         0
  9
$DIMTIH
 70
         1
  9
$DIMTOH
 70
         1
  9
$DIMSE1
 70
         0
  9
$DIMSE2
 70
         0
  9
$DIMTAD
 70
         0
  9
$DIMZIN
 70
         0
  9
$DIMBLK
  1

  9
$DIMASO
 70
         1
  9
$DIMSHO
 70
         1
  9
$DIMPOST
  1

  9
$DIMAPOST
  1

  9
$DIMALT
 70
         0
  9
$DIMALTD
 70
         2
  9
$DIMALTF
 40
25.4
  9
$DIMLFAC
 40
1.0
  9
$DIMTOFL
 70
         0
  9
$DIMTVP
 40
0.0
  9
$DIMTIX
 70
         0
  9
$DIMSOXD
 70
         0
  9
$DIMSAH
 70
         0
  9
$DIMBLK1
  1

  9
$DIMBLK2
  1

  9
$DIMSTYLE
  2
Standard
  9
$DIMCLRD
 70
         0
  9
$DIMCLRE
 70
         0
  9
$DIMCLRT
 70
         0
  9
$DIMTFAC
 40
1.0
  9
$DIMGAP
 40
0.09
  9
$DIMJUST
 70
         0
  9
$DIMSD1
 70
         0
  9
$DIMSD2
 70
         0
  9
$DIMTOLJ
 70
         1
  9
$DIMTZIN
 70
         0
  9
$DIMALTZ
 70
         0
  9
$DIMALTTZ
 70
         0
  9
$DIMUPT
 70
         0
  9
$DIMDEC
 70
         4
  9
$DIMTDEC
 70
         4
  9
$DIMALTU
 70
         2
  9
$DIMALTTD
 70
         2
  9
$DIMTXSTY
  7
Standard
  9
$DIMAUNIT
 70
         0
  9
$DIMADEC
 70
         0
  9
$DIMALTRND
 40
0.0
  9
$DIMAZIN
 70
         0
  9
$DIMDSEP
 70
         0
  9
$DIMATFIT
 70
         3
  9
$DIMFRAC
 70
         0
  9
$DIMLDRBLK
  1

  9
$DIMLUNIT
 70
         2
  9
$DIMLWD
 70
         0
  9
$DIMLWE
 70
         0
  9
$DIMTMOVE
 70
         0
  9
$LUNITS
 70
         2
  9
$LUPREC
 70
         4
  9
$SKETCHINC
 40
0.1
  9
$FILLETRAD
 40
0.0
  9
$AUNITS
 70
         0
  9
$AUPREC
 70
         0
  9
$MENU
  1
acad
  9
$ELEVATION
 40
0.0
  9
$PELEVATION
 40
0.0
  9
$THICKNESS
 40
0.0
  9
$LIMCHECK
 70
         0
  9
$CHAMFERA
 40
0.0
  9
$CHAMFERB
 40
0.0
  9
$CHAMFERC
 40
0.0
  9
$CHAMFERD
 40
0.0
  9
$SKPOLY
 70
         0
  9
$TDCREATE
 40
0.000000000
  9
$TDUCREATE
 40
0.000000000
  9
$TDUPDATE
 40
0.000000000
  9
$TDUUPDATE
 40
0.000000000
  9
$TDINDWG
 40
0.0000000000
  9
$TDUSRTIMER
 40
0.0000000000
  9
$USRTIMER
 70
         1
  9
$ANGBASE
 50
0.0
  9
$ANGDIR
 70
         0
  9
$PDMODE
 70
         3
  9
$PDSIZE
 40
-1.0
  9
$PLINEWID
 40
0.0
  9
$SPLFRAME
 70
         0
  9
$SPLINETYPE
 70
         6
  9
$SPLINESEGS
 70
         8
  9
$HANDSEED
  5
CD
  9
$SURFTAB1
 70
         6
  9
$SURFTAB2
 70
         6
  9
$SURFTYPE
 70
         6
  9
$SURFU
 70
         6
  9
$SURFV
 70
         6
  9
$UCSBASE
  2

  9
$UCSNAME
  2

  9
$UCSORG
 10
0.0
 20
0.0
 30
0.0
  9
$UCSXDIR
 10
1.0
 20
0.0
 30
0.0
  9
$UCSYDIR
 10
0.0
 20
1.0
 30
0.0
  9
$UCSORTHOREF
  2

  9
$UCSORTHOVIEW
 70
         0
  9
$UCSORGTOP
 10
0.0
 20
0.0
 30
0.0
  9
$UCSORGBOTTOM
 10
0.0
 20
0.0
 30
0.0
  9
$UCSORGLEFT
 10
0.0
 20
0.0
 30
0.0
  9
$UCSORGRIGHT
 10
0.0
 20
0.0
 30
0.0
  9
$UCSORGFRONT
 10
0.0
 20
0.0
 30
0.0
  9
$UCSORGBACK
 10
0.0
 20
0.0
 30
0.0
  9
$PUCSBASE
  2

  9
$PUCSNAME
  2

  9
$PUCSORG
 10
0.0
 20
0.0
 30
0.0
  9
$PUCSXDIR
 10
1.0
 20
0.0
 30
0.0
  9
$PUCSYDIR
 10
0.0
 20
1.0
 30
0.0
  9
$PUCSORTHOREF
  2

  9
$PUCSORTHOVIEW
 70
         0
  9
$PUCSORGTOP
 10
0.0
 20
0.0
 30
0.0
  9
$PUCSORGBOTTOM
 10
0.0
 20
0.0
 30
0.0
  9
$PUCSORGLEFT
 10
0.0
 20
0.0
 30
0.0
  9
$PUCSORGRIGHT
 10
0.0
 20
0.0
 30
0.0
  9
$PUCSORGFRONT
 10
0.0
 20
0.0
 30
0.0
  9
$PUCSORGBACK
 10
0.0
 20
0.0
 30
0.0
  9
$USERI1
 70
         0
  9
$USERI2
 70
         0
  9
$USERI3
 70
         0
  9
$USERI4
 70
         0
  9
$USERI5
 70
         0
  9
$USERR1
 40
0.0
  9
$USERR2
 40
0.0
  9
$USERR3
 40
0.0
  9
$USERR4
 40
0.0
  9
$USERR5
 40
0.0
  9
$WORLDVIEW
 70
         1
  9
$SHADEDGE
 70
         3
  9
$SHADEDIF
 70
        70
  9
$TILEMODE
 70
         1
  9
$MAXACTVP
 70
        16
  9
$PINSBASE
 10
0.0
 20
0.0
 30
0.0
  9
$PLIMCHECK
 70
         0
  9
$PEXTMIN
 10
1.0000000000E+20
 20
1.0000000000E+20
 30
1.0000000000E+20
  9
$PEXTMAX
 10
-1.0000000000E+20
 20
-1.0000000000E+20
 30
-1.0000000000E+20
  9
$PLIMMIN
 10
0.0
 20
0.0
  9
$PLIMMAX
 10
12.0
 20
9.0
  9
$UNITMODE
 70
         0
  9
$VISRETAIN
 70
         0
  9
$PLINEGEN
 70
         1
  9
$PSLTSCALE
 70
         0
  9
$TREEDEPTH
 70
      3020
  9
$CMLSTYLE
  2
Standard
  9
$CMLJUST
 70
         0
  9
$CMLSCALE
 40
1.0
  9
$PROXYGRAPHICS
 70
         0
  9
$MEASUREMENT
 70
         0
  9
$CELWEIGHT
370
         0
  9
$ENDCAPS
280
         0
  9
$JOINSTYLE
280
         0
  9
$LWDISPLAY
290
         0
  9
$INSUNITS
 70
         0
  9
$HYPERLINKBASE
  1

  9
$XEDIT
290
         1
  9
$CEPSNTYPE
380
         0
  9
$PSTYLEMODE
290
         0
  9
$FINGERPRINTGUID
  2

  9
$VERSIONGUID
  2

  9
$EXTNAMES
290
         1
  9
$PSVPSCALE
 40
0.0
  0
ENDSEC
  0
SECTION
  2
CLASSES
  0
CLASS
  1
LWPOLYLINE
  2
AcDbPolyline
  3
"AutoCAD"
 90
        0
280
         0
281
         1
  0
CLASS
  1
IMAGE
  2
AcDbRasterImage
  3
ISM
 90
      127
280
         0
281
         1
  0
CLASS
  1
OLE2FRAME
  2
AcDbOle2Frame
  3
""
 90
        0
280
         0
281
         1
  0
CLASS
  1
HATCH
  2
AcDbHatch
  3
"ACAD_SEDONA"
 90
        0
280
         0
281
         1
  0
CLASS
  1
DICTIONARYVAR
  2
AcDbDictionaryVar
  3
"AutoCAD"
 90
        0
280
         0
281
         0
  0
CLASS
  1
RASTERVARIABLES
  2
AcDbRasterVariables
  3
ISM
 90
        0
280
         0
281
         0
  0
CLASS
  1
IMAGEDEF
  2
AcDbRasterImageDef
  3
ISM
 90
        0
280
         0
281
         0
  0
CLASS
  1
IMAGEDEF_REACTOR
  2
AcDbRasterImageDefReactor
  3
ISM
 90
        1
280
         0
281
         0
  0
CLASS
  1
IDBUFFER
  2
AcDbIdBuffer
  3
"Acad"
 90
        0
280
         0
281
         0
  0
CLASS
  1
SPATIAL_FILTER
  2
AcDbSpatialFilter
  3
"Acad"
 90
        0
280
         0
281
         0
  0
CLASS
  1
XRECORD
  2
AcDbXrecord
  3
"<Built In>"
 90
        0
280
         0
281
         0
  0
CLASS
  1
SORTENTSTABLE
  2
AcDbSortentsTable
  3
"AutoCAD"
 90
        0
280
         0
281
         0
  0
CLASS
  1
LAYER_INDEX
  2
AcDbLayerIndex
  3
"Acad"
 90
        0
280
         0
281
         0
  0
CLASS
  1
SPATIAL_INDEX
  2
AcDbSpatialIndex
  3
"Acad"
 90
        0
280
         0
281
         0
  0
CLASS
  1
OBJECT_PTR
  2
CAseDLPNTableRecord
  3
"ASE-LPNTableRecord"
 90
        1
280
         0
281
         0
  0
CLASS
  1
LAYOUT
  2
AcDbLayout
  3
"AutoCAD 2000"
 90
        1
280
         0
281
         0
  0
CLASS
  1
PLOTSETTINGS
  2
AcDbPlotSettings
  3
"AutoCAD 2000"
 90
        1
280
         0
281
         0
  0
CLASS
  1
ACDBDICTIONARYWDFLT
  2
AcDbDictionaryWithDefault
  3
"AutoCAD 2000"
 90
        1
280
         0
281
         0
  0
CLASS
  1
ACDBPLACEHOLDER
  2
AcDbPlaceHolder
  3
"AutoCAD 2000"
 90
        1
280
         0
281
         0
  0
CLASS
  1
VBA_PROJECT
  2
AcDbVbaProject
  3
"acadvba"
 90
        1
280
         0
281
         0
  0
CLASS
  1
WIPEOUT
  2
AcDbWipeout
  3
WipeOut|AutoCAD Express Tool|expresstools@autodesk.com
 90
      127
280
         0
281
         1
  0
CLASS
  1
WIPEOUTVARIABLES
  2
AcDbWipeoutVariables
  3
WipeOut|AutoCAD Express Tool|expresstools@autodesk.com
 90
        0
280
         0
281
         0
  0
CLASS
  1
RTEXT
  2
RText
  3
RText|AutoCAD Express Tool|expresstools@autodesk.com
 90
        0
280
         0
281
         1
  0
CLASS
  1
ARCALIGNEDTEXT
  2
AcDbArcAlignedText
  3
ATEXT|AutoCAD Express Tool|expresstools@autodesk.com
 90
        0
280
         0
281
         1
  0
ENDSEC
  0
SECTION
  2
TABLES
  0
TABLE
  2
VPORT
  5
7
100
AcDbSymbolTable
 70
         1
  0
VPORT
  5
15
100
AcDbSymbolTableRecord
100
AcDbViewportTableRecord
  2
*ACTIVE
 70
         0
 10
0.0
 20
0.0
 11
1.0
 21
1.0
 12
6.591288
 22
4.579184
 13
0.0
 23
0.0
 14
1.0
 24
1.0
 15
0.0
 25
0.0
 16
0.0
 26
0.0
 36
1.0
 17
0.0
 27
0.0
 37
0.0
 40
9.158369
 41
0.688564
 42
50.0
 43
0.0
 44
0.0
 50
0.0
 51
0.0
 71
         0
 72
       100
 73
         1
 74
         1
 75
         0
 76
         0
 77
         0
 78
         0
281
         0
 65
         0
110
0.0
120
0.0
130
0.0
111
1.0
121
0.0
131
0.0
112
0.0
122
1.0
132
0.0
345
0
346
0
 79
         0
146
0.0
  0
ENDTAB
  0
TABLE
  2
LTYPE
  5
4
100
AcDbSymbolTable
 70
        13
  0
LTYPE
  5
11
100
AcDbSymbolTableRecord
100
AcDbLinetypeTableRecord
  2
ByBlock
 70
        64
  3

 72
        65
 73
         0
 40
0.0
  0
LTYPE
  5
12
100
AcDbSymbolTableRecord
100
AcDbLinetypeTableRecord
  2
ByLayer
 70
        64
  3

 72
        65
 73
         0
 40
0.0
  0
LTYPE
  5
13
100
AcDbSymbolTableRecord
100
AcDbLinetypeTableRecord
  2
Continuous
 70
        64
  3
Solid line
 72
        65
 73
         0
 40
0.0
  0
LTYPE
  5
24
100
AcDbSymbolTableRecord
100
AcDbLinetypeTableRecord
  2
DOT
 70
        64
  3
. . . . . . . . 
 72
        65
 73
         2
 40
1.0
 49
0.0
 74
         0
 49
-1.0
 74
         0
  0
LTYPE
  5
25
100
AcDbSymbolTableRecord
100
AcDbLinetypeTableRecord
  2
DASHED
 70
        64
  3
___  ___  ___  ___  
 72
        65
 73
         2
 40
4.0
 49
3.0
 74
         0
 49
-1.0
 74
         0
  0
LTYPE
  5
26
100
AcDbSymbolTableRecord
100
AcDbLinetypeTableRecord
  2
HIDDEN
 70
        64
  3
__ __ __ __ 
 72
        65
 73
         2
 40
3.0
 49
2.0
 74
         0
 49
-1.0
 74
         0
  0
LTYPE
  5
27
100
AcDbSymbolTableRecord
100
AcDbLinetypeTableRecord
  2
STITCH
 70
        64
  3
_ _ _ _ 
 72
        65
 73
         2
 40
2.0
 49
1.0
 74
         0
 49
-1.0
 74
         0
  0
LTYPE
  5
28
100
AcDbSymbolTableRecord
100
AcDbLinetypeTableRecord
  2
CENTER
 70
        64
  3
______  __  ______  __  
 72
        65
 73
         4
 40
43.0
 49
40.0
 74
         0
 49
-1.0
 74
         0
 49
1.0
 74
         0
 49
-1.0
 74
         0
  0
LTYPE
  5
29
100
AcDbSymbolTableRecord
100
AcDbLinetypeTableRecord
  2
DASHDOT
 70
        64
  3
____ . ____ . 
 72
        65
 73
         4
 40
32.0
 49
30.0
 74
         0
 49
-1.0
 74
         0
 49
0.0
 74
         0
 49
-1.0
 74
         0
  0
LTYPE
  5
2A
100
AcDbSymbolTableRecord
100
AcDbLinetypeTableRecord
  2
BORDER
 70
        64
  3
__ . __ . 
 72
        65
 73
         4
 40
22.0
 49
20.0
 74
         0
 49
-1.0
 74
         0
 49
0.0
 74
         0
 49
-1.0
 74
         0
  0
LTYPE
  5
2B
100
AcDbSymbolTableRecord
100
AcDbLinetypeTableRecord
  2
CUTTING
 70
        64
  3
________   ___   ___   
 72
        65
 73
         6
 40
45.0
 49
40.0
 74
         0
 49
-1.0
 74
         0
 49
1.0
 74
         0
 49
-1.0
 74
         0
 49
1.0
 74
         0
 49
-1.0
 74
         0
  0
LTYPE
  5
2C
100
AcDbSymbolTableRecord
100
AcDbLinetypeTableRecord
  2
PHANTOM
 70
        64
  3
______  __  __  
 72
        65
 73
         6
 40
35.0
 49
30.0
 74
         0
 49
-1.0
 74
         0
 49
1.0
 74
         0
 49
-1.0
 74
         0
 49
1.0
 74
         0
 49
-1.0
 74
         0
  0
LTYPE
  5
2D
100
AcDbSymbolTableRecord
100
AcDbLinetypeTableRecord
  2
DIVIDE
 70
        64
  3
____ . . ____ . . 
 72
        65
 73
         6
 40
23.0
 49
20.0
 74
         0
 49
-1.0
 74
         0
 49
0.0
 74
         0
 49
-1.0
 74
         0
 49
0.0
 74
         0
 49
-1.0
 74
         0
  0
ENDTAB
  0
TABLE
  2
LAYER
  5
2
100
AcDbSymbolTable
 70
         4
  0
LAYER
  5
14
100
AcDbSymbolTableRecord
100
AcDbLayerTableRecord
  2
0
 70
         0
 62
         7
  6
Continuous
290
         1
370
        -3
390
1D
  0
LAYER
  5
2E
100
AcDbSymbolTableRecord
100
AcDbLayerTableRecord
  2
LAYER0
 70
         0
 62
         7
  6
Continuous
290
         1
370
        -3
390
1F
  0
LAYER
  5
31
100
AcDbSymbolTableRecord
100
AcDbLayerTableRecord
  2
LAYER3
 70
         0
 62
         7
  6
Continuous
290
         1
370
        -3
390
1F
  0
LAYER
  5
58
100
AcDbSymbolTableRecord
100
AcDbLayerTableRecord
  2
LAYER1
 70
         0
 62
         7
  6
Continuous
290
         1
370
        -3
390
1F
  0
ENDTAB
  0
TABLE
  2
STYLE
  5
3
100
AcDbSymbolTable
 70
         1
  0
STYLE
  5
17
100
AcDbSymbolTableRecord
100
AcDbTextStyleTableRecord
  2
Standard
 70
         0
 40
0.0
 41
1.0
 50
0.0
 71
         0
 42
0.0
  3
txt
  4
extfont
  0
ENDTAB
  0
TABLE
  2
VIEW
  5
5
100
AcDbSymbolTable
 70
         0
  0
ENDTAB
  0
TABLE
  2
UCS
  5
6
100
AcDbSymbolTable
 70
         0
  0
ENDTAB
  0
TABLE
  2
APPID
  5
8
100
AcDbSymbolTable
 70
         1
  0
APPID
  5
16
100
AcDbSymbolTableRecord
100
AcDbRegAppTableRecord
  2
ACAD
 70
         0
  0
ENDTAB
  0
TABLE
  2
DIMSTYLE
  5
9
100
AcDbSymbolTable
 70
         1
100
AcDbDimStyleTable
 71
         0
  0
DIMSTYLE
105
18
100
AcDbSymbolTableRecord
100
AcDbDimStyleTableRecord
  2
Standard
 70
         0
  3

  4

 40
1.0
 41
0.18
 42
0.0625
 43
0.38
 44
0.18
 45
0.0
 46
0.0
 47
0.0
 48
0.0
 71
         0
 72
         0
 73
         1
 74
         1
 75
         0
 76
         0
 77
         0
 78
         0
 79
         0
140
0.18
141
0.09
142
0.0
143
25.4
144
1.0
145
0.0
146
1.0
147
0.09
148
0.0
170
         0
171
         2
172
         0
173
         0
174
         0
175
         0
176
         0
177
         0
178
         0
179
         0
271
         4
272
         4
273
         2
274
         2
275
         0
276
         0
277
         2
278
        46
279
         0
280
         0
281
         0
282
         0
283
         1
284
         0
285
         0
286
         0
288
         0
340
17
341
0
342
0
343
0
344
0
371
        -2
372
        -2
  0
ENDTAB
  0
TABLE
  2
BLOCK_RECORD
  5
1
100
AcDbSymbolTable
 70
         0
  0
BLOCK_RECORD
  5
A
100
AcDbSymbolTableRecord
100
AcDbBlockTableRecord
  2
*MODEL_SPACE
340
20
  0
BLOCK_RECORD
  5
B
100
AcDbSymbolTableRecord
100
AcDbBlockTableRecord
  2
*PAPER_SPACE
340
21
  0
ENDTAB
  0
ENDSEC
  0
SECTION
  2
BLOCKS
  0
BLOCK
  5
D
100
AcDbEntity
  8
0
100
AcDbBlockBegin
  2
*MODEL_SPACE
 70
         0
 10
0.0
 20
0.0
 30
0.0
  3
*MODEL_SPACE
  1

  0
ENDBLK
  5
E
100
AcDbEntity
  8
0
100
AcDbBlockEnd
  0
BLOCK
  5
F
100
AcDbEntity
 67
         1
  8
0
100
AcDbBlockBegin
  2
*PAPER_SPACE
 70
         0
 10
0.0
 20
0.0
 30
0.0
  3
*PAPER_SPACE
  1

  0
ENDBLK
  5
10
100
AcDbEntity
 67
         1
  8
0
100
AcDbBlockEnd
  0
ENDSEC
  0
SECTION
  2
ENTITIES
  0
LINE
  5
2F
100
AcDbEntity
  8
LAYER0
 62
         3
100
AcDbLine
 10
21.2571776257
 20
14.2240184758
 30
0.0
 11
29.2571776257
 21
14.2240184758
 31
0.0
  0
ARC
  5
30
100
AcDbEntity
  8
LAYER0
 62
         3
100
AcDbCircle
 10
29.2571776257
 20
12.2240184758
 30
0.0
 40
2.0
210
0.0
220
-0.0
230
1.0
100
AcDbArc
 50
0.0
 51
90.0000046057
  0
LINE
  5
32
100
AcDbEntity
  8
LAYER3
 62
         4
100
AcDbLine
 10
31.2571776257
 20
30.1801385681
 30
0.0
 11
28.3227348235
 21
29.5564034957
 31
0.0
  0
LINE
  5
33
100
AcDbEntity
  8
LAYER3
 62
         4
100
AcDbLine
 10
31.2571776257
 20
30.1801385681
 30
0.0
 11
28.3227348235
 21
30.8038736406
 31
0.0
  0
LINE
  5
34
100
AcDbEntity
  8
LAYER3
 62
         4
100
AcDbLine
 10
31.2571776257
 20
13.2240184758
 30
0.0
 11
31.2571776257
 21
31.1801385681
 31
0.0
  0
LINE
  5
35
100
AcDbEntity
  8
LAYER0
 62
         3
100
AcDbLine
 10
21.2571776257
 20
14.2240184758
 30
0.0
 11
7.7880661188
 21
6.527383329
 31
0.0
  0
ARC
  5
36
100
AcDbEntity
  8
LAYER0
 62
         6
100
AcDbCircle
 10
25.6141489249
 20
58.7740184758
 30
0.0
 40
2.0
210
0.0
220
0.0
230
1.0
100
AcDbArc
 50
269.9999953943
 51
305.6466839165
  0
LINE
  5
37
100
AcDbEntity
  8
LAYER0
 62
         6
100
AcDbLine
 10
4.9571776257
 20
58.0740184758
 30
0.0
 11
7.4571776257
 21
59.2740184758
 31
0.0
  0
LINE
  5
38
100
AcDbEntity
  8
LAYER0
 62
         6
100
AcDbLine
 10
7.4571776257
 20
59.2740184758
 30
0.0
 11
10.4571776257
 21
59.2740184758
 31
0.0
  0
LINE
  5
39
100
AcDbEntity
  8
LAYER0
 62
         6
100
AcDbLine
 10
4.9571776257
 20
60.0740184758
 30
0.0
 11
7.4571776257
 21
61.2740184758
 31
0.0
  0
LINE
  5
3A
100
AcDbEntity
  8
LAYER0
 62
         2
100
AcDbLine
 10
27.0306803176
 20
53.7740184758
 30
0.0
 11
15.4836749338
 21
53.7740184758
 31
0.0
  0
ARC
  5
3B
100
AcDbEntity
  8
LAYER0
 62
         2
100
AcDbCircle
 10
16.9119382569
 20
51.2939865359
 30
0.0
 40
1.5199680601
210
0.0
220
0.0
230
1.0
100
AcDbArc
 50
200.0043389438
 51
339.9956518448
  0
LINE
  5
3C
100
AcDbEntity
  8
LAYER0
 62
         2
100
AcDbLine
 10
18.3402015801
 20
50.7740184758
 30
0.0
 11
18.3402015801
 21
53.7740184758
 31
0.0
  0
LINE
  5
3D
100
AcDbEntity
  8
LAYER0
 62
         2
100
AcDbLine
 10
24.1741536713
 20
50.7740184758
 30
0.0
 11
24.1741536713
 21
53.7740184758
 31
0.0
  0
LINE
  5
3E
100
AcDbEntity
  8
LAYER0
 62
         2
100
AcDbLine
 10
15.4836749338
 20
50.7740184758
 30
0.0
 11
15.4836749338
 21
53.7740184758
 31
0.0
  0
LINE
  5
3F
100
AcDbEntity
  8
LAYER0
 62
         2
100
AcDbLine
 10
27.0306803176
 20
50.7740184758
 30
0.0
 11
27.0306803176
 21
53.7740184758
 31
0.0
  0
ARC
  5
40
100
AcDbEntity
  8
LAYER0
 62
         2
100
AcDbCircle
 10
21.2571776257
 20
54.5283931011
 30
0.0
 40
4.7543746253
210
0.0
220
0.0
230
1.0
100
AcDbArc
 50
232.1544333578
 51
307.8455574308
  0
ARC
  5
41
100
AcDbEntity
  8
LAYER0
 62
         2
100
AcDbCircle
 10
25.6024169945
 20
51.2939865359
 30
0.0
 40
1.5199680601
210
0.0
220
0.0
230
1.0
100
AcDbArc
 50
200.0043389438
 51
339.9956518448
  0
LINE
  5
42
100
AcDbEntity
  8
LAYER0
 62
         2
100
AcDbLine
 10
25.6024169945
 20
49.7740184758
 30
0.0
 11
16.9119382569
 21
49.7740184758
 31
0.0
  0
LINE
  5
43
100
AcDbEntity
  8
LAYER0
 62
         6
100
AcDbLine
 10
28.1571776257
 20
60.5977842836
 30
0.0
 11
25.6141489249
 21
58.7740184758
 31
0.0
  0
LINE
  5
44
100
AcDbEntity
  8
LAYER0
 62
         6
100
AcDbLine
 10
4.9571776257
 20
60.0740184758
 30
0.0
 11
4.9571776257
 21
58.0740184758
 31
0.0
  0
LINE
  5
45
100
AcDbEntity
  8
LAYER0
 62
         3
100
AcDbLine
 10
3.7571776257
 20
55.2740184758
 30
0.0
 11
3.7571776257
 21
56.7740184758
 31
0.0
  0
ARC
  5
46
100
AcDbEntity
  8
LAYER0
 62
         3
100
AcDbCircle
 10
30.7571776257
 20
55.2740184758
 30
0.0
 40
0.5
210
-0.0
220
0.0
230
1.0
100
AcDbArc
 50
269.9999953943
 51
0.0
  0
LINE
  5
47
100
AcDbEntity
  8
LAYER0
 62
         3
100
AcDbLine
 10
31.2571776257
 20
55.2740184758
 30
0.0
 11
31.2571776257
 21
56.7740184758
 31
0.0
  0
ARC
  5
48
100
AcDbEntity
  8
LAYER0
 62
         6
100
AcDbCircle
 10
5.4571776257
 20
13.2240184758
 30
0.0
 40
2.0
210
-0.0
220
0.0
230
1.0
100
AcDbArc
 50
269.9999953943
 51
0.0
  0
LINE
  5
49
100
AcDbEntity
  8
LAYER0
 62
         6
100
AcDbLine
 10
7.4571776257
 20
14.2240184758
 30
0.0
 11
7.4571776257
 21
13.2240184758
 31
0.0
  0
LINE
  5
4A
100
AcDbEntity
  8
LAYER0
 62
         6
100
AcDbLine
 10
13.7571776257
 20
14.2240184758
 30
0.0
 11
13.7571776257
 21
9.93830419
 31
0.0
  0
LINE
  5
4B
100
AcDbEntity
  8
LAYER0
 62
         6
100
AcDbLine
 10
10.4571776257
 20
14.2240184758
 30
0.0
 11
10.4571776257
 21
8.0525899043
 31
0.0
  0
LINE
  5
4C
100
AcDbEntity
  8
LAYER0
 62
         2
100
AcDbLine
 10
20.7571776257
 20
2.2240184758
 30
0.0
 11
21.7571776257
 21
2.2240184758
 31
0.0
  0
LINE
  5
4D
100
AcDbEntity
  8
LAYER0
 62
         2
100
AcDbLine
 10
21.2571776257
 20
4.9975211676
 30
0.0
 11
26.2571776257
 21
2.1107698217
 31
0.0
  0
LINE
  5
4E
100
AcDbEntity
  8
LAYER0
 62
         2
100
AcDbLine
 10
16.3095283412
 20
2.1409945214
 30
0.0
 11
21.2571776257
 21
4.9975211676
 31
0.0
  0
LINE
  5
4F
100
AcDbEntity
  8
LAYER0
 62
         2
100
AcDbLine
 10
21.7571776257
 20
-2.2759815242
 30
0.0
 11
21.7571776257
 21
-3.7759815242
 31
0.0
  0
LINE
  5
50
100
AcDbEntity
  8
LAYER0
 62
         2
100
AcDbLine
 10
20.7571776257
 20
-3.7759815242
 30
0.0
 11
21.7571776257
 21
-3.7759815242
 31
0.0
  0
LINE
  5
51
100
AcDbEntity
  8
LAYER0
 62
         3
100
AcDbLine
 10
5.7571776257
 20
-15.7759815242
 30
0.0
 11
29.2571776257
 21
-15.7759815242
 31
0.0
  0
ARC
  5
52
100
AcDbEntity
  8
LAYER0
 62
         3
100
AcDbCircle
 10
5.7571776257
 20
-13.7759815242
 30
0.0
 40
2.0
210
0.0
220
0.0
230
1.0
100
AcDbArc
 50
180.0000030705
 51
269.9999984648
  0
LINE
  5
53
100
AcDbEntity
  8
LAYER0
 62
         2
100
AcDbLine
 10
21.2571776257
 20
-6.5494842161
 30
0.0
 11
26.2571776257
 21
-3.6627328702
 31
0.0
  0
LINE
  5
54
100
AcDbEntity
  8
LAYER0
 62
         2
100
AcDbLine
 10
16.3095283412
 20
-3.6929575699
 30
0.0
 11
21.2571776257
 21
-6.5494842161
 31
0.0
  0
LINE
  5
55
100
AcDbEntity
  8
LAYER0
 62
         3
100
AcDbLine
 10
4.2571776257
 20
54.7740184758
 30
0.0
 11
30.7571776257
 21
54.7740184758
 31
0.0
  0
LINE
  5
56
100
AcDbEntity
  8
LAYER0
 62
         3
100
AcDbLine
 10
3.7571776257
 20
56.7740184758
 30
0.0
 11
31.2571776257
 21
56.7740184758
 31
0.0
  0
ARC
  5
57
100
AcDbEntity
  8
LAYER0
 62
         3
100
AcDbCircle
 10
4.2571776257
 20
55.2740184758
 30
0.0
 40
0.5
210
0.0
220
0.0
230
1.0
100
AcDbArc
 50
179.9999969295
 51
269.9999953943
  0
LINE
  5
59
100
AcDbEntity
  8
LAYER1
 62
         2
100
AcDbLine
 10
23.6571776257
 20
58.7740184758
 30
0.0
 11
23.6571776257
 21
59.7740184758
 31
0.0
  0
LINE
  5
5A
100
AcDbEntity
  8
LAYER0
 62
         2
100
AcDbLine
 10
24.2571776257
 20
58.7740184758
 30
0.0
 11
24.2571776257
 21
59.7740184758
 31
0.0
  0
LINE
  5
5B
100
AcDbEntity
  8
LAYER0
 62
         2
100
AcDbLine
 10
18.2571776257
 20
58.7740184758
 30
0.0
 11
18.2571776257
 21
59.7740184758
 31
0.0
  0
LINE
  5
5C
100
AcDbEntity
  8
LAYER0
 62
         3
100
AcDbLine
 10
14.7571776257
 20
53.7740184758
 30
0.0
 11
27.7571776257
 21
53.7740184758
 31
0.0
  0
LINE
  5
5D
100
AcDbEntity
  8
LAYER0
 62
         3
100
AcDbLine
 10
14.7571776257
 20
53.7740184758
 30
0.0
 11
14.7571776257
 21
54.7740184758
 31
0.0
  0
LINE
  5
5E
100
AcDbEntity
  8
LAYER0
 62
         3
100
AcDbLine
 10
27.7571776257
 20
53.7740184758
 30
0.0
 11
27.7571776257
 21
54.7740184758
 31
0.0
  0
LINE
  5
5F
100
AcDbEntity
  8
LAYER0
 62
         2
100
AcDbLine
 10
18.2571776257
 20
59.7740184758
 30
0.0
 11
24.2571776257
 21
59.7740184758
 31
0.0
  0
LINE
  5
60
100
AcDbEntity
  8
LAYER1
 62
         2
100
AcDbLine
 10
18.8571776257
 20
58.7740184758
 30
0.0
 11
18.8571776257
 21
59.7740184758
 31
0.0
  0
LINE
  5
61
100
AcDbEntity
  8
LAYER0
 62
         3
100
AcDbLine
 10
14.4292162728
 20
56.7740184758
 30
0.0
 11
25.6141489249
 21
56.7740184758
 31
0.0
  0
LINE
  5
62
100
AcDbEntity
  8
LAYER0
 62
         6
100
AcDbLine
 10
14.4292162728
 20
58.7740184758
 30
0.0
 11
25.6141489249
 21
58.7740184758
 31
0.0
  0
LINE
  5
63
100
AcDbEntity
  8
LAYER0
 62
         6
100
AcDbLine
 10
10.4571776257
 20
59.2740184758
 30
0.0
 11
13.2215008968
 21
57.1798341795
 31
0.0
  0
ARC
  5
64
100
AcDbEntity
  8
LAYER0
 62
         6
100
AcDbCircle
 10
10.4571776257
 20
59.2740184758
 30
0.0
 40
2.0
210
0.0
220
-0.0
230
1.0
100
AcDbArc
 50
52.8533160067
 51
90.0000046057
  0
ARC
  5
65
100
AcDbEntity
  8
LAYER0
 62
         6
100
AcDbCircle
 10
14.4292162728
 20
58.7740184758
 30
0.0
 40
2.0
210
0.0
220
0.0
230
1.0
100
AcDbArc
 50
232.8533067953
 51
269.9999953943
  0
LINE
  5
66
100
AcDbEntity
  8
LAYER0
 62
         6
100
AcDbLine
 10
11.6648930017
 20
60.8682027721
 30
0.0
 11
14.4292162728
 21
58.7740184758
 31
0.0
  0
LINE
  5
67
100
AcDbEntity
  8
LAYER0
 62
         6
100
AcDbLine
 10
29.3227482679
 20
58.9725319714
 30
0.0
 11
26.7797195671
 21
57.1487661637
 31
0.0
  0
LINE
  5
68
100
AcDbEntity
  8
LAYER0
 62
         6
100
AcDbLine
 10
28.1571776257
 20
60.5977842836
 30
0.0
 11
29.3227482679
 21
58.9725319714
 31
0.0
  0
LINE
  5
69
100
AcDbEntity
  8
LAYER3
 62
         4
100
AcDbLine
 10
-24.8428223743
 20
15.2240184758
 30
0.0
 11
-24.8428223743
 21
31.1801385681
 31
0.0
  0
LINE
  5
6A
100
AcDbEntity
  8
LAYER3
 62
         4
100
AcDbLine
 10
-37.3449654798
 20
14.2240184758
 30
0.0
 11
-36.7212304074
 21
11.2895756735
 31
0.0
  0
LINE
  5
6B
100
AcDbEntity
  8
LAYER3
 62
         4
100
AcDbLine
 10
-37.3449654798
 20
14.2240184758
 30
0.0
 11
-37.9687005523
 21
11.2895756735
 31
0.0
  0
MTEXT
  5
6C
100
AcDbEntity
  8
LAYER0
100
AcDbMText
 10
14.9392602544
 20
-132.8866032766
 30
0.0
 40
2.4737683892
 41
41.3626117364
 71
         1
 72
         1
  1
\W0.8;30用ステンレス天付ブラケット
  0
MTEXT
  5
6D
100
AcDbEntity
  8
LAYER0
100
AcDbMText
 10
70.4390438692
 20
-133.1024691863
 30
0.0
 40
2.4737683892
 41
8.8634168007
 71
         1
 72
         1
  1
\W0.8;D55692
  0
LINE
  5
6E
100
AcDbEntity
  8
LAYER0
 62
         3
100
AcDbLine
 10
60.0
 20
-125.5
 30
0.0
 11
60.0
 21
-138.5
 31
0.0
  0
MTEXT
  5
6F
100
AcDbEntity
  8
LAYER0
100
AcDbMText
 10
73.6629053089
 20
-126.7640726036
 30
0.0
 40
2.1473683357
 41
10.2585839844
 71
         1
 72
         1
  1
\W0.8;管理図番
  0
MTEXT
  5
70
100
AcDbEntity
  8
LAYER0
100
AcDbMText
 10
32.0542682872
 20
-126.7970201517
 30
0.0
 40
2.1473683357
 41
7.6538653946
 71
         1
 72
         1
  1
\W0.8;品　名
  0
LINE
  5
71
100
AcDbEntity
  8
LAYER0
 62
         3
100
AcDbLine
 10
10.0
 20
-138.5
 30
0.0
 11
10.0
 21
-125.5
 31
0.0
  0
LINE
  5
72
100
AcDbEntity
  8
LAYER0
 62
         3
100
AcDbLine
 10
95.0
 20
-138.5
 30
0.0
 11
95.0
 21
-125.5
 31
0.0
  0
LINE
  5
73
100
AcDbEntity
  8
LAYER0
 62
         6
100
AcDbLine
 10
21.2571776257
 20
-8.7759815242
 30
0.0
 11
21.2571776257
 21
-11.7759815242
 31
0.0
  0
LINE
  5
74
100
AcDbEntity
  8
LAYER0
 62
         6
100
AcDbLine
 10
25.2571776257
 20
-8.7759815242
 30
0.0
 11
25.2571776257
 21
-11.0229322902
 31
0.0
  0
ARC
  5
75
100
AcDbEntity
  8
LAYER0
 62
         3
100
AcDbCircle
 10
29.2571776257
 20
-13.7759815242
 30
0.0
 40
2.0
210
-0.0
220
0.0
230
1.0
100
AcDbArc
 50
269.9999953943
 51
0.0
  0
LINE
  5
76
100
AcDbEntity
  8
LAYER0
 62
         3
100
AcDbLine
 10
14.842724901
 20
-4.6301735591
 30
0.0
 11
12.2671311323
 21
-6.1777464253
 31
0.0
  0
LINE
  5
77
100
AcDbEntity
  8
LAYER0
 62
         3
100
AcDbLine
 10
25.1113696606
 20
-7.1904342489
 30
0.0
 11
26.6589425268
 21
-9.7660280176
 31
0.0
  0
ARC
  5
78
100
AcDbEntity
  8
LAYER0
 62
         3
100
AcDbCircle
 10
21.2571776257
 20
-0.7759815242
 30
0.0
 40
11.0
210
0.0
220
0.0
230
1.0
100
AcDbArc
 50
213.7293951515
 51
298.2705942042
  0
ARC
  5
79
100
AcDbEntity
  8
LAYER0
 62
         3
100
AcDbCircle
 10
21.2571776257
 20
-0.7759815242
 30
0.0
 40
7.0
210
0.0
220
0.0
230
1.0
100
AcDbArc
 50
214.8225462999
 51
297.1774430558
  0
ARC
  5
7A
100
AcDbEntity
  8
LAYER0
 62
         3
100
AcDbCircle
 10
12.5246501698
 20
-6.6063300757
 30
0.0
 40
0.5
210
0.0
220
0.0
230
1.0
100
AcDbArc
 50
121.0000061921
 51
213.7293951515
  0
ARC
  5
7B
100
AcDbEntity
  8
LAYER0
 62
         3
100
AcDbCircle
 10
24.6827860103
 20
-7.4479532864
 30
0.0
 40
0.5
210
0.0
220
-0.0
230
1.0
100
AcDbArc
 50
31.0000015864
 51
117.1774522672
  0
ARC
  5
7C
100
AcDbEntity
  8
LAYER0
 62
         3
100
AcDbCircle
 10
15.1002439384
 20
-5.0587572095
 30
0.0
 40
0.5
210
0.0
220
-0.0
230
1.0
100
AcDbArc
 50
34.8225555113
 51
121.0000061921
  0
ARC
  5
7D
100
AcDbEntity
  8
LAYER0
 62
         3
100
AcDbCircle
 10
26.2303588765
 20
-10.023547055
 30
0.0
 40
0.5
210
-0.0
220
0.0
230
1.0
100
AcDbArc
 50
298.2705942042
 51
31.0000015864
  0
LINE
  5
7E
100
AcDbEntity
  8
LAYER0
 62
         6
100
AcDbLine
 10
25.2571776257
 20
-15.7759815242
 30
0.0
 11
29.3227482679
 21
-15.7759815242
 31
0.0
  0
LINE
  5
7F
100
AcDbEntity
  8
LAYER0
 62
         6
100
AcDbLine
 10
21.2571776257
 20
-10.7759815242
 30
0.0
 11
25.2571776257
 21
-10.7759815242
 31
0.0
  0
LINE
  5
80
100
AcDbEntity
  8
LAYER0
 62
         6
100
AcDbLine
 10
21.2571776257
 20
-8.7759815242
 30
0.0
 11
25.2571776257
 21
-8.7759815242
 31
0.0
  0
LINE
  5
81
100
AcDbEntity
  8
LAYER0
 62
         2
100
AcDbLine
 10
20.7571776257
 20
-3.7759815242
 30
0.0
 11
20.7571776257
 21
-2.2759815242
 31
0.0
  0
LINE
  5
82
100
AcDbEntity
  8
LAYER3
 62
         4
100
AcDbLine
 10
-37.3449654798
 20
-15.7759815242
 30
0.0
 11
-36.7212304074
 21
-12.841538722
 31
0.0
  0
LINE
  5
83
100
AcDbEntity
  8
LAYER0
 62
         6
100
AcDbLine
 10
-24.8428223743
 20
59.2740184758
 30
0.0
 11
-24.8428223743
 21
56.7740184758
 31
0.0
  0
LINE
  5
84
100
AcDbEntity
  8
LAYER0
 62
         6
100
AcDbLine
 10
-22.8428223743
 20
59.2740184758
 30
0.0
 11
-17.5428223743
 21
59.2740184758
 31
0.0
  0
ARC
  5
85
100
AcDbEntity
  8
LAYER0
 62
         6
100
AcDbCircle
 10
-22.8428223743
 20
59.2740184758
 30
0.0
 40
2.0
210
0.0
220
0.0
230
1.0
100
AcDbArc
 50
90.0000046057
 51
179.9999969295
  0
ARC
  5
86
100
AcDbEntity
  8
LAYER0
 62
         6
100
AcDbCircle
 10
-22.8428223743
 20
56.7740184758
 30
0.0
 40
2.0
210
0.0
220
0.0
230
1.0
100
AcDbArc
 50
179.9999969295
 51
269.9999953943
  0
LINE
  5
87
100
AcDbEntity
  8
LAYER0
 62
         6
100
AcDbLine
 10
-22.8428223743
 20
59.2740184758
 30
0.0
 11
-22.8428223743
 21
56.7740184758
 31
0.0
  0
LINE
  5
88
100
AcDbEntity
  8
LAYER0
 62
         6
100
AcDbLine
 10
-22.8428223743
 20
54.7740184758
 30
0.0
 11
-19.5428223743
 21
54.7740184758
 31
0.0
  0
LINE
  5
89
100
AcDbEntity
  8
LAYER0
 62
         6
100
AcDbLine
 10
-22.8428223743
 20
56.7740184758
 30
0.0
 11
-19.5428223743
 21
56.7740184758
 31
0.0
  0
LINE
  5
8A
100
AcDbEntity
  8
LAYER0
 62
         6
100
AcDbLine
 10
-19.5428223743
 20
56.7740184758
 30
0.0
 11
-19.5428223743
 21
54.7740184758
 31
0.0
  0
LINE
  5
8B
100
AcDbEntity
  8
LAYER0
 62
         6
100
AcDbLine
 10
-17.5428223743
 20
59.2740184758
 30
0.0
 11
-15.0428223743
 21
58.0740184758
 31
0.0
  0
LINE
  5
8C
100
AcDbEntity
  8
LAYER0
 62
         6
100
AcDbLine
 10
-17.5428223743
 20
61.2740184758
 30
0.0
 11
-15.0428223743
 21
60.0740184758
 31
0.0
  0
LINE
  5
8D
100
AcDbEntity
  8
LAYER0
 62
         6
100
AcDbLine
 10
-15.0428223743
 20
60.0740184758
 30
0.0
 11
-15.0428223743
 21
58.0740184758
 31
0.0
  0
ARC
  5
8E
100
AcDbEntity
  8
LAYER0
 62
         6
100
AcDbCircle
 10
-15.5428223743
 20
13.2240184758
 30
0.0
 40
2.0
210
0.0
220
0.0
230
1.0
100
AcDbArc
 50
179.9999969295
 51
269.9999953943
  0
LINE
  5
8F
100
AcDbEntity
  8
LAYER0
 62
         6
100
AcDbLine
 10
-17.5428223743
 20
14.2240184758
 30
0.0
 11
-17.5428223743
 21
13.2240184758
 31
0.0
  0
ARC
  5
90
100
AcDbEntity
  8
LAYER0
 62
         6
100
AcDbCircle
 10
-21.5428223743
 20
12.2240184758
 30
0.0
 40
2.0
210
0.0
220
-0.0
230
1.0
100
AcDbArc
 50
0.0
 51
90.0000046057
  0
LINE
  5
91
100
AcDbEntity
  8
LAYER3
 62
         4
100
AcDbLine
 10
-25.8428223743
 20
14.2240184758
 30
0.0
 11
-38.3449654798
 21
14.2240184758
 31
0.0
  0
MTEXT
  5
92
100
AcDbEntity
  8
LAYER3
100
AcDbMText
 10
-40.982109568
 20
50.7240184011
 30
0.0
 40
2.1473683357
 41
5.1292919922
 71
         1
 72
         1
  1
\W0.8;11.5
 11
-0.0000000268
 21
1.0
 31
0.0
  0
LINE
  5
93
100
AcDbEntity
  8
LAYER3
 62
         4
100
AcDbLine
 10
-37.1944508766
 20
49.7740184758
 30
0.0
 11
-37.818185949
 21
52.708461278
 31
0.0
  0
LINE
  5
94
100
AcDbEntity
  8
LAYER3
 62
         4
100
AcDbLine
 10
-37.1944508766
 20
49.7740184758
 30
0.0
 11
-36.5707158041
 21
52.708461278
 31
0.0
  0
LINE
  5
95
100
AcDbEntity
  8
LAYER3
 62
         4
100
AcDbLine
 10
-37.1944508766
 20
61.2740184758
 30
0.0
 11
-36.5707158041
 21
58.3395756735
 31
0.0
  0
LINE
  5
96
100
AcDbEntity
  8
LAYER3
 62
         4
100
AcDbLine
 10
-37.1944508766
 20
61.2740184758
 30
0.0
 11
-37.818185949
 21
58.3395756735
 31
0.0
  0
LINE
  5
97
100
AcDbEntity
  8
LAYER3
 62
         4
100
AcDbLine
 10
-37.1944508766
 20
61.2740184758
 30
0.0
 11
-37.1944508766
 21
49.7740184758
 31
0.0
  0
LINE
  5
98
100
AcDbEntity
  8
LAYER3
 62
         4
100
AcDbLine
 10
-23.8428223743
 20
61.2740184758
 30
0.0
 11
-38.1944508766
 21
61.2740184758
 31
0.0
  0
LINE
  5
99
100
AcDbEntity
  8
LAYER3
 62
         4
100
AcDbLine
 10
-24.8428223743
 20
30.1801385681
 30
0.0
 11
-21.9083795721
 21
30.8038736406
 31
0.0
  0
LINE
  5
9A
100
AcDbEntity
  8
LAYER3
 62
         4
100
AcDbLine
 10
-24.8428223743
 20
30.1801385681
 30
0.0
 11
-21.9083795721
 21
29.5564034957
 31
0.0
  0
LINE
  5
9B
100
AcDbEntity
  8
LAYER0
 62
         2
100
AcDbLine
 10
19.7571776257
 20
-1.2759815242
 30
0.0
 11
18.2571776257
 21
-1.2759815242
 31
0.0
  0
LINE
  5
9C
100
AcDbEntity
  8
LAYER0
 62
         2
100
AcDbLine
 10
24.2571776257
 20
-1.2759815242
 30
0.0
 11
22.7571776257
 21
-1.2759815242
 31
0.0
  0
LINE
  5
9D
100
AcDbEntity
  8
LAYER0
 62
         2
100
AcDbLine
 10
22.7571776257
 20
-0.2759815242
 30
0.0
 11
24.2571776257
 21
-0.2759815242
 31
0.0
  0
LINE
  5
9E
100
AcDbEntity
  8
LAYER0
 62
         2
100
AcDbLine
 10
18.2571776257
 20
-0.2759815242
 30
0.0
 11
19.7571776257
 21
-0.2759815242
 31
0.0
  0
LINE
  5
9F
100
AcDbEntity
  8
LAYER0
 62
         2
100
AcDbLine
 10
24.2571776257
 20
-1.2759815242
 30
0.0
 11
24.2571776257
 21
-0.2759815242
 31
0.0
  0
LINE
  5
A0
100
AcDbEntity
  8
LAYER0
 62
         2
100
AcDbLine
 10
18.2571776257
 20
-1.2759815242
 30
0.0
 11
18.2571776257
 21
-0.2759815242
 31
0.0
  0
CIRCLE
  5
A1
100
AcDbEntity
  8
LAYER0
 62
         2
100
AcDbCircle
 10
21.2571776257
 20
-0.7759815242
 30
0.0
 40
4.0
210
0.0
220
0.0
230
1.0
  0
CIRCLE
  5
A2
100
AcDbEntity
  8
LAYER0
 62
         2
100
AcDbCircle
 10
21.2571776257
 20
-0.7759815242
 30
0.0
 40
5.0
210
0.0
220
0.0
230
1.0
  0
LINE
  5
A3
100
AcDbEntity
  8
LAYER0
 62
         2
100
AcDbLine
 10
26.2571776257
 20
-3.6627328702
 30
0.0
 11
26.2571776257
 21
2.0956992539
 31
0.0
  0
LINE
  5
A4
100
AcDbEntity
  8
LAYER0
 62
         2
100
AcDbLine
 10
16.2571776257
 20
2.1107698217
 30
0.0
 11
16.2571776257
 21
-3.6627328702
 31
0.0
  0
LINE
  5
A5
100
AcDbEntity
  8
LAYER0
 62
         3
100
AcDbLine
 10
31.2571776257
 20
-13.7759815242
 30
0.0
 11
31.2571776257
 21
12.2240184758
 31
0.0
  0
ARC
  5
A6
100
AcDbEntity
  8
LAYER0
 62
         3
100
AcDbCircle
 10
11.7571776257
 20
-0.418561808
 30
0.0
 40
8.0
210
0.0
220
0.0
230
1.0
100
AcDbArc
 50
119.7448833396
 51
180.0000030705
  0
LINE
  5
A7
100
AcDbEntity
  8
LAYER0
 62
         3
100
AcDbLine
 10
3.7571776257
 20
-0.418561808
 30
0.0
 11
3.7571776257
 21
-13.7759815242
 31
0.0
  0
ARC
  5
A8
100
AcDbEntity
  8
LAYER0
 62
         2
100
AcDbCircle
 10
22.7571776257
 20
-2.2759815242
 30
0.0
 40
1.0
210
0.0
220
0.0
230
1.0
100
AcDbArc
 50
90.0000046057
 51
179.9999969295
  0
MTEXT
  5
A9
100
AcDbEntity
  8
LAYER0
100
AcDbMText
 10
-15.6501737419
 20
-132.5157576176
 30
0.0
 40
3.0922104359
 41
9.2327256828
 71
         1
 72
         1
  1
\W0.8;S-223
  0
MTEXT
  5
AA
100
AcDbEntity
  8
LAYER0
100
AcDbMText
 10
-35.7051459079
 20
-126.6461242782
 30
0.0
 40
2.1473683357
 41
6.4116149902
 71
         1
 72
         1
  1
\W0.8;Ｎｏ.
  0
LINE
  5
AB
100
AcDbEntity
  8
LAYER0
 62
         3
100
AcDbLine
 10
-25.0
 20
-125.5
 30
0.0
 11
-25.0
 21
-138.5
 31
0.0
  0
MTEXT
  5
AC
100
AcDbEntity
  8
LAYER0
100
AcDbMText
 10
-10.6564309049
 20
-126.7970201517
 30
0.0
 40
2.1473683357
 41
7.6538653946
 71
         1
 72
         1
  1
\W0.8;品　番
  0
LINE
  5
AD
100
AcDbEntity
  8
LAYER0
 62
         3
100
AcDbLine
 10
-40.0
 20
-138.5
 30
0.0
 11
-40.0
 21
-125.5
 31
0.0
  0
ARC
  5
AE
100
AcDbEntity
  8
LAYER0
 62
         6
100
AcDbCircle
 10
-21.5428223743
 20
-13.7759815242
 30
0.0
 40
2.0
210
-0.0
220
0.0
230
1.0
100
AcDbArc
 50
269.9999953943
 51
0.0
  0
LINE
  5
AF
100
AcDbEntity
  8
LAYER0
 62
         6
100
AcDbLine
 10
-17.5428223743
 20
-15.7759815242
 30
0.0
 11
-17.5428223743
 21
-14.7759815242
 31
0.0
  0
ARC
  5
B0
100
AcDbEntity
  8
LAYER0
 62
         6
100
AcDbCircle
 10
-15.5428223743
 20
-14.7759815242
 30
0.0
 40
2.0
210
0.0
220
0.0
230
1.0
100
AcDbArc
 50
90.0000046057
 51
179.9999969295
  0
LINE
  5
B1
100
AcDbEntity
  8
LAYER3
 62
         4
100
AcDbLine
 10
-25.8428223743
 20
-15.7759815242
 30
0.0
 11
-38.3449654798
 21
-15.7759815242
 31
0.0
  0
MTEXT
  5
B2
100
AcDbEntity
  8
LAYER3
100
AcDbMText
 10
-41.1326241712
 20
-3.1759815989
 30
0.0
 40
2.1473683357
 41
2.5646459961
 71
         1
 72
         1
  1
\W0.8;30
 11
-0.0000000268
 21
1.0
 31
0.0
  0
LINE
  5
B3
100
AcDbEntity
  8
LAYER3
 62
         4
100
AcDbLine
 10
-37.3449654798
 20
-15.7759815242
 30
0.0
 11
-37.9687005523
 21
-12.841538722
 31
0.0
  0
LINE
  5
B4
100
AcDbEntity
  8
LAYER0
 62
         3
100
AcDbLine
 10
95.0
 20
-125.5
 30
0.0
 11
-40.0
 21
-125.5
 31
0.0
  0
LINE
  5
B5
100
AcDbEntity
  8
LAYER0
 62
         3
100
AcDbLine
 10
95.0
 20
-130.5
 30
0.0
 11
-40.0
 21
-130.5
 31
0.0
  0
LINE
  5
B6
100
AcDbEntity
  8
LAYER0
 62
         3
100
AcDbLine
 10
95.0
 20
-138.5
 30
0.0
 11
-40.0
 21
-138.5
 31
0.0
  0
LINE
  5
B7
100
AcDbEntity
  8
LAYER0
 62
         6
100
AcDbLine
 10
-15.0428223743
 20
58.0740184758
 30
0.0
 11
4.9571776257
 21
58.0740184758
 31
0.0
  0
LINE
  5
B8
100
AcDbEntity
  8
LAYER0
 62
         6
100
AcDbLine
 10
-15.0428223743
 20
60.0740184758
 30
0.0
 11
4.9571776257
 21
60.0740184758
 31
0.0
  0
CIRCLE
  5
B9
100
AcDbEntity
  8
LAYER0
 62
         6
100
AcDbCircle
 10
-6.2428223743
 20
-0.7759815242
 30
0.0
 40
4.25
210
0.0
220
0.0
230
1.0
  0
LINE
  5
BA
100
AcDbEntity
  8
LAYER0
 62
         6
100
AcDbLine
 10
-17.5419221717
 20
-14.7159815242
 30
0.0
 11
3.9918447959
 21
-14.7159815242
 31
0.0
  0
LINE
  5
BB
100
AcDbEntity
  8
LAYER0
 62
         6
100
AcDbLine
 10
-15.5428223743
 20
-12.7759815242
 30
0.0
 11
3.7571776257
 21
-12.7759815242
 31
0.0
  0
LINE
  5
BC
100
AcDbEntity
  8
LAYER0
 62
         6
100
AcDbLine
 10
-22.8428223743
 20
61.2740184758
 30
0.0
 11
10.4571776257
 21
61.2740184758
 31
0.0
  0
LINE
  5
BD
100
AcDbEntity
  8
LAYER0
 62
         6
100
AcDbLine
 10
-24.8428223743
 20
14.2240184758
 30
0.0
 11
29.3227482679
 21
14.2240184758
 31
0.0
  0
LINE
  5
BE
100
AcDbEntity
  8
LAYER0
 62
         6
100
AcDbLine
 10
-15.5428223743
 20
11.2240184758
 30
0.0
 11
5.4571776257
 21
11.2240184758
 31
0.0
  0
LINE
  5
BF
100
AcDbEntity
  8
LAYER0
 62
         6
100
AcDbLine
 10
-17.5419221717
 20
13.1640184758
 30
0.0
 11
7.4562774231
 21
13.1640184758
 31
0.0
  0
LINE
  5
C0
100
AcDbEntity
  8
LAYER0
 62
         6
100
AcDbLine
 10
-24.8428223743
 20
-15.7759815242
 30
0.0
 11
21.2571776257
 21
-15.7759815242
 31
0.0
  0
LINE
  5
C1
100
AcDbEntity
  8
LAYER3
 62
         4
100
AcDbLine
 10
15.9119382569
 20
49.7740184758
 30
0.0
 11
-38.1944508766
 21
49.7740184758
 31
0.0
  0
MTEXT
  5
C2
100
AcDbEntity
  8
LAYER3
100
AcDbMText
 10
-1.5928223743
 20
33.9677972595
 30
0.0
 40
2.1473683357
 41
5.1292919922
 71
         1
 72
         1
  1
\W0.8;56.1
  0
LINE
  5
C3
100
AcDbEntity
  8
LAYER3
 62
         4
100
AcDbLine
 10
-24.8428223743
 20
30.1801385681
 30
0.0
 11
31.2571776257
 21
30.1801385681
 31
0.0
  0
CIRCLE
  5
C4
100
AcDbEntity
  8
LAYER0
 62
         6
100
AcDbCircle
 10
-6.2428223743
 20
-0.7759815242
 30
0.0
 40
2.25
210
0.0
220
0.0
230
1.0
  0
LINE
  5
C5
100
AcDbEntity
  8
LAYER0
 62
         6
100
AcDbLine
 10
-19.5428223743
 20
12.2240184758
 30
0.0
 11
-19.5428223743
 21
-13.7759815242
 31
0.0
  0
LINE
  5
C6
100
AcDbEntity
  8
LAYER0
 62
         6
100
AcDbLine
 10
-24.8428223743
 20
14.2240184758
 30
0.0
 11
-24.8428223743
 21
-15.7759815242
 31
0.0
  0
LINE
  5
C7
100
AcDbEntity
  8
LAYER3
 62
         4
100
AcDbLine
 10
-37.3449654798
 20
14.2240184758
 30
0.0
 11
-37.3449654798
 21
-15.7759815242
 31
0.0
  0
ARC
  5
C8
100
AcDbEntity
  8
LAYER0
 62
         2
100
AcDbCircle
 10
22.7571776257
 20
0.7240184758
 30
0.0
 40
1.0
210
0.0
220
0.0
230
1.0
100
AcDbArc
 50
179.9999969295
 51
269.9999953943
  0
ARC
  5
C9
100
AcDbEntity
  8
LAYER0
 62
         2
100
AcDbCircle
 10
19.7571776257
 20
0.7240184758
 30
0.0
 40
1.0
210
-0.0
220
0.0
230
1.0
100
AcDbArc
 50
269.9999953943
 51
0.0
  0
ARC
  5
CA
100
AcDbEntity
  8
LAYER0
 62
         2
100
AcDbCircle
 10
19.7571776257
 20
-2.2759815242
 30
0.0
 40
1.0
210
0.0
220
-0.0
230
1.0
100
AcDbArc
 50
0.0
 51
90.0000046057
  0
LINE
  5
CB
100
AcDbEntity
  8
LAYER0
 62
         2
100
AcDbLine
 10
20.7571776257
 20
0.7240184758
 30
0.0
 11
20.7571776257
 21
2.2240184758
 31
0.0
  0
LINE
  5
CC
100
AcDbEntity
  8
LAYER0
 62
         2
100
AcDbLine
 10
21.7571776257
 20
2.2240184758
 30
0.0
 11
21.7571776257
 21
0.7240184758
 31
0.0
  0
ENDSEC
  0
SECTION
  2
OBJECTS
  0
DICTIONARY
  5
19
100
AcDbDictionary
280
         0
281
         1
  3
ACAD_GROUP
350
1A
  3
ACAD_MLINESTYLE
350
1B
  3
ACAD_LAYOUT
350
1E
  3
ACAD_PLOTSETTINGS
350
22
  3
ACAD_PLOTSTYLENAME
350
1F
  3
ACAD_WIPEOUT_VARS
350
23
  0
DICTIONARY
  5
1A
102
{ACAD_REACTORS
330
19
102
}
100
AcDbDictionary
280
         0
281
         1
  0
DICTIONARY
  5
1B
102
{ACAD_REACTORS
330
19
102
}
100
AcDbDictionary
280
         0
281
         1
  3
Standard
350
1C
  0
MLINESTYLE
  5
1C
102
{ACAD_REACTORS
330
1B
102
}
100
AcDbMlineStyle
  2
Standard
 70
         0
  3

 62
         0
 51
90.0
 52
90.0
 71
         2
 49
0.5
 62
       256
  6
BYLAYER
 49
-0.5
 62
       256
  6
BYLAYER
  0
ACDBDICTIONARYWDFLT
  5
1F
102
{ACAD_REACTORS
330
19
102
}
100
AcDbDictionary
281
         1
  3
Normal
350
1D
100
AcDbDictionaryWithDefault
340
1D
  0
ACDBPLACEHOLDER
  5
1D
102
{ACAD_REACTORS
330
1F
102
}
  0
LAYOUT
  5
20
102
{ACAD_REACTORS
330
1E
102
}
100
AcDbPlotSettings
  1

  2

  4

  6

 40
0.0
 41
0.0
 42
0.0
 43
0.0
 44
0.0
 45
0.0
 46
0.0
 47
0.0
 48
0.0
 49
0.0
140
0.0
141
0.0
142
1.0
143
1.0
 70
         0
 72
         0
 73
         0
 74
         0
  7

 75
         0
147
1.0
148
0.0
149
0.0
100
AcDbLayout
  1
Model
 70
         0
 71
         0
 10
0.0
 20
0.0
 11
0.0
 21
0.0
 12
0.0
 22
0.0
 32
0.0
 14
0.0
 24
0.0
 34
0.0
 15
0.0
 25
0.0
 35
0.0
146
0.0
 13
0.0
 23
0.0
 33
0.0
 16
0.0
 26
0.0
 36
0.0
 17
0.0
 27
0.0
 37
0.0
 76
         0
330
A
331
0
345
0
346
0
  0
LAYOUT
  5
21
102
{ACAD_REACTORS
330
1E
102
}
100
AcDbPlotSettings
  1

  2

  4

  6

 40
0.0
 41
0.0
 42
0.0
 43
0.0
 44
0.0
 45
0.0
 46
0.0
 47
0.0
 48
0.0
 49
0.0
140
0.0
141
0.0
142
1.0
143
1.0
 70
         0
 72
         0
 73
         0
 74
         0
  7

 75
         0
147
1.0
148
0.0
149
0.0
100
AcDbLayout
  1
Layout1
 70
         0
 71
         0
 10
0.0
 20
0.0
 11
0.0
 21
0.0
 12
0.0
 22
0.0
 32
0.0
 14
0.0
 24
0.0
 34
0.0
 15
0.0
 25
0.0
 35
0.0
146
0.0
 13
0.0
 23
0.0
 33
0.0
 16
0.0
 26
0.0
 36
0.0
 17
0.0
 27
0.0
 37
0.0
 76
         0
330
B
331
0
345
0
346
0
  0
DICTIONARY
  5
1E
102
{ACAD_REACTORS
330
19
102
}
100
AcDbDictionary
280
         0
281
         1
  3
Layout1
350
21
  3
Model
350
20
  0
DICTIONARY
  5
22
102
{ACAD_REACTORS
330
19
102
}
100
AcDbDictionary
280
         0
281
         1
  0
WIPEOUTVARIABLES
  5
23
100
AcDbWipeoutVariables
 70
         1
  0
ENDSEC
  0
EOF
