  0
SECTION
  2
HEADER
  9
$ACADVER
  1
AC1015
  9
$ACADMAINTVER
 70
         6
  9
$DWGCODEPAGE
  3
ANSI_932
  9
$INSBASE
 10
0.0
 20
0.0
 30
0.0
  9
$EXTMIN
 10
1.0000000000E+20
 20
1.0000000000E+20
 30
1.0000000000E+20
  9
$EXTMAX
 10
-1.0000000000E+20
 20
-1.0000000000E+20
 30
-1.0000000000E+20
  9
$LIMMIN
 10
0.0
 20
0.0
  9
$LIMMAX
 10
0.0
 20
0.0
  9
$ORTHOMODE
 70
         0
  9
$REGENMODE
 70
         1
  9
$FILLMODE
 70
         1
  9
$QTEXTMODE
 70
         0
  9
$MIRRTEXT
 70
         1
  9
$LTSCALE
 40
1.0
  9
$ATTMODE
 70
         1
  9
$TEXTSIZE
 40
0.2
  9
$TRACEWID
 40
0.05
  9
$TEXTSTYLE
  7
Standard
  9
$CLAYER
  8
0
  9
$CELTYPE
  6
Continuous
  9
$CECOLOR
 62
       256
  9
$CELTSCALE
 40
1.0
  9
$DISPSILH
 70
         0
  9
$DIMSCALE
 40
1.0
  9
$DIMASZ
 40
0.18
  9
$DIMEXO
 40
0.0625
  9
$DIMDLI
 40
0.38
  9
$DIMRND
 40
0.0
  9
$DIMDLE
 40
0.0
  9
$DIMEXE
 40
0.18
  9
$DIMTP
 40
0.0
  9
$DIMTM
 40
0.0
  9
$DIMTXT
 40
0.18
  9
$DIMCEN
 40
0.09
  9
$DIMTSZ
 40
0.0
  9
$DIMTOL
 70
         0
  9
$DIMLIM
 70
         0
  9
$DIMTIH
 70
         1
  9
$DIMTOH
 70
         1
  9
$DIMSE1
 70
         0
  9
$DIMSE2
 70
         0
  9
$DIMTAD
 70
         0
  9
$DIMZIN
 70
         0
  9
$DIMBLK
  1

  9
$DIMASO
 70
         1
  9
$DIMSHO
 70
         1
  9
$DIMPOST
  1

  9
$DIMAPOST
  1

  9
$DIMALT
 70
         0
  9
$DIMALTD
 70
         2
  9
$DIMALTF
 40
25.4
  9
$DIMLFAC
 40
1.0
  9
$DIMTOFL
 70
         0
  9
$DIMTVP
 40
0.0
  9
$DIMTIX
 70
         0
  9
$DIMSOXD
 70
         0
  9
$DIMSAH
 70
         0
  9
$DIMBLK1
  1

  9
$DIMBLK2
  1

  9
$DIMSTYLE
  2
Standard
  9
$DIMCLRD
 70
         0
  9
$DIMCLRE
 70
         0
  9
$DIMCLRT
 70
         0
  9
$DIMTFAC
 40
1.0
  9
$DIMGAP
 40
0.09
  9
$DIMJUST
 70
         0
  9
$DIMSD1
 70
         0
  9
$DIMSD2
 70
         0
  9
$DIMTOLJ
 70
         1
  9
$DIMTZIN
 70
         0
  9
$DIMALTZ
 70
         0
  9
$DIMALTTZ
 70
         0
  9
$DIMUPT
 70
         0
  9
$DIMDEC
 70
         4
  9
$DIMTDEC
 70
         4
  9
$DIMALTU
 70
         2
  9
$DIMALTTD
 70
         2
  9
$DIMTXSTY
  7
Standard
  9
$DIMAUNIT
 70
         0
  9
$DIMADEC
 70
         0
  9
$DIMALTRND
 40
0.0
  9
$DIMAZIN
 70
         0
  9
$DIMDSEP
 70
         0
  9
$DIMATFIT
 70
         3
  9
$DIMFRAC
 70
         0
  9
$DIMLDRBLK
  1

  9
$DIMLUNIT
 70
         2
  9
$DIMLWD
 70
         0
  9
$DIMLWE
 70
         0
  9
$DIMTMOVE
 70
         0
  9
$LUNITS
 70
         2
  9
$LUPREC
 70
         4
  9
$SKETCHINC
 40
0.1
  9
$FILLETRAD
 40
0.0
  9
$AUNITS
 70
         0
  9
$AUPREC
 70
         0
  9
$MENU
  1
acad
  9
$ELEVATION
 40
0.0
  9
$PELEVATION
 40
0.0
  9
$THICKNESS
 40
0.0
  9
$LIMCHECK
 70
         0
  9
$CHAMFERA
 40
0.0
  9
$CHAMFERB
 40
0.0
  9
$CHAMFERC
 40
0.0
  9
$CHAMFERD
 40
0.0
  9
$SKPOLY
 70
         0
  9
$TDCREATE
 40
0.000000000
  9
$TDUCREATE
 40
0.000000000
  9
$TDUPDATE
 40
0.000000000
  9
$TDUUPDATE
 40
0.000000000
  9
$TDINDWG
 40
0.0000000000
  9
$TDUSRTIMER
 40
0.0000000000
  9
$USRTIMER
 70
         1
  9
$ANGBASE
 50
0.0
  9
$ANGDIR
 70
         0
  9
$PDMODE
 70
         3
  9
$PDSIZE
 40
-1.0
  9
$PLINEWID
 40
0.0
  9
$SPLFRAME
 70
         0
  9
$SPLINETYPE
 70
         6
  9
$SPLINESEGS
 70
         8
  9
$HANDSEED
  5
163
  9
$SURFTAB1
 70
         6
  9
$SURFTAB2
 70
         6
  9
$SURFTYPE
 70
         6
  9
$SURFU
 70
         6
  9
$SURFV
 70
         6
  9
$UCSBASE
  2

  9
$UCSNAME
  2

  9
$UCSORG
 10
0.0
 20
0.0
 30
0.0
  9
$UCSXDIR
 10
1.0
 20
0.0
 30
0.0
  9
$UCSYDIR
 10
0.0
 20
1.0
 30
0.0
  9
$UCSORTHOREF
  2

  9
$UCSORTHOVIEW
 70
         0
  9
$UCSORGTOP
 10
0.0
 20
0.0
 30
0.0
  9
$UCSORGBOTTOM
 10
0.0
 20
0.0
 30
0.0
  9
$UCSORGLEFT
 10
0.0
 20
0.0
 30
0.0
  9
$UCSORGRIGHT
 10
0.0
 20
0.0
 30
0.0
  9
$UCSORGFRONT
 10
0.0
 20
0.0
 30
0.0
  9
$UCSORGBACK
 10
0.0
 20
0.0
 30
0.0
  9
$PUCSBASE
  2

  9
$PUCSNAME
  2

  9
$PUCSORG
 10
0.0
 20
0.0
 30
0.0
  9
$PUCSXDIR
 10
1.0
 20
0.0
 30
0.0
  9
$PUCSYDIR
 10
0.0
 20
1.0
 30
0.0
  9
$PUCSORTHOREF
  2

  9
$PUCSORTHOVIEW
 70
         0
  9
$PUCSORGTOP
 10
0.0
 20
0.0
 30
0.0
  9
$PUCSORGBOTTOM
 10
0.0
 20
0.0
 30
0.0
  9
$PUCSORGLEFT
 10
0.0
 20
0.0
 30
0.0
  9
$PUCSORGRIGHT
 10
0.0
 20
0.0
 30
0.0
  9
$PUCSORGFRONT
 10
0.0
 20
0.0
 30
0.0
  9
$PUCSORGBACK
 10
0.0
 20
0.0
 30
0.0
  9
$USERI1
 70
         0
  9
$USERI2
 70
         0
  9
$USERI3
 70
         0
  9
$USERI4
 70
         0
  9
$USERI5
 70
         0
  9
$USERR1
 40
0.0
  9
$USERR2
 40
0.0
  9
$USERR3
 40
0.0
  9
$USERR4
 40
0.0
  9
$USERR5
 40
0.0
  9
$WORLDVIEW
 70
         1
  9
$SHADEDGE
 70
         3
  9
$SHADEDIF
 70
        70
  9
$TILEMODE
 70
         1
  9
$MAXACTVP
 70
        16
  9
$PINSBASE
 10
0.0
 20
0.0
 30
0.0
  9
$PLIMCHECK
 70
         0
  9
$PEXTMIN
 10
1.0000000000E+20
 20
1.0000000000E+20
 30
1.0000000000E+20
  9
$PEXTMAX
 10
-1.0000000000E+20
 20
-1.0000000000E+20
 30
-1.0000000000E+20
  9
$PLIMMIN
 10
0.0
 20
0.0
  9
$PLIMMAX
 10
12.0
 20
9.0
  9
$UNITMODE
 70
         0
  9
$VISRETAIN
 70
         0
  9
$PLINEGEN
 70
         1
  9
$PSLTSCALE
 70
         0
  9
$TREEDEPTH
 70
      3020
  9
$CMLSTYLE
  2
Standard
  9
$CMLJUST
 70
         0
  9
$CMLSCALE
 40
1.0
  9
$PROXYGRAPHICS
 70
         0
  9
$MEASUREMENT
 70
         0
  9
$CELWEIGHT
370
         0
  9
$ENDCAPS
280
         0
  9
$JOINSTYLE
280
         0
  9
$LWDISPLAY
290
         0
  9
$INSUNITS
 70
         0
  9
$HYPERLINKBASE
  1

  9
$XEDIT
290
         1
  9
$CEPSNTYPE
380
         0
  9
$PSTYLEMODE
290
         0
  9
$FINGERPRINTGUID
  2

  9
$VERSIONGUID
  2

  9
$EXTNAMES
290
         1
  9
$PSVPSCALE
 40
0.0
  0
ENDSEC
  0
SECTION
  2
CLASSES
  0
CLASS
  1
LWPOLYLINE
  2
AcDbPolyline
  3
"AutoCAD"
 90
        0
280
         0
281
         1
  0
CLASS
  1
IMAGE
  2
AcDbRasterImage
  3
ISM
 90
      127
280
         0
281
         1
  0
CLASS
  1
OLE2FRAME
  2
AcDbOle2Frame
  3
""
 90
        0
280
         0
281
         1
  0
CLASS
  1
HATCH
  2
AcDbHatch
  3
"ACAD_SEDONA"
 90
        0
280
         0
281
         1
  0
CLASS
  1
DICTIONARYVAR
  2
AcDbDictionaryVar
  3
"AutoCAD"
 90
        0
280
         0
281
         0
  0
CLASS
  1
RASTERVARIABLES
  2
AcDbRasterVariables
  3
ISM
 90
        0
280
         0
281
         0
  0
CLASS
  1
IMAGEDEF
  2
AcDbRasterImageDef
  3
ISM
 90
        0
280
         0
281
         0
  0
CLASS
  1
IMAGEDEF_REACTOR
  2
AcDbRasterImageDefReactor
  3
ISM
 90
        1
280
         0
281
         0
  0
CLASS
  1
IDBUFFER
  2
AcDbIdBuffer
  3
"Acad"
 90
        0
280
         0
281
         0
  0
CLASS
  1
SPATIAL_FILTER
  2
AcDbSpatialFilter
  3
"Acad"
 90
        0
280
         0
281
         0
  0
CLASS
  1
XRECORD
  2
AcDbXrecord
  3
"<Built In>"
 90
        0
280
         0
281
         0
  0
CLASS
  1
SORTENTSTABLE
  2
AcDbSortentsTable
  3
"AutoCAD"
 90
        0
280
         0
281
         0
  0
CLASS
  1
LAYER_INDEX
  2
AcDbLayerIndex
  3
"Acad"
 90
        0
280
         0
281
         0
  0
CLASS
  1
SPATIAL_INDEX
  2
AcDbSpatialIndex
  3
"Acad"
 90
        0
280
         0
281
         0
  0
CLASS
  1
OBJECT_PTR
  2
CAseDLPNTableRecord
  3
"ASE-LPNTableRecord"
 90
        1
280
         0
281
         0
  0
CLASS
  1
LAYOUT
  2
AcDbLayout
  3
"AutoCAD 2000"
 90
        1
280
         0
281
         0
  0
CLASS
  1
PLOTSETTINGS
  2
AcDbPlotSettings
  3
"AutoCAD 2000"
 90
        1
280
         0
281
         0
  0
CLASS
  1
ACDBDICTIONARYWDFLT
  2
AcDbDictionaryWithDefault
  3
"AutoCAD 2000"
 90
        1
280
         0
281
         0
  0
CLASS
  1
ACDBPLACEHOLDER
  2
AcDbPlaceHolder
  3
"AutoCAD 2000"
 90
        1
280
         0
281
         0
  0
CLASS
  1
VBA_PROJECT
  2
AcDbVbaProject
  3
"acadvba"
 90
        1
280
         0
281
         0
  0
CLASS
  1
WIPEOUT
  2
AcDbWipeout
  3
WipeOut|AutoCAD Express Tool|expresstools@autodesk.com
 90
      127
280
         0
281
         1
  0
CLASS
  1
WIPEOUTVARIABLES
  2
AcDbWipeoutVariables
  3
WipeOut|AutoCAD Express Tool|expresstools@autodesk.com
 90
        0
280
         0
281
         0
  0
CLASS
  1
RTEXT
  2
RText
  3
RText|AutoCAD Express Tool|expresstools@autodesk.com
 90
        0
280
         0
281
         1
  0
CLASS
  1
ARCALIGNEDTEXT
  2
AcDbArcAlignedText
  3
ATEXT|AutoCAD Express Tool|expresstools@autodesk.com
 90
        0
280
         0
281
         1
  0
ENDSEC
  0
SECTION
  2
TABLES
  0
TABLE
  2
VPORT
  5
7
100
AcDbSymbolTable
 70
         1
  0
VPORT
  5
15
100
AcDbSymbolTableRecord
100
AcDbViewportTableRecord
  2
*ACTIVE
 70
         0
 10
0.0
 20
0.0
 11
1.0
 21
1.0
 12
6.591288
 22
4.579184
 13
0.0
 23
0.0
 14
1.0
 24
1.0
 15
0.0
 25
0.0
 16
0.0
 26
0.0
 36
1.0
 17
0.0
 27
0.0
 37
0.0
 40
9.158369
 41
0.688564
 42
50.0
 43
0.0
 44
0.0
 50
0.0
 51
0.0
 71
         0
 72
       100
 73
         1
 74
         1
 75
         0
 76
         0
 77
         0
 78
         0
281
         0
 65
         0
110
0.0
120
0.0
130
0.0
111
1.0
121
0.0
131
0.0
112
0.0
122
1.0
132
0.0
345
0
346
0
 79
         0
146
0.0
  0
ENDTAB
  0
TABLE
  2
LTYPE
  5
4
100
AcDbSymbolTable
 70
        13
  0
LTYPE
  5
11
100
AcDbSymbolTableRecord
100
AcDbLinetypeTableRecord
  2
ByBlock
 70
        64
  3

 72
        65
 73
         0
 40
0.0
  0
LTYPE
  5
12
100
AcDbSymbolTableRecord
100
AcDbLinetypeTableRecord
  2
ByLayer
 70
        64
  3

 72
        65
 73
         0
 40
0.0
  0
LTYPE
  5
13
100
AcDbSymbolTableRecord
100
AcDbLinetypeTableRecord
  2
Continuous
 70
        64
  3
Solid line
 72
        65
 73
         0
 40
0.0
  0
LTYPE
  5
24
100
AcDbSymbolTableRecord
100
AcDbLinetypeTableRecord
  2
DOT
 70
        64
  3
. . . . . . . . 
 72
        65
 73
         2
 40
1.0
 49
0.0
 74
         0
 49
-1.0
 74
         0
  0
LTYPE
  5
25
100
AcDbSymbolTableRecord
100
AcDbLinetypeTableRecord
  2
DASHED
 70
        64
  3
___  ___  ___  ___  
 72
        65
 73
         2
 40
4.0
 49
3.0
 74
         0
 49
-1.0
 74
         0
  0
LTYPE
  5
26
100
AcDbSymbolTableRecord
100
AcDbLinetypeTableRecord
  2
HIDDEN
 70
        64
  3
__ __ __ __ 
 72
        65
 73
         2
 40
3.0
 49
2.0
 74
         0
 49
-1.0
 74
         0
  0
LTYPE
  5
27
100
AcDbSymbolTableRecord
100
AcDbLinetypeTableRecord
  2
STITCH
 70
        64
  3
_ _ _ _ 
 72
        65
 73
         2
 40
2.0
 49
1.0
 74
         0
 49
-1.0
 74
         0
  0
LTYPE
  5
28
100
AcDbSymbolTableRecord
100
AcDbLinetypeTableRecord
  2
CENTER
 70
        64
  3
______  __  ______  __  
 72
        65
 73
         4
 40
43.0
 49
40.0
 74
         0
 49
-1.0
 74
         0
 49
1.0
 74
         0
 49
-1.0
 74
         0
  0
LTYPE
  5
29
100
AcDbSymbolTableRecord
100
AcDbLinetypeTableRecord
  2
DASHDOT
 70
        64
  3
____ . ____ . 
 72
        65
 73
         4
 40
32.0
 49
30.0
 74
         0
 49
-1.0
 74
         0
 49
0.0
 74
         0
 49
-1.0
 74
         0
  0
LTYPE
  5
2A
100
AcDbSymbolTableRecord
100
AcDbLinetypeTableRecord
  2
BORDER
 70
        64
  3
__ . __ . 
 72
        65
 73
         4
 40
22.0
 49
20.0
 74
         0
 49
-1.0
 74
         0
 49
0.0
 74
         0
 49
-1.0
 74
         0
  0
LTYPE
  5
2B
100
AcDbSymbolTableRecord
100
AcDbLinetypeTableRecord
  2
CUTTING
 70
        64
  3
________   ___   ___   
 72
        65
 73
         6
 40
45.0
 49
40.0
 74
         0
 49
-1.0
 74
         0
 49
1.0
 74
         0
 49
-1.0
 74
         0
 49
1.0
 74
         0
 49
-1.0
 74
         0
  0
LTYPE
  5
2C
100
AcDbSymbolTableRecord
100
AcDbLinetypeTableRecord
  2
PHANTOM
 70
        64
  3
______  __  __  
 72
        65
 73
         6
 40
35.0
 49
30.0
 74
         0
 49
-1.0
 74
         0
 49
1.0
 74
         0
 49
-1.0
 74
         0
 49
1.0
 74
         0
 49
-1.0
 74
         0
  0
LTYPE
  5
2D
100
AcDbSymbolTableRecord
100
AcDbLinetypeTableRecord
  2
DIVIDE
 70
        64
  3
____ . . ____ . . 
 72
        65
 73
         6
 40
23.0
 49
20.0
 74
         0
 49
-1.0
 74
         0
 49
0.0
 74
         0
 49
-1.0
 74
         0
 49
0.0
 74
         0
 49
-1.0
 74
         0
  0
ENDTAB
  0
TABLE
  2
LAYER
  5
2
100
AcDbSymbolTable
 70
         5
  0
LAYER
  5
14
100
AcDbSymbolTableRecord
100
AcDbLayerTableRecord
  2
0
 70
         0
 62
         7
  6
Continuous
290
         1
370
        -3
390
1D
  0
LAYER
  5
2E
100
AcDbSymbolTableRecord
100
AcDbLayerTableRecord
  2
LAYER1
 70
         0
 62
         7
  6
Continuous
290
         1
370
        -3
390
1F
  0
LAYER
  5
33
100
AcDbSymbolTableRecord
100
AcDbLayerTableRecord
  2
LAYER4
 70
         0
 62
         7
  6
Continuous
290
         1
370
        -3
390
1F
  0
LAYER
  5
6B
100
AcDbSymbolTableRecord
100
AcDbLayerTableRecord
  2
LAYER3
 70
         0
 62
         7
  6
Continuous
290
         1
370
        -3
390
1F
  0
LAYER
  5
C3
100
AcDbSymbolTableRecord
100
AcDbLayerTableRecord
  2
LAYER0
 70
         0
 62
         7
  6
Continuous
290
         1
370
        -3
390
1F
  0
ENDTAB
  0
TABLE
  2
STYLE
  5
3
100
AcDbSymbolTable
 70
         1
  0
STYLE
  5
17
100
AcDbSymbolTableRecord
100
AcDbTextStyleTableRecord
  2
Standard
 70
         0
 40
0.0
 41
1.0
 50
0.0
 71
         0
 42
0.0
  3
txt
  4
extfont
  0
ENDTAB
  0
TABLE
  2
VIEW
  5
5
100
AcDbSymbolTable
 70
         0
  0
ENDTAB
  0
TABLE
  2
UCS
  5
6
100
AcDbSymbolTable
 70
         0
  0
ENDTAB
  0
TABLE
  2
APPID
  5
8
100
AcDbSymbolTable
 70
         1
  0
APPID
  5
16
100
AcDbSymbolTableRecord
100
AcDbRegAppTableRecord
  2
ACAD
 70
         0
  0
ENDTAB
  0
TABLE
  2
DIMSTYLE
  5
9
100
AcDbSymbolTable
 70
         1
100
AcDbDimStyleTable
 71
         0
  0
DIMSTYLE
105
18
100
AcDbSymbolTableRecord
100
AcDbDimStyleTableRecord
  2
Standard
 70
         0
  3

  4

 40
1.0
 41
0.18
 42
0.0625
 43
0.38
 44
0.18
 45
0.0
 46
0.0
 47
0.0
 48
0.0
 71
         0
 72
         0
 73
         1
 74
         1
 75
         0
 76
         0
 77
         0
 78
         0
 79
         0
140
0.18
141
0.09
142
0.0
143
25.4
144
1.0
145
0.0
146
1.0
147
0.09
148
0.0
170
         0
171
         2
172
         0
173
         0
174
         0
175
         0
176
         0
177
         0
178
         0
179
         0
271
         4
272
         4
273
         2
274
         2
275
         0
276
         0
277
         2
278
        46
279
         0
280
         0
281
         0
282
         0
283
         1
284
         0
285
         0
286
         0
288
         0
340
17
341
0
342
0
343
0
344
0
371
        -2
372
        -2
  0
ENDTAB
  0
TABLE
  2
BLOCK_RECORD
  5
1
100
AcDbSymbolTable
 70
         0
  0
BLOCK_RECORD
  5
A
100
AcDbSymbolTableRecord
100
AcDbBlockTableRecord
  2
*MODEL_SPACE
340
20
  0
BLOCK_RECORD
  5
B
100
AcDbSymbolTableRecord
100
AcDbBlockTableRecord
  2
*PAPER_SPACE
340
21
  0
ENDTAB
  0
ENDSEC
  0
SECTION
  2
BLOCKS
  0
BLOCK
  5
D
100
AcDbEntity
  8
0
100
AcDbBlockBegin
  2
*MODEL_SPACE
 70
         0
 10
0.0
 20
0.0
 30
0.0
  3
*MODEL_SPACE
  1

  0
ENDBLK
  5
E
100
AcDbEntity
  8
0
100
AcDbBlockEnd
  0
BLOCK
  5
F
100
AcDbEntity
 67
         1
  8
0
100
AcDbBlockBegin
  2
*PAPER_SPACE
 70
         0
 10
0.0
 20
0.0
 30
0.0
  3
*PAPER_SPACE
  1

  0
ENDBLK
  5
10
100
AcDbEntity
 67
         1
  8
0
100
AcDbBlockEnd
  0
ENDSEC
  0
SECTION
  2
ENTITIES
  0
LINE
  5
2F
100
AcDbEntity
  8
LAYER1
 62
         3
100
AcDbLine
 10
88.8351651165
 20
34.2347782342
 30
0.0
 11
88.8351651165
 21
37.4347782342
 31
0.0
  0
LINE
  5
30
100
AcDbEntity
  8
LAYER1
 62
         3
100
AcDbLine
 10
88.3351651165
 20
33.7347782342
 30
0.0
 11
88.8351651165
 21
34.2347782342
 31
0.0
  0
LINE
  5
31
100
AcDbEntity
  8
LAYER1
 62
         3
100
AcDbLine
 10
97.1390126938
 20
30.4347782342
 30
0.0
 11
97.1390126938
 21
66.9347782342
 31
0.0
  0
LINE
  5
32
100
AcDbEntity
  8
LAYER1
 62
         3
100
AcDbLine
 10
69.1390126938
 20
66.9347782342
 30
0.0
 11
69.1390126938
 21
30.4347782342
 31
0.0
  0
LINE
  5
34
100
AcDbEntity
  8
LAYER4
 62
         4
100
AcDbLine
 10
69.6390126938
 20
43.3605467021
 30
0.0
 11
96.6390126938
 21
43.3605467021
 31
0.0
  0
LINE
  5
35
100
AcDbEntity
  8
LAYER1
 62
         3
100
AcDbLine
 10
5.7838510475
 20
30.4239526935
 30
0.0
 11
8.7838510475
 21
30.4239526935
 31
0.0
  0
LINE
  5
36
100
AcDbEntity
  8
LAYER1
 62
         3
100
AcDbLine
 10
10.7838510475
 20
32.4239526935
 30
0.0
 11
10.7838510475
 21
33.7239526935
 31
0.0
  0
LINE
  5
37
100
AcDbEntity
  8
LAYER1
 62
         3
100
AcDbLine
 10
25.7838510475
 20
38.4239526935
 30
0.0
 11
10.7838510475
 21
38.4239526935
 31
0.0
  0
LINE
  5
38
100
AcDbEntity
  8
LAYER1
 62
         3
100
AcDbLine
 10
1.7838510475
 20
40.4239526935
 30
0.0
 11
25.7838510475
 21
40.4239526935
 31
0.0
  0
LINE
  5
39
100
AcDbEntity
  8
LAYER1
 62
         3
100
AcDbLine
 10
25.7838510475
 20
40.4239526935
 30
0.0
 11
25.7838510475
 21
38.4239526935
 31
0.0
  0
LINE
  5
3A
100
AcDbEntity
  8
LAYER1
 62
         3
100
AcDbLine
 10
6.0876986248
 20
33.7239526935
 30
0.0
 11
16.4800034702
 21
33.7239526935
 31
0.0
  0
LINE
  5
3B
100
AcDbEntity
  8
LAYER1
 62
         3
100
AcDbLine
 10
17.2838510475
 20
37.4239526935
 30
0.0
 11
5.2838510475
 21
37.4239526935
 31
0.0
  0
LINE
  5
3C
100
AcDbEntity
  8
LAYER1
 62
         3
100
AcDbLine
 10
1.7838510475
 20
38.4239526935
 30
0.0
 11
17.2838510475
 21
38.4239526935
 31
0.0
  0
LINE
  5
3D
100
AcDbEntity
  8
LAYER1
 62
         3
100
AcDbLine
 10
14.1319272588
 20
33.7239526935
 30
0.0
 11
14.1319272588
 21
37.4239526935
 31
0.0
  0
LINE
  5
3E
100
AcDbEntity
  8
LAYER1
 62
         3
100
AcDbLine
 10
16.9800034702
 20
34.2239526935
 30
0.0
 11
16.9800034702
 21
37.4239526935
 31
0.0
  0
LINE
  5
3F
100
AcDbEntity
  8
LAYER1
 62
         3
100
AcDbLine
 10
16.4800034702
 20
33.7239526935
 30
0.0
 11
16.9800034702
 21
34.2239526935
 31
0.0
  0
LINE
  5
40
100
AcDbEntity
  8
LAYER1
 62
         3
100
AcDbLine
 10
17.2838510475
 20
38.4239526935
 30
0.0
 11
17.2838510475
 21
37.4239526935
 31
0.0
  0
LINE
  5
41
100
AcDbEntity
  8
LAYER1
 62
         3
100
AcDbLine
 10
21.2877975567
 20
40.4239526935
 30
0.0
 11
11.5838510475
 21
40.4239526935
 31
0.0
  0
LINE
  5
42
100
AcDbEntity
  8
LAYER1
 62
         3
100
AcDbLine
 10
97.1390126938
 20
37.4347782342
 30
0.0
 11
69.1390126938
 21
37.4347782342
 31
0.0
  0
CIRCLE
  5
43
100
AcDbEntity
  8
LAYER1
 62
         3
100
AcDbCircle
 10
92.1390126938
 20
60.0347782342
 30
0.0
 40
2.1
210
0.0
220
0.0
230
1.0
  0
LINE
  5
44
100
AcDbEntity
  8
LAYER4
 62
         4
100
AcDbLine
 10
69.6390126938
 20
47.4347782342
 30
0.0
 11
96.6390126938
 21
47.4347782342
 31
0.0
  0
LINE
  5
45
100
AcDbEntity
  8
LAYER1
 62
         3
100
AcDbLine
 10
97.1390126938
 20
66.9347782342
 30
0.0
 11
69.1390126938
 21
66.9347782342
 31
0.0
  0
CIRCLE
  5
46
100
AcDbEntity
  8
LAYER1
 62
         3
100
AcDbCircle
 10
83.1390126938
 20
60.0347782342
 30
0.0
 40
3.2
210
0.0
220
0.0
230
1.0
  0
CIRCLE
  5
47
100
AcDbEntity
  8
LAYER1
 62
         3
100
AcDbCircle
 10
74.1390126938
 20
60.0347782342
 30
0.0
 40
2.1
210
0.0
220
0.0
230
1.0
  0
LINE
  5
48
100
AcDbEntity
  8
LAYER1
 62
         3
100
AcDbLine
 10
69.1390126938
 20
30.4456037749
 30
0.0
 11
97.1390126938
 21
30.4456037749
 31
0.0
  0
LINE
  5
49
100
AcDbEntity
  8
LAYER1
 62
         3
100
AcDbLine
 10
77.9428602711
 20
33.7347782342
 30
0.0
 11
88.3351651165
 21
33.7347782342
 31
0.0
  0
LINE
  5
4A
100
AcDbEntity
  8
LAYER1
 62
         3
100
AcDbLine
 10
77.4428602711
 20
37.4347782342
 30
0.0
 11
77.4428602711
 21
34.2347782342
 31
0.0
  0
LINE
  5
4B
100
AcDbEntity
  8
LAYER1
 62
         3
100
AcDbLine
 10
77.4428602711
 20
34.2347782342
 30
0.0
 11
77.9428602711
 21
33.7347782342
 31
0.0
  0
LINE
  5
4C
100
AcDbEntity
  8
LAYER1
 62
         3
100
AcDbLine
 10
80.2909364824
 20
33.7347782342
 30
0.0
 11
80.2909364824
 21
37.4347782342
 31
0.0
  0
LINE
  5
4D
100
AcDbEntity
  8
LAYER1
 62
         3
100
AcDbLine
 10
85.9870889051
 20
33.7347782342
 30
0.0
 11
85.9870889051
 21
37.4347782342
 31
0.0
  0
LINE
  5
4E
100
AcDbEntity
  8
LAYER1
 62
         3
100
AcDbLine
 10
94.2174736629
 20
60.3347782342
 30
0.0
 11
97.1390126938
 21
60.3347782342
 31
0.0
  0
LINE
  5
4F
100
AcDbEntity
  8
LAYER1
 62
         3
100
AcDbLine
 10
97.1390126938
 20
59.7347782342
 30
0.0
 11
94.2174736629
 21
59.7347782342
 31
0.0
  0
LINE
  5
50
100
AcDbEntity
  8
LAYER1
 62
         3
100
AcDbLine
 10
11.5701110034
 20
46.4023391863
 30
0.0
 11
52.7877975567
 21
44.4239526935
 31
0.0
  0
LINE
  5
51
100
AcDbEntity
  8
LAYER1
 62
         3
100
AcDbLine
 10
21.7877975567
 20
41.4239526935
 30
0.0
 11
52.4838510475
 21
41.4239526935
 31
0.0
  0
ARC
  5
52
100
AcDbEntity
  8
LAYER1
 62
         3
100
AcDbCircle
 10
52.7877975567
 20
40.9239526935
 30
0.0
 40
3.5
210
0.0
220
0.0
230
1.0
100
AcDbArc
 50
269.9999984648
 51
90.0000015351
  0
LINE
  5
53
100
AcDbEntity
  8
LAYER1
 62
         3
100
AcDbLine
 10
21.2877975566
 20
40.4239526935
 30
0.0
 11
11.5838510475
 21
40.4239526935
 31
0.0
  0
LINE
  5
54
100
AcDbEntity
  8
LAYER1
 62
         3
100
AcDbLine
 10
11.2838510475
 20
40.7239526935
 30
0.0
 11
11.5838510475
 21
40.4239526935
 31
0.0
  0
LINE
  5
55
100
AcDbEntity
  8
LAYER1
 62
         3
100
AcDbLine
 10
10.9838510475
 20
40.4239526935
 30
0.0
 11
11.2838510475
 21
40.7239526935
 31
0.0
  0
LINE
  5
56
100
AcDbEntity
  8
LAYER1
 62
         3
100
AcDbLine
 10
11.2838510475
 20
46.1160792304
 30
0.0
 11
11.5701110034
 21
46.4023391863
 31
0.0
  0
LINE
  5
57
100
AcDbEntity
  8
LAYER1
 62
         3
100
AcDbLine
 10
11.2838510475
 20
46.1160792304
 30
0.0
 11
10.9674085076
 21
46.4325217703
 31
0.0
  0
LINE
  5
58
100
AcDbEntity
  8
LAYER1
 62
         3
100
AcDbLine
 10
21.7877975567
 20
41.4239526935
 30
0.0
 11
21.7877975566
 21
40.9239526935
 31
0.0
  0
ARC
  5
59
100
AcDbEntity
  8
LAYER1
 62
         3
100
AcDbCircle
 10
21.2877975566
 20
40.9239526935
 30
0.0
 40
0.5
210
0.0
220
0.0
230
1.0
100
AcDbArc
 50
269.9999984648
 51
359.9999999999
  0
LINE
  5
5A
100
AcDbEntity
  8
LAYER1
 62
         3
100
AcDbLine
 10
52.4838510475
 20
41.4239526935
 30
0.0
 11
24.1195541023
 21
41.4239526935
 31
0.0
  0
ARC
  5
5B
100
AcDbEntity
  8
LAYER1
 62
         3
100
AcDbCircle
 10
52.4838510475
 20
40.3239526935
 30
0.0
 40
1.1
210
-0.0
220
-0.0
230
1.0
100
AcDbArc
 50
320.4788029672
 51
90.0000015352
  0
ARC
  5
5C
100
AcDbEntity
  8
LAYER1
 62
         3
100
AcDbCircle
 10
52.7838510475
 20
39.3239526935
 30
0.0
 40
0.3
210
0.0
220
0.0
230
1.0
100
AcDbArc
 50
90.0000015352
 51
179.9999969295
  0
LINE
  5
5D
100
AcDbEntity
  8
LAYER1
 62
         3
100
AcDbLine
 10
52.4838510475
 20
39.3239526935
 30
0.0
 11
52.4838510475
 21
39.2239526935
 31
0.0
  0
LINE
  5
5E
100
AcDbEntity
  8
LAYER1
 62
         3
100
AcDbLine
 10
52.4838510475
 20
39.2239526935
 30
0.0
 11
51.2838510475
 21
39.2239526935
 31
0.0
  0
LINE
  5
5F
100
AcDbEntity
  8
LAYER1
 62
         3
100
AcDbLine
 10
52.7838510475
 20
39.6239526935
 30
0.0
 11
53.3323791849
 21
39.6239526935
 31
0.0
  0
LINE
  5
60
100
AcDbEntity
  8
LAYER1
 62
         3
100
AcDbLine
 10
51.2838510475
 20
37.4239526935
 30
0.0
 11
52.7877975567
 21
37.4239526935
 31
0.0
  0
ARC
  5
61
100
AcDbEntity
  8
LAYER1
 62
         3
100
AcDbCircle
 10
51.2838510475
 20
37.9239526935
 30
0.0
 40
0.5
210
0.0
220
0.0
230
1.0
100
AcDbArc
 50
179.9999969295
 51
269.9999984648
  0
ARC
  5
62
100
AcDbEntity
  8
LAYER1
 62
         3
100
AcDbCircle
 10
5.7838510475
 20
32.4239526935
 30
0.0
 40
2.0
210
0.0
220
0.0
230
1.0
100
AcDbArc
 50
179.9999969295
 51
269.9999984648
  0
LINE
  5
63
100
AcDbEntity
  8
LAYER1
 62
         3
100
AcDbLine
 10
10.9838510475
 20
40.4239526935
 30
0.0
 11
3.1986583557
 21
40.4239526935
 31
0.0
  0
LINE
  5
64
100
AcDbEntity
  8
LAYER1
 62
         3
100
AcDbLine
 10
3.7838510475
 20
38.4239526935
 30
0.0
 11
3.7838510475
 21
32.4239526935
 31
0.0
  0
LINE
  5
65
100
AcDbEntity
  8
LAYER1
 62
         3
100
AcDbLine
 10
1.7838510475
 20
38.4239526935
 30
0.0
 11
1.7838510475
 21
40.4239526935
 31
0.0
  0
ARC
  5
66
100
AcDbEntity
  8
LAYER1
 62
         3
100
AcDbCircle
 10
8.7838510475
 20
32.4239526935
 30
0.0
 40
2.0
210
-0.0
220
0.0
230
1.0
100
AcDbArc
 50
269.9999984648
 51
0.0
  0
LINE
  5
67
100
AcDbEntity
  8
LAYER1
 62
         3
100
AcDbLine
 10
11.2838510475
 20
-53.507093571
 30
0.0
 11
11.2838510475
 21
-56.507093571
 31
0.0
  0
LINE
  5
68
100
AcDbEntity
  8
LAYER1
 62
         3
100
AcDbLine
 10
10.9838510475
 20
-53.507093571
 30
0.0
 11
10.9838510475
 21
-56.507093571
 31
0.0
  0
LINE
  5
69
100
AcDbEntity
  8
LAYER1
 62
         3
100
AcDbLine
 10
11.5838510475
 20
-56.507093571
 30
0.0
 11
11.5838510475
 21
-53.507093571
 31
0.0
  0
LINE
  5
6A
100
AcDbEntity
  8
LAYER1
 62
         3
100
AcDbLine
 10
56.2877975567
 20
-28.507093571
 30
0.0
 11
56.2877975567
 21
-56.507093571
 31
0.0
  0
LINE
  5
6C
100
AcDbEntity
  8
LAYER3
 62
         4
100
AcDbLine
 10
56.2877975567
 20
-57.507093571
 30
0.0
 11
56.2877975567
 21
-73.9802781112
 31
0.0
  0
LINE
  5
6D
100
AcDbEntity
  8
LAYER3
 62
         4
100
AcDbLine
 10
56.2877975567
 20
-72.9802781112
 30
0.0
 11
53.3533547545
 21
-73.6040131837
 31
0.0
  0
LINE
  5
6E
100
AcDbEntity
  8
LAYER3
 62
         4
100
AcDbLine
 10
56.2877975567
 20
-72.9802781112
 30
0.0
 11
53.3533547545
 21
-72.3565430388
 31
0.0
  0
LINE
  5
6F
100
AcDbEntity
  8
LAYER1
 62
         3
100
AcDbLine
 10
6.0876986248
 20
33.7239526935
 30
0.0
 11
5.5876986248
 21
34.2239526935
 31
0.0
  0
LINE
  5
70
100
AcDbEntity
  8
LAYER1
 62
         3
100
AcDbLine
 10
8.4357748361
 20
33.7239526935
 30
0.0
 11
8.4357748361
 21
37.4239526935
 31
0.0
  0
LINE
  5
71
100
AcDbEntity
  8
LAYER1
 62
         3
100
AcDbLine
 10
50.7838510475
 20
38.7239526935
 30
0.0
 11
50.7838510475
 21
37.9239526935
 31
0.0
  0
ARC
  5
72
100
AcDbEntity
  8
LAYER1
 62
         3
100
AcDbCircle
 10
51.2838510475
 20
38.7239526935
 30
0.0
 40
0.5
210
0.0
220
0.0
230
1.0
100
AcDbArc
 50
90.0000015352
 51
179.9999969295
  0
LINE
  5
73
100
AcDbEntity
  8
LAYER1
 62
         3
100
AcDbLine
 10
76.2390126938
 20
60.0347782342
 30
0.0
 11
79.9390126938
 21
60.0347782342
 31
0.0
  0
LINE
  5
74
100
AcDbEntity
  8
LAYER1
 62
         3
100
AcDbLine
 10
79.9531062294
 20
59.7347782342
 30
0.0
 11
76.2174736629
 21
59.7347782342
 31
0.0
  0
LINE
  5
75
100
AcDbEntity
  8
LAYER1
 62
         3
100
AcDbLine
 10
76.2174736629
 20
60.3347782342
 30
0.0
 11
79.9531062294
 21
60.3347782342
 31
0.0
  0
LINE
  5
76
100
AcDbEntity
  8
LAYER1
 62
         3
100
AcDbLine
 10
5.5876986248
 20
34.2239526935
 30
0.0
 11
5.5876986248
 21
37.4239526935
 31
0.0
  0
LINE
  5
77
100
AcDbEntity
  8
LAYER1
 62
         3
100
AcDbLine
 10
5.2838510475
 20
38.4239526935
 30
0.0
 11
5.2838510475
 21
37.4239526935
 31
0.0
  0
LINE
  5
78
100
AcDbEntity
  8
LAYER1
 62
         3
100
AcDbLine
 10
94.1390126938
 20
30.4456037749
 30
0.0
 11
94.1390126938
 21
37.4347782342
 31
0.0
  0
LINE
  5
79
100
AcDbEntity
  8
LAYER1
 62
         3
100
AcDbLine
 10
96.1390126938
 20
37.4456037749
 30
0.0
 11
96.1390126938
 21
30.4456037749
 31
0.0
  0
LINE
  5
7A
100
AcDbEntity
  8
LAYER1
 62
         3
100
AcDbLine
 10
69.1390126938
 20
60.0347782342
 30
0.0
 11
72.0390126938
 21
60.0347782342
 31
0.0
  0
LINE
  5
7B
100
AcDbEntity
  8
LAYER1
 62
         3
100
AcDbLine
 10
72.0605517247
 20
59.7347782342
 30
0.0
 11
69.1390126938
 21
59.7347782342
 31
0.0
  0
LINE
  5
7C
100
AcDbEntity
  8
LAYER1
 62
         3
100
AcDbLine
 10
69.1390126938
 20
60.3347782342
 30
0.0
 11
72.0605517247
 21
60.3347782342
 31
0.0
  0
LINE
  5
7D
100
AcDbEntity
  8
LAYER1
 62
         3
100
AcDbLine
 10
86.3390126938
 20
60.0347782342
 30
0.0
 11
90.0390126938
 21
60.0347782342
 31
0.0
  0
LINE
  5
7E
100
AcDbEntity
  8
LAYER1
 62
         3
100
AcDbLine
 10
90.0605517247
 20
59.7347782342
 30
0.0
 11
86.3249191582
 21
59.7347782342
 31
0.0
  0
LINE
  5
7F
100
AcDbEntity
  8
LAYER1
 62
         3
100
AcDbLine
 10
86.3249191582
 20
60.3347782342
 30
0.0
 11
90.0605517247
 21
60.3347782342
 31
0.0
  0
LINE
  5
80
100
AcDbEntity
  8
LAYER1
 62
         3
100
AcDbLine
 10
94.2390126938
 20
60.0347782342
 30
0.0
 11
97.1390126938
 21
60.0347782342
 31
0.0
  0
ARC
  5
81
100
AcDbEntity
  8
LAYER1
 62
         3
100
AcDbCircle
 10
8.685774836
 20
-38.007093571
 30
0.0
 40
0.5
210
0.0
220
0.0
230
1.0
100
AcDbArc
 50
90.0000015352
 51
150.0000025367
  0
LINE
  5
82
100
AcDbEntity
  8
LAYER1
 62
         3
100
AcDbLine
 10
10.7838510475
 20
-39.507093571
 30
0.0
 11
10.7838510475
 21
-41.007093571
 31
0.0
  0
LINE
  5
83
100
AcDbEntity
  8
LAYER1
 62
         3
100
AcDbLine
 10
11.7838510475
 20
-41.007093571
 30
0.0
 11
11.7838510475
 21
-39.507093571
 31
0.0
  0
LINE
  5
84
100
AcDbEntity
  8
LAYER1
 62
         3
100
AcDbLine
 10
14.2838510475
 20
-42.007093571
 30
0.0
 11
12.7838510475
 21
-42.007093571
 31
0.0
  0
LINE
  5
85
100
AcDbEntity
  8
LAYER1
 62
         3
100
AcDbLine
 10
12.7838510475
 20
-43.007093571
 30
0.0
 11
14.2838510475
 21
-43.007093571
 31
0.0
  0
ARC
  5
86
100
AcDbEntity
  8
LAYER1
 62
         3
100
AcDbCircle
 10
12.7838510475
 20
-44.007093571
 30
0.0
 40
1.0
210
0.0
220
0.0
230
1.0
100
AcDbArc
 50
90.0000015352
 51
179.9999969295
  0
ARC
  5
87
100
AcDbEntity
  8
LAYER1
 62
         3
100
AcDbCircle
 10
12.7838510475
 20
-41.007093571
 30
0.0
 40
1.0
210
0.0
220
0.0
230
1.0
100
AcDbArc
 50
179.9999969295
 51
269.9999984648
  0
LINE
  5
88
100
AcDbEntity
  8
LAYER1
 62
         3
100
AcDbLine
 10
11.7838510475
 20
-45.507093571
 30
0.0
 11
11.7838510475
 21
-44.007093571
 31
0.0
  0
LINE
  5
89
100
AcDbEntity
  8
LAYER1
 62
         3
100
AcDbLine
 10
10.7838510475
 20
-45.507093571
 30
0.0
 11
11.7838510475
 21
-45.507093571
 31
0.0
  0
LINE
  5
8A
100
AcDbEntity
  8
LAYER1
 62
         3
100
AcDbLine
 10
11.2838510475
 20
-28.507093571
 30
0.0
 11
11.2838510475
 21
-31.7683785641
 31
0.0
  0
LINE
  5
8B
100
AcDbEntity
  8
LAYER1
 62
         3
100
AcDbLine
 10
10.9838510475
 20
-28.507093571
 30
0.0
 11
10.9838510475
 21
-31.9415836448
 31
0.0
  0
LINE
  5
8C
100
AcDbEntity
  8
LAYER1
 62
         3
100
AcDbLine
 10
11.5838510475
 20
-31.5951734833
 30
0.0
 11
11.5838510475
 21
-28.507093571
 31
0.0
  0
LINE
  5
8D
100
AcDbEntity
  8
LAYER1
 62
         3
100
AcDbLine
 10
50.7838510475
 20
-28.507093571
 30
0.0
 11
50.7838510475
 21
-56.507093571
 31
0.0
  0
LINE
  5
8E
100
AcDbEntity
  8
LAYER1
 62
         3
100
AcDbLine
 10
21.7877975567
 20
-28.507093571
 30
0.0
 11
21.7877975567
 21
-29.507093571
 31
0.0
  0
ARC
  5
8F
100
AcDbEntity
  8
LAYER1
 62
         3
100
AcDbCircle
 10
24.7838510475
 20
-30.507093571
 30
0.0
 40
1.0
210
0.0
220
-0.0
230
1.0
100
AcDbArc
 50
0.0
 51
90.0000015352
  0
LINE
  5
90
100
AcDbEntity
  8
LAYER1
 62
         3
100
AcDbLine
 10
25.7838510475
 20
-30.507093571
 30
0.0
 11
25.7838510475
 21
-43.3731189748
 31
0.0
  0
LINE
  5
91
100
AcDbEntity
  8
LAYER1
 62
         3
100
AcDbLine
 10
15.7364099307
 20
-29.507093571
 30
0.0
 11
24.7838510475
 21
-29.507093571
 31
0.0
  0
ARC
  5
92
100
AcDbEntity
  8
LAYER1
 62
         3
100
AcDbCircle
 10
15.7364099307
 20
-31.507093571
 30
0.0
 40
2.0
210
0.0
220
0.0
230
1.0
100
AcDbArc
 50
90.0000015352
 51
120.000002047
  0
LINE
  5
93
100
AcDbEntity
  8
LAYER1
 62
         3
100
AcDbLine
 10
5.7838510475
 20
-34.9438050446
 30
0.0
 11
14.7364099307
 21
-29.7750427634
 31
0.0
  0
CIRCLE
  5
94
100
AcDbEntity
  8
LAYER1
 62
         3
100
AcDbCircle
 10
11.2838510475
 20
-42.507093571
 30
0.0
 40
6.0
210
0.0
220
0.0
230
1.0
  0
ARC
  5
95
100
AcDbEntity
  8
LAYER1
 62
         3
100
AcDbCircle
 10
9.7838510475
 20
-41.8720082749
 30
0.0
 40
8.0
210
0.0
220
0.0
230
1.0
100
AcDbArc
 50
120.000002047
 51
179.9999969295
  0
LINE
  5
96
100
AcDbEntity
  8
LAYER1
 62
         3
100
AcDbLine
 10
12.6953937794
 20
-53.507093571
 30
0.0
 11
2.7838510475
 21
-53.507093571
 31
0.0
  0
LINE
  5
97
100
AcDbEntity
  8
LAYER1
 62
         3
100
AcDbLine
 10
1.7838510475
 20
-41.8720082749
 30
0.0
 11
1.7838510475
 21
-52.507093571
 31
0.0
  0
ARC
  5
98
100
AcDbEntity
  8
LAYER1
 62
         3
100
AcDbCircle
 10
2.7838510475
 20
-52.507093571
 30
0.0
 40
1.0
210
0.0
220
0.0
230
1.0
100
AcDbArc
 50
179.9999969295
 51
269.9999984648
  0
CIRCLE
  5
99
100
AcDbEntity
  8
LAYER1
 62
         3
100
AcDbCircle
 10
11.2838510475
 20
-42.507093571
 30
0.0
 40
5.0
210
0.0
220
0.0
230
1.0
  0
LINE
  5
9A
100
AcDbEntity
  8
LAYER1
 62
         3
100
AcDbLine
 10
11.7838510475
 20
-39.507093571
 30
0.0
 11
10.7838510475
 21
-39.507093571
 31
0.0
  0
ARC
  5
9B
100
AcDbEntity
  8
LAYER1
 62
         3
100
AcDbCircle
 10
13.8819272588
 20
-38.007093571
 30
0.0
 40
0.5
210
0.0
220
-0.0
230
1.0
100
AcDbArc
 50
30.0000005117
 51
90.0000015352
  0
ARC
  5
9C
100
AcDbEntity
  8
LAYER1
 62
         3
100
AcDbCircle
 10
16.4800034702
 20
-42.5070935753
 30
0.0
 40
0.5
210
-0.0
220
0.0
230
1.0
100
AcDbArc
 50
329.9999994883
 51
30.0000005117
  0
LINE
  5
9D
100
AcDbEntity
  8
LAYER1
 62
         3
100
AcDbLine
 10
13.6953937794
 20
-53.2391443786
 30
0.0
 11
23.2838510475
 21
-47.7032459937
 31
0.0
  0
ARC
  5
9E
100
AcDbEntity
  8
LAYER1
 62
         3
100
AcDbCircle
 10
20.7838510475
 20
-43.3731189748
 30
0.0
 40
5.0
210
-0.0
220
0.0
230
1.0
100
AcDbArc
 50
299.9999989765
 51
0.0
  0
LINE
  5
9F
100
AcDbEntity
  8
LAYER1
 62
         3
100
AcDbLine
 10
10.7838510475
 20
-55.507093571
 30
0.0
 11
3.7838510475
 21
-55.507093571
 31
0.0
  0
LINE
  5
A0
100
AcDbEntity
  8
LAYER1
 62
         3
100
AcDbLine
 10
3.7838510475
 20
-53.507093571
 30
0.0
 11
3.7838510475
 21
-55.507093571
 31
0.0
  0
LINE
  5
A1
100
AcDbEntity
  8
LAYER1
 62
         3
100
AcDbLine
 10
10.7838510475
 20
-53.507093571
 30
0.0
 11
10.7838510475
 21
-55.507093571
 31
0.0
  0
LINE
  5
A2
100
AcDbEntity
  8
LAYER1
 62
         3
100
AcDbLine
 10
21.7877975567
 20
-48.5669928794
 30
0.0
 11
21.7877975567
 21
-56.507093571
 31
0.0
  0
CIRCLE
  5
A3
100
AcDbEntity
  8
LAYER1
 62
         3
100
AcDbCircle
 10
11.2838510475
 20
-42.507093571
 30
0.0
 40
4.0
210
0.0
220
0.0
230
1.0
  0
LINE
  5
A4
100
AcDbEntity
  8
LAYER1
 62
         3
100
AcDbLine
 10
14.3149399608
 20
-47.2570935712
 30
0.0
 11
16.9130161721
 21
-42.7570935753
 31
0.0
  0
LINE
  5
A5
100
AcDbEntity
  8
LAYER1
 62
         3
100
AcDbLine
 10
5.6546859229
 20
-42.7570935668
 30
0.0
 11
8.2527621343
 21
-47.2570935708
 31
0.0
  0
LINE
  5
A6
100
AcDbEntity
  8
LAYER1
 62
         3
100
AcDbLine
 10
13.881927259
 20
-47.507093571
 30
0.0
 11
8.6857748363
 21
-47.507093571
 31
0.0
  0
ARC
  5
A7
100
AcDbEntity
  8
LAYER1
 62
         3
100
AcDbCircle
 10
8.6857748363
 20
-47.007093571
 30
0.0
 40
0.5
210
0.0
220
0.0
230
1.0
100
AcDbArc
 50
209.9999974193
 51
269.9999984648
  0
ARC
  5
A8
100
AcDbEntity
  8
LAYER1
 62
         3
100
AcDbCircle
 10
12.6953937794
 20
-51.507093571
 30
0.0
 40
2.0
210
0.0
220
0.0
230
1.0
100
AcDbArc
 50
269.9999984648
 51
299.9999989765
  0
ARC
  5
A9
100
AcDbEntity
  8
LAYER1
 62
         3
100
AcDbCircle
 10
13.881927259
 20
-47.007093571
 30
0.0
 40
0.5
210
0.0
220
0.0
230
1.0
100
AcDbArc
 50
269.9999984648
 51
329.9999994657
  0
LINE
  5
AA
100
AcDbEntity
  8
LAYER1
 62
         3
100
AcDbLine
 10
16.9130161721
 20
-42.2570935753
 30
0.0
 11
14.3149399607
 21
-37.757093571
 31
0.0
  0
ARC
  5
AB
100
AcDbEntity
  8
LAYER1
 62
         3
100
AcDbCircle
 10
9.7838510475
 20
-44.007093571
 30
0.0
 40
1.0
210
0.0
220
-0.0
230
1.0
100
AcDbArc
 50
0.0
 51
90.0000015352
  0
ARC
  5
AC
100
AcDbEntity
  8
LAYER1
 62
         3
100
AcDbCircle
 10
9.7838510475
 20
-41.007093571
 30
0.0
 40
1.0
210
-0.0
220
0.0
230
1.0
100
AcDbArc
 50
269.9999984648
 51
0.0
  0
LINE
  5
AD
100
AcDbEntity
  8
LAYER1
 62
         3
100
AcDbLine
 10
8.685774836
 20
-37.507093571
 30
0.0
 11
13.8819272588
 21
-37.507093571
 31
0.0
  0
LINE
  5
AE
100
AcDbEntity
  8
LAYER1
 62
         3
100
AcDbLine
 10
8.2527621342
 20
-37.7570935708
 30
0.0
 11
5.6546859229
 21
-42.2570935668
 31
0.0
  0
ARC
  5
AF
100
AcDbEntity
  8
LAYER1
 62
         3
100
AcDbCircle
 10
6.0876986248
 20
-42.5070935668
 30
0.0
 40
0.5
210
0.0
220
0.0
230
1.0
100
AcDbArc
 50
150.0000025587
 51
209.9999974413
  0
LINE
  5
B0
100
AcDbEntity
  8
LAYER1
 62
         3
100
AcDbLine
 10
9.7838510475
 20
-42.007093571
 30
0.0
 11
8.2838510475
 21
-42.007093571
 31
0.0
  0
LINE
  5
B1
100
AcDbEntity
  8
LAYER1
 62
         3
100
AcDbLine
 10
8.2838510475
 20
-43.007093571
 30
0.0
 11
9.7838510475
 21
-43.007093571
 31
0.0
  0
LINE
  5
B2
100
AcDbEntity
  8
LAYER1
 62
         3
100
AcDbLine
 10
8.2838510475
 20
-42.007093571
 30
0.0
 11
8.2838510475
 21
-43.007093571
 31
0.0
  0
LINE
  5
B3
100
AcDbEntity
  8
LAYER1
 62
         3
100
AcDbLine
 10
-68.2161489525
 20
40.4239526935
 30
0.0
 11
-44.2161489525
 21
40.4239526935
 31
0.0
  0
LINE
  5
B4
100
AcDbEntity
  8
LAYER1
 62
         3
100
AcDbLine
 10
-44.2161489525
 20
40.4239526935
 30
0.0
 11
-44.2161489525
 21
38.4239526935
 31
0.0
  0
LINE
  5
B5
100
AcDbEntity
  8
LAYER1
 62
         3
100
AcDbLine
 10
-63.9123013752
 20
33.7239526935
 30
0.0
 11
-53.5199965298
 21
33.7239526935
 31
0.0
  0
LINE
  5
B6
100
AcDbEntity
  8
LAYER1
 62
         3
100
AcDbLine
 10
-52.7161489525
 20
37.4239526935
 30
0.0
 11
-64.7161489525
 21
37.4239526935
 31
0.0
  0
LINE
  5
B7
100
AcDbEntity
  8
LAYER1
 62
         3
100
AcDbLine
 10
-48.7161489525
 20
40.4239526935
 30
0.0
 11
-58.4161489525
 21
40.4239526935
 31
0.0
  0
LINE
  5
B8
100
AcDbEntity
  8
LAYER1
 62
         3
100
AcDbLine
 10
-59.0161489525
 20
40.4239526935
 30
0.0
 11
-66.3122669205
 21
40.4239526935
 31
0.0
  0
LINE
  5
B9
100
AcDbEntity
  8
LAYER1
 62
         3
100
AcDbLine
 10
-59.0161489525
 20
40.4239526935
 30
0.0
 11
-58.7161489525
 21
40.7239526935
 31
0.0
  0
LINE
  5
BA
100
AcDbEntity
  8
LAYER1
 62
         3
100
AcDbLine
 10
-58.7161489525
 20
40.7239526935
 30
0.0
 11
-58.4161489525
 21
40.4239526935
 31
0.0
  0
MTEXT
  5
BB
100
AcDbEntity
  8
LAYER3
100
AcDbMText
 10
-88.2961031819
 20
46.5239526188
 30
0.0
 40
2.1473683357
 41
2.5646459961
 71
         1
 72
         1
  1
\W0.8;37
 11
-0.0000000268
 21
1.0
 31
0.0
  0
LINE
  5
BC
100
AcDbEntity
  8
LAYER3
 62
         4
100
AcDbLine
 10
-84.5084444905
 20
30.4239526935
 30
0.0
 11
-85.1321795629
 21
33.3583954957
 31
0.0
  0
LINE
  5
BD
100
AcDbEntity
  8
LAYER3
 62
         4
100
AcDbLine
 10
-84.5084444905
 20
30.4239526935
 30
0.0
 11
-83.884709418
 21
33.3583954957
 31
0.0
  0
LINE
  5
BE
100
AcDbEntity
  8
LAYER3
 62
         4
100
AcDbLine
 10
-84.5084444905
 20
67.4239526935
 30
0.0
 11
-83.884709418
 21
64.4895098912
 31
0.0
  0
LINE
  5
BF
100
AcDbEntity
  8
LAYER3
 62
         4
100
AcDbLine
 10
-84.5084444905
 20
67.4239526935
 30
0.0
 11
-85.1321795629
 21
64.4895098912
 31
0.0
  0
LINE
  5
C0
100
AcDbEntity
  8
LAYER3
 62
         4
100
AcDbLine
 10
-84.5084444905
 20
67.4239526935
 30
0.0
 11
-84.5084444905
 21
30.4239526935
 31
0.0
  0
LINE
  5
C1
100
AcDbEntity
  8
LAYER3
 62
         4
100
AcDbLine
 10
-77.2161489525
 20
30.4239526935
 30
0.0
 11
-85.5084444905
 21
30.4239526935
 31
0.0
  0
LINE
  5
C2
100
AcDbEntity
  8
LAYER3
 62
         4
100
AcDbLine
 10
-77.2161489525
 20
67.4239526935
 30
0.0
 11
-85.5084444905
 21
67.4239526935
 31
0.0
  0
MTEXT
  5
C4
100
AcDbEntity
  8
LAYER0
100
AcDbMText
 10
12.1744602544
 20
-132.8866032766
 30
0.0
 40
2.4737683892
 41
48.7487924036
 71
         1
 72
         1
  1
\W0.8;3０用アルミ正面付ダブルブラケット
  0
MTEXT
  5
C5
100
AcDbEntity
  8
LAYER0
100
AcDbMText
 10
70.6744019132
 20
-133.1354167344
 30
0.0
 40
2.4737683892
 41
7.3861806672
 71
         1
 72
         1
  1
\W0.8;56036
  0
LINE
  5
C6
100
AcDbEntity
  8
LAYER0
 62
         3
100
AcDbLine
 10
60.0
 20
-125.5
 30
0.0
 11
60.0
 21
-138.5
 31
0.0
  0
MTEXT
  5
C7
100
AcDbEntity
  8
LAYER0
100
AcDbMText
 10
72.5158633528
 20
-126.7970201517
 30
0.0
 40
2.1473683357
 41
10.2585839844
 71
         1
 72
         1
  1
\W0.8;管理図番
  0
MTEXT
  5
C8
100
AcDbEntity
  8
LAYER0
100
AcDbMText
 10
32.0542682872
 20
-126.7970201517
 30
0.0
 40
2.1473683357
 41
7.6538653946
 71
         1
 72
         1
  1
\W0.8;品　名
  0
LINE
  5
C9
100
AcDbEntity
  8
LAYER0
 62
         3
100
AcDbLine
 10
10.0
 20
-138.5
 30
0.0
 11
10.0
 21
-125.5
 31
0.0
  0
LINE
  5
CA
100
AcDbEntity
  8
LAYER0
 62
         3
100
AcDbLine
 10
95.0
 20
-138.5
 30
0.0
 11
95.0
 21
-125.5
 31
0.0
  0
LINE
  5
CB
100
AcDbEntity
  8
LAYER1
 62
         3
100
AcDbLine
 10
10.7838510475
 20
-44.007093571
 30
0.0
 11
10.7838510475
 21
-45.507093571
 31
0.0
  0
LINE
  5
CC
100
AcDbEntity
  8
LAYER1
 62
         3
100
AcDbLine
 10
14.2838510475
 20
-43.007093571
 30
0.0
 11
14.2838510475
 21
-42.007093571
 31
0.0
  0
ARC
  5
CD
100
AcDbEntity
  8
LAYER1
 62
         3
100
AcDbCircle
 10
-18.7161489525
 20
37.9239526935
 30
0.0
 40
0.5
210
0.0
220
0.0
230
1.0
100
AcDbArc
 50
179.9999969295
 51
269.9999984648
  0
ARC
  5
CE
100
AcDbEntity
  8
LAYER1
 62
         3
100
AcDbCircle
 10
-18.7161489525
 20
38.7239526935
 30
0.0
 40
0.5
210
0.0
220
0.0
230
1.0
100
AcDbArc
 50
90.0000015352
 51
179.9999969295
  0
ARC
  5
CF
100
AcDbEntity
  8
LAYER1
 62
         3
100
AcDbCircle
 10
-17.5161489525
 20
40.3239526935
 30
0.0
 40
1.1
210
-0.0
220
-0.0
230
1.0
100
AcDbArc
 50
320.4788029672
 51
90.0000015352
  0
ARC
  5
D0
100
AcDbEntity
  8
LAYER1
 62
         3
100
AcDbCircle
 10
-14.4369081726
 20
38.4239526935
 30
0.0
 40
1.0
210
0.0
220
0.0
230
1.0
100
AcDbArc
 50
269.9999984648
 51
341.5650508626
  0
ARC
  5
D1
100
AcDbEntity
  8
LAYER1
 62
         3
100
AcDbCircle
 10
-76.2161489525
 20
30.9239526935
 30
0.0
 40
0.5
210
0.0
220
0.0
230
1.0
100
AcDbArc
 50
179.9999969295
 51
269.9999984648
  0
LINE
  5
D2
100
AcDbEntity
  8
LAYER1
 62
         3
100
AcDbLine
 10
-76.7161489525
 20
66.9239526935
 30
0.0
 11
-76.7161489525
 21
60.8239526935
 31
0.0
  0
LINE
  5
D3
100
AcDbEntity
  8
LAYER1
 62
         3
100
AcDbLine
 10
-76.4161489525
 20
60.5239526935
 30
0.0
 11
-76.7161489525
 21
60.2239526935
 31
0.0
  0
LINE
  5
D4
100
AcDbEntity
  8
LAYER1
 62
         3
100
AcDbLine
 10
-76.7161489525
 20
60.8239526935
 30
0.0
 11
-76.4161489525
 21
60.5239526935
 31
0.0
  0
ARC
  5
D5
100
AcDbEntity
  8
LAYER1
 62
         3
100
AcDbCircle
 10
-76.2161489525
 20
66.9239526935
 30
0.0
 40
0.5
210
0.0
220
0.0
230
1.0
100
AcDbArc
 50
90.0000015352
 51
179.9999969295
  0
LINE
  5
D6
100
AcDbEntity
  8
LAYER1
 62
         3
100
AcDbLine
 10
-2.7161489525
 20
40.4239526935
 30
0.0
 11
-12.7161489525
 21
40.4239526935
 31
0.0
  0
LINE
  5
D7
100
AcDbEntity
  8
LAYER1
 62
         3
100
AcDbLine
 10
-48.2161489525
 20
41.4239526935
 30
0.0
 11
-17.5161489525
 21
41.4239526935
 31
0.0
  0
LINE
  5
D8
100
AcDbEntity
  8
LAYER1
 62
         3
100
AcDbLine
 10
-48.7161489525
 20
40.4239526935
 30
0.0
 11
-58.4161489525
 21
40.4239526935
 31
0.0
  0
LINE
  5
D9
100
AcDbEntity
  8
LAYER1
 62
         3
100
AcDbLine
 10
-72.5267828588
 20
31.1814170685
 30
0.0
 11
-71.1629794212
 21
36.6366308187
 31
0.0
  0
ARC
  5
DA
100
AcDbEntity
  8
LAYER1
 62
         3
100
AcDbCircle
 10
-73.4969253589
 20
31.4239526935
 30
0.0
 40
1.0
210
0.0
220
0.0
230
1.0
100
AcDbArc
 50
269.9999984648
 51
345.9637562927
  0
LINE
  5
DB
100
AcDbEntity
  8
LAYER1
 62
         3
100
AcDbLine
 10
-59.0161489525
 20
40.4239526935
 30
0.0
 11
-66.3122669205
 21
40.4239526935
 31
0.0
  0
ARC
  5
DC
100
AcDbEntity
  8
LAYER1
 62
         3
100
AcDbCircle
 10
-66.3122669205
 20
35.4239526935
 30
0.0
 40
5.0
210
0.0
220
0.0
230
1.0
100
AcDbArc
 50
90.0000015352
 51
165.9637593631
  0
LINE
  5
DD
100
AcDbEntity
  8
LAYER1
 62
         3
100
AcDbLine
 10
-59.0161489525
 20
40.4239526935
 30
0.0
 11
-58.7161489525
 21
40.7239526935
 31
0.0
  0
ARC
  5
DE
100
AcDbEntity
  8
LAYER1
 62
         3
100
AcDbCircle
 10
-64.2161489525
 20
32.4239526935
 30
0.0
 40
2.0
210
0.0
220
0.0
230
1.0
100
AcDbArc
 50
179.9999969295
 51
269.9999984648
  0
LINE
  5
DF
100
AcDbEntity
  8
LAYER1
 62
         3
100
AcDbLine
 10
-59.0161489525
 20
40.4239526935
 30
0.0
 11
-66.8013416443
 21
40.4239526935
 31
0.0
  0
LINE
  5
E0
100
AcDbEntity
  8
LAYER1
 62
         3
100
AcDbLine
 10
-66.2161489525
 20
38.4239526935
 30
0.0
 11
-66.2161489525
 21
32.4239526935
 31
0.0
  0
LINE
  5
E1
100
AcDbEntity
  8
LAYER1
 62
         3
100
AcDbLine
 10
-68.2161489525
 20
38.4239526935
 30
0.0
 11
-68.2161489525
 21
40.4239526935
 31
0.0
  0
ARC
  5
E2
100
AcDbEntity
  8
LAYER1
 62
         3
100
AcDbCircle
 10
-61.2161489525
 20
32.4239526935
 30
0.0
 40
2.0
210
-0.0
220
0.0
230
1.0
100
AcDbArc
 50
269.9999984648
 51
0.0
  0
LINE
  5
E3
100
AcDbEntity
  8
LAYER1
 62
         3
100
AcDbLine
 10
-64.2161489525
 20
30.4239526935
 30
0.0
 11
-61.2161489525
 21
30.4239526935
 31
0.0
  0
LINE
  5
E4
100
AcDbEntity
  8
LAYER1
 62
         3
100
AcDbLine
 10
-59.2161489525
 20
32.4239526935
 30
0.0
 11
-59.2161489525
 21
33.7239526935
 31
0.0
  0
LINE
  5
E5
100
AcDbEntity
  8
LAYER1
 62
         3
100
AcDbLine
 10
-44.2161489525
 20
38.4239526935
 30
0.0
 11
-68.2161489525
 21
38.4239526935
 31
0.0
  0
LINE
  5
E6
100
AcDbEntity
  8
LAYER1
 62
         3
100
AcDbLine
 10
-67.4558653984
 20
50.1954662967
 30
0.0
 11
-59.0312745013
 21
49.7910987004
 31
0.0
  0
ARC
  5
E7
100
AcDbEntity
  8
LAYER1
 62
         3
100
AcDbCircle
 10
-67.2161489525
 20
55.1897165934
 30
0.0
 40
5.0
210
0.0
220
0.0
230
1.0
100
AcDbArc
 50
179.9999969295
 51
267.251996865
  0
LINE
  5
E8
100
AcDbEntity
  8
LAYER1
 62
         3
100
AcDbLine
 10
-61.5642251639
 20
33.7239526935
 30
0.0
 11
-61.5642251639
 21
37.4239526935
 31
0.0
  0
LINE
  5
E9
100
AcDbEntity
  8
LAYER1
 62
         3
100
AcDbLine
 10
-17.5161489525
 20
39.3239526935
 30
0.0
 11
-17.5161489525
 21
39.2239526935
 31
0.0
  0
LINE
  5
EA
100
AcDbEntity
  8
LAYER1
 62
         3
100
AcDbLine
 10
-17.2161489525
 20
39.6239526935
 30
0.0
 11
-16.6676208151
 21
39.6239526935
 31
0.0
  0
LINE
  5
EB
100
AcDbEntity
  8
LAYER1
 62
         3
100
AcDbLine
 10
-12.7161489525
 20
40.4239526935
 30
0.0
 11
-13.4882248745
 21
38.1077249275
 31
0.0
  0
LINE
  5
EC
100
AcDbEntity
  8
LAYER1
 62
         3
100
AcDbLine
 10
-73.2161489525
 20
67.4239526935
 30
0.0
 11
-76.2161489525
 21
67.4239526935
 31
0.0
  0
LINE
  5
ED
100
AcDbEntity
  8
LAYER1
 62
         3
100
AcDbLine
 10
-76.2161489525
 20
30.4239526935
 30
0.0
 11
-73.4969253589
 21
30.4239526935
 31
0.0
  0
LINE
  5
EE
100
AcDbEntity
  8
LAYER1
 62
         3
100
AcDbLine
 10
-76.7161489525
 20
60.2239526935
 30
0.0
 11
-76.7161489525
 21
30.9239526935
 31
0.0
  0
LINE
  5
EF
100
AcDbEntity
  8
LAYER1
 62
         3
100
AcDbLine
 10
-58.7161489525
 20
40.7239526935
 30
0.0
 11
-58.4161489525
 21
40.4239526935
 31
0.0
  0
LINE
  5
F0
100
AcDbEntity
  8
LAYER1
 62
         3
100
AcDbLine
 10
-59.2161489525
 20
38.4239526935
 30
0.0
 11
-52.7161489525
 21
38.4239526935
 31
0.0
  0
LINE
  5
F1
100
AcDbEntity
  8
LAYER1
 62
         3
100
AcDbLine
 10
-55.8680727412
 20
33.7239526935
 30
0.0
 11
-55.8680727412
 21
37.4239526935
 31
0.0
  0
LINE
  5
F2
100
AcDbEntity
  8
LAYER1
 62
         3
100
AcDbLine
 10
-53.0199965298
 20
34.2239526935
 30
0.0
 11
-53.0199965298
 21
37.4239526935
 31
0.0
  0
LINE
  5
F3
100
AcDbEntity
  8
LAYER1
 62
         3
100
AcDbLine
 10
-53.5199965298
 20
33.7239526935
 30
0.0
 11
-53.0199965298
 21
34.2239526935
 31
0.0
  0
LINE
  5
F4
100
AcDbEntity
  8
LAYER1
 62
         3
100
AcDbLine
 10
-52.7161489525
 20
38.4239526935
 30
0.0
 11
-52.7161489525
 21
37.4239526935
 31
0.0
  0
LINE
  5
F5
100
AcDbEntity
  8
LAYER1
 62
         3
100
AcDbLine
 10
-58.7161489525
 20
49.4759731516
 30
0.0
 11
-59.0325914924
 21
49.7924156915
 31
0.0
  0
LINE
  5
F6
100
AcDbEntity
  8
LAYER1
 62
         3
100
AcDbLine
 10
-58.7161489525
 20
49.4759731516
 30
0.0
 11
-58.4298889966
 21
49.7622331075
 31
0.0
  0
LINE
  5
F7
100
AcDbEntity
  8
LAYER1
 62
         3
100
AcDbLine
 10
-72.2161489525
 20
66.4239526935
 30
0.0
 11
-72.2161489525
 21
60.8239526935
 31
0.0
  0
LINE
  5
F8
100
AcDbEntity
  8
LAYER1
 62
         3
100
AcDbLine
 10
-72.2161489525
 20
60.8239526935
 30
0.0
 11
-72.5161489525
 21
60.5239526935
 31
0.0
  0
LINE
  5
F9
100
AcDbEntity
  8
LAYER1
 62
         3
100
AcDbLine
 10
-72.5161489525
 20
60.5239526935
 30
0.0
 11
-72.2161489525
 21
60.2239526935
 31
0.0
  0
ARC
  5
FA
100
AcDbEntity
  8
LAYER1
 62
         3
100
AcDbCircle
 10
-73.2161489525
 20
66.4239526935
 30
0.0
 40
1.0
210
0.0
220
-0.0
230
1.0
100
AcDbArc
 50
0.0
 51
90.0000015352
  0
ARC
  5
FB
100
AcDbEntity
  8
LAYER1
 62
         3
100
AcDbCircle
 10
-17.2161489525
 20
39.3239526935
 30
0.0
 40
0.3
210
0.0
220
0.0
230
1.0
100
AcDbArc
 50
90.0000015352
 51
179.9999969295
  0
LINE
  5
FC
100
AcDbEntity
  8
LAYER1
 62
         3
100
AcDbLine
 10
-17.5161489525
 20
39.2239526935
 30
0.0
 11
-18.7161489525
 21
39.2239526935
 31
0.0
  0
LINE
  5
FD
100
AcDbEntity
  8
LAYER1
 62
         3
100
AcDbLine
 10
-18.7161489525
 20
37.4239526935
 30
0.0
 11
-14.4369081726
 21
37.4239526935
 31
0.0
  0
LINE
  5
FE
100
AcDbEntity
  8
LAYER1
 62
         3
100
AcDbLine
 10
-19.2161489525
 20
38.7239526935
 30
0.0
 11
-19.2161489525
 21
37.9239526935
 31
0.0
  0
CIRCLE
  5
FF
100
AcDbEntity
  8
LAYER1
 62
         3
100
AcDbCircle
 10
-58.7161489525
 20
-42.507093571
 30
0.0
 40
6.0
210
0.0
220
0.0
230
1.0
  0
LINE
  5
100
100
AcDbEntity
  8
LAYER3
 62
         4
100
AcDbLine
 10
-76.7161489525
 20
-57.507093571
 30
0.0
 11
-76.7161489525
 21
-73.9802781112
 31
0.0
  0
MTEXT
  5
101
100
AcDbEntity
  8
LAYER3
100
AcDbMText
 10
-88.7766144816
 20
-44.9070936457
 30
0.0
 40
2.1473683357
 41
2.5646459961
 71
         1
 72
         1
  1
\W0.8;28
 11
-0.0000000268
 21
1.0
 31
0.0
  0
LINE
  5
102
100
AcDbEntity
  8
LAYER3
 62
         4
100
AcDbLine
 10
-84.9889557902
 20
-56.507093571
 30
0.0
 11
-85.6126908626
 21
-53.5726507688
 31
0.0
  0
LINE
  5
103
100
AcDbEntity
  8
LAYER3
 62
         4
100
AcDbLine
 10
-84.9889557902
 20
-56.507093571
 30
0.0
 11
-84.3652207177
 21
-53.5726507688
 31
0.0
  0
LINE
  5
104
100
AcDbEntity
  8
LAYER3
 62
         4
100
AcDbLine
 10
-84.9889557902
 20
-28.507093571
 30
0.0
 11
-84.3652207177
 21
-31.4415363733
 31
0.0
  0
LINE
  5
105
100
AcDbEntity
  8
LAYER3
 62
         4
100
AcDbLine
 10
-84.9889557902
 20
-28.507093571
 30
0.0
 11
-85.6126908626
 21
-31.4415363733
 31
0.0
  0
LINE
  5
106
100
AcDbEntity
  8
LAYER3
 62
         4
100
AcDbLine
 10
-84.9889557902
 20
-28.507093571
 30
0.0
 11
-84.9889557902
 21
-56.507093571
 31
0.0
  0
LINE
  5
107
100
AcDbEntity
  8
LAYER3
 62
         4
100
AcDbLine
 10
-77.7161489525
 20
-56.507093571
 30
0.0
 11
-85.9889557902
 21
-56.507093571
 31
0.0
  0
LINE
  5
108
100
AcDbEntity
  8
LAYER3
 62
         4
100
AcDbLine
 10
-77.7161489525
 20
-28.507093571
 30
0.0
 11
-85.9889557902
 21
-28.507093571
 31
0.0
  0
LINE
  5
109
100
AcDbEntity
  8
LAYER1
 62
         3
100
AcDbLine
 10
-12.7161489525
 20
-28.507093571
 30
0.0
 11
-12.7161489525
 21
-56.507093571
 31
0.0
  0
LINE
  5
10A
100
AcDbEntity
  8
LAYER1
 62
         3
100
AcDbLine
 10
-13.7161489525
 20
-28.507093571
 30
0.0
 11
-13.7161489525
 21
-56.507093571
 31
0.0
  0
LINE
  5
10B
100
AcDbEntity
  8
LAYER1
 62
         3
100
AcDbLine
 10
-19.2161489525
 20
-28.507093571
 30
0.0
 11
-19.2161489525
 21
-56.507093571
 31
0.0
  0
LINE
  5
10C
100
AcDbEntity
  8
LAYER1
 62
         3
100
AcDbLine
 10
-48.2161489525
 20
-28.507093571
 30
0.0
 11
-48.2161489525
 21
-29.507093571
 31
0.0
  0
MTEXT
  5
10D
100
AcDbEntity
  8
LAYER3
100
AcDbMText
 10
-13.8141756979
 20
-69.1926194198
 30
0.0
 40
2.1473683357
 41
3.8469689941
 71
         1
 72
         1
  1
\W0.8;133
  0
LINE
  5
10E
100
AcDbEntity
  8
LAYER3
 62
         4
100
AcDbLine
 10
-76.7161489525
 20
-72.9802781112
 30
0.0
 11
-73.7817061503
 21
-72.3565430388
 31
0.0
  0
LINE
  5
10F
100
AcDbEntity
  8
LAYER3
 62
         4
100
AcDbLine
 10
-76.7161489525
 20
-72.9802781112
 30
0.0
 11
-73.7817061503
 21
-73.6040131837
 31
0.0
  0
LINE
  5
110
100
AcDbEntity
  8
LAYER1
 62
         3
100
AcDbLine
 10
-64.4123013752
 20
34.2239526935
 30
0.0
 11
-64.4123013752
 21
37.4239526935
 31
0.0
  0
LINE
  5
111
100
AcDbEntity
  8
LAYER1
 62
         3
100
AcDbLine
 10
-63.9123013752
 20
33.7239526935
 30
0.0
 11
-64.4123013752
 21
34.2239526935
 31
0.0
  0
LINE
  5
112
100
AcDbEntity
  8
LAYER1
 62
         3
100
AcDbLine
 10
-64.7161489525
 20
38.4239526935
 30
0.0
 11
-64.7161489525
 21
37.4239526935
 31
0.0
  0
ARC
  5
113
100
AcDbEntity
  8
LAYER1
 62
         3
100
AcDbCircle
 10
-2.2161489525
 20
37.9239526935
 30
0.0
 40
0.5
210
0.0
220
0.0
230
1.0
100
AcDbArc
 50
179.9999969295
 51
269.9999984648
  0
LINE
  5
114
100
AcDbEntity
  8
LAYER1
 62
         3
100
AcDbLine
 10
-2.7161489525
 20
40.4239526935
 30
0.0
 11
-2.7161489525
 21
37.9239526935
 31
0.0
  0
LINE
  5
115
100
AcDbEntity
  8
LAYER1
 62
         3
100
AcDbLine
 10
-48.2161489525
 20
41.4239526935
 30
0.0
 11
-48.2161489525
 21
40.9239526935
 31
0.0
  0
ARC
  5
116
100
AcDbEntity
  8
LAYER1
 62
         3
100
AcDbCircle
 10
-48.7161489525
 20
40.9239526935
 30
0.0
 40
0.5
210
0.0
220
0.0
230
1.0
100
AcDbArc
 50
269.9999984648
 51
359.9999999999
  0
LINE
  5
117
100
AcDbEntity
  8
LAYER1
 62
         3
100
AcDbLine
 10
-72.2161489525
 20
60.2239526935
 30
0.0
 11
-72.2161489525
 21
55.1897165934
 31
0.0
  0
LINE
  5
118
100
AcDbEntity
  8
LAYER1
 62
         3
100
AcDbLine
 10
-58.4161489525
 20
-56.507093571
 30
0.0
 11
-58.4161489525
 21
-53.507093571
 31
0.0
  0
LINE
  5
119
100
AcDbEntity
  8
LAYER1
 62
         3
100
AcDbLine
 10
-2.7161489525
 20
-56.507093571
 30
0.0
 11
-2.7161489525
 21
-28.507093571
 31
0.0
  0
LINE
  5
11A
100
AcDbEntity
  8
LAYER1
 62
         3
100
AcDbLine
 10
-59.2161489525
 20
-53.507093571
 30
0.0
 11
-59.2161489525
 21
-55.507093571
 31
0.0
  0
ARC
  5
11B
100
AcDbEntity
  8
LAYER1
 62
         3
100
AcDbCircle
 10
-60.2161489525
 20
-41.8720082749
 30
0.0
 40
8.0
210
0.0
220
0.0
230
1.0
100
AcDbArc
 50
120.000002047
 51
179.9999969295
  0
LINE
  5
11C
100
AcDbEntity
  8
LAYER1
 62
         3
100
AcDbLine
 10
-76.7161489525
 20
-56.507093571
 30
0.0
 11
-76.7161489525
 21
-28.507093571
 31
0.0
  0
LINE
  5
11D
100
AcDbEntity
  8
LAYER1
 62
         3
100
AcDbLine
 10
-58.4161489525
 20
-31.5951734833
 30
0.0
 11
-58.4161489525
 21
-28.507093571
 31
0.0
  0
LINE
  5
11E
100
AcDbEntity
  8
LAYER1
 62
         3
100
AcDbLine
 10
-58.7161489525
 20
-28.507093571
 30
0.0
 11
-58.7161489525
 21
-31.7683785641
 31
0.0
  0
LINE
  5
11F
100
AcDbEntity
  8
LAYER1
 62
         3
100
AcDbLine
 10
-59.0161489525
 20
-28.507093571
 30
0.0
 11
-59.0161489525
 21
-31.9415836448
 31
0.0
  0
ARC
  5
120
100
AcDbEntity
  8
LAYER1
 62
         3
100
AcDbCircle
 10
-60.2161489525
 20
-41.007093571
 30
0.0
 40
1.0
210
-0.0
220
0.0
230
1.0
100
AcDbArc
 50
269.9999984648
 51
0.0
  0
LINE
  5
121
100
AcDbEntity
  8
LAYER1
 62
         3
100
AcDbLine
 10
-61.314225164
 20
-37.507093571
 30
0.0
 11
-56.1180727412
 21
-37.507093571
 31
0.0
  0
LINE
  5
122
100
AcDbEntity
  8
LAYER1
 62
         3
100
AcDbLine
 10
-61.7472378658
 20
-37.7570935708
 30
0.0
 11
-64.3453140771
 21
-42.2570935668
 31
0.0
  0
ARC
  5
123
100
AcDbEntity
  8
LAYER1
 62
         3
100
AcDbCircle
 10
-63.9123013752
 20
-42.5070935668
 30
0.0
 40
0.5
210
0.0
220
0.0
230
1.0
100
AcDbArc
 50
150.0000025587
 51
209.9999974413
  0
LINE
  5
124
100
AcDbEntity
  8
LAYER1
 62
         3
100
AcDbLine
 10
-60.2161489525
 20
-42.007093571
 30
0.0
 11
-61.7161489525
 21
-42.007093571
 31
0.0
  0
LINE
  5
125
100
AcDbEntity
  8
LAYER1
 62
         3
100
AcDbLine
 10
-61.7161489525
 20
-43.007093571
 30
0.0
 11
-60.2161489525
 21
-43.007093571
 31
0.0
  0
LINE
  5
126
100
AcDbEntity
  8
LAYER1
 62
         3
100
AcDbLine
 10
-61.7161489525
 20
-42.007093571
 30
0.0
 11
-61.7161489525
 21
-43.007093571
 31
0.0
  0
ARC
  5
127
100
AcDbEntity
  8
LAYER1
 62
         3
100
AcDbCircle
 10
-61.314225164
 20
-38.007093571
 30
0.0
 40
0.5
210
0.0
220
0.0
230
1.0
100
AcDbArc
 50
90.0000015352
 51
150.0000025367
  0
LINE
  5
128
100
AcDbEntity
  8
LAYER1
 62
         3
100
AcDbLine
 10
-59.2161489525
 20
-39.507093571
 30
0.0
 11
-59.2161489525
 21
-41.007093571
 31
0.0
  0
LINE
  5
129
100
AcDbEntity
  8
LAYER1
 62
         3
100
AcDbLine
 10
-58.2161489525
 20
-41.007093571
 30
0.0
 11
-58.2161489525
 21
-39.507093571
 31
0.0
  0
LINE
  5
12A
100
AcDbEntity
  8
LAYER1
 62
         3
100
AcDbLine
 10
-55.7161489525
 20
-42.007093571
 30
0.0
 11
-57.2161489525
 21
-42.007093571
 31
0.0
  0
LINE
  5
12B
100
AcDbEntity
  8
LAYER1
 62
         3
100
AcDbLine
 10
-57.2161489525
 20
-43.007093571
 30
0.0
 11
-55.7161489525
 21
-43.007093571
 31
0.0
  0
ARC
  5
12C
100
AcDbEntity
  8
LAYER1
 62
         3
100
AcDbCircle
 10
-45.2161489525
 20
-30.507093571
 30
0.0
 40
1.0
210
0.0
220
-0.0
230
1.0
100
AcDbArc
 50
0.0
 51
90.0000015352
  0
LINE
  5
12D
100
AcDbEntity
  8
LAYER1
 62
         3
100
AcDbLine
 10
-44.2161489525
 20
-30.507093571
 30
0.0
 11
-44.2161489525
 21
-43.3731189748
 31
0.0
  0
LINE
  5
12E
100
AcDbEntity
  8
LAYER1
 62
         3
100
AcDbLine
 10
-54.2635900693
 20
-29.507093571
 30
0.0
 11
-45.2161489525
 21
-29.507093571
 31
0.0
  0
ARC
  5
12F
100
AcDbEntity
  8
LAYER1
 62
         3
100
AcDbCircle
 10
-54.2635900693
 20
-31.507093571
 30
0.0
 40
2.0
210
0.0
220
0.0
230
1.0
100
AcDbArc
 50
90.0000015352
 51
120.000002047
  0
LINE
  5
130
100
AcDbEntity
  8
LAYER1
 62
         3
100
AcDbLine
 10
-64.2161489525
 20
-34.9438050446
 30
0.0
 11
-55.2635900693
 21
-29.7750427634
 31
0.0
  0
LINE
  5
131
100
AcDbEntity
  8
LAYER1
 62
         3
100
AcDbLine
 10
-55.7161489525
 20
-43.007093571
 30
0.0
 11
-55.7161489525
 21
-42.007093571
 31
0.0
  0
LINE
  5
132
100
AcDbEntity
  8
LAYER1
 62
         3
100
AcDbLine
 10
-58.2161489525
 20
-39.507093571
 30
0.0
 11
-59.2161489525
 21
-39.507093571
 31
0.0
  0
ARC
  5
133
100
AcDbEntity
  8
LAYER1
 62
         3
100
AcDbCircle
 10
-56.1180727412
 20
-38.007093571
 30
0.0
 40
0.5
210
0.0
220
-0.0
230
1.0
100
AcDbArc
 50
30.0000005117
 51
90.0000015352
  0
ARC
  5
134
100
AcDbEntity
  8
LAYER1
 62
         3
100
AcDbCircle
 10
-53.5199965298
 20
-42.5070935753
 30
0.0
 40
0.5
210
-0.0
220
0.0
230
1.0
100
AcDbArc
 50
329.9999994883
 51
30.0000005117
  0
LINE
  5
135
100
AcDbEntity
  8
LAYER1
 62
         3
100
AcDbLine
 10
-56.3046062206
 20
-53.2391443786
 30
0.0
 11
-46.7161489525
 21
-47.7032459937
 31
0.0
  0
ARC
  5
136
100
AcDbEntity
  8
LAYER1
 62
         3
100
AcDbCircle
 10
-49.2161489525
 20
-43.3731189748
 30
0.0
 40
5.0
210
-0.0
220
0.0
230
1.0
100
AcDbArc
 50
299.9999989765
 51
0.0
  0
LINE
  5
137
100
AcDbEntity
  8
LAYER1
 62
         3
100
AcDbLine
 10
-59.2161489525
 20
-55.507093571
 30
0.0
 11
-66.2161489525
 21
-55.507093571
 31
0.0
  0
LINE
  5
138
100
AcDbEntity
  8
LAYER1
 62
         3
100
AcDbLine
 10
-66.2161489525
 20
-53.507093571
 30
0.0
 11
-66.2161489525
 21
-55.507093571
 31
0.0
  0
LINE
  5
139
100
AcDbEntity
  8
LAYER1
 62
         3
100
AcDbLine
 10
-57.3046062206
 20
-53.507093571
 30
0.0
 11
-67.2161489525
 21
-53.507093571
 31
0.0
  0
LINE
  5
13A
100
AcDbEntity
  8
LAYER1
 62
         3
100
AcDbLine
 10
-68.2161489525
 20
-41.8720082749
 30
0.0
 11
-68.2161489525
 21
-52.507093571
 31
0.0
  0
ARC
  5
13B
100
AcDbEntity
  8
LAYER1
 62
         3
100
AcDbCircle
 10
-67.2161489525
 20
-52.507093571
 30
0.0
 40
1.0
210
0.0
220
0.0
230
1.0
100
AcDbArc
 50
179.9999969295
 51
269.9999984648
  0
CIRCLE
  5
13C
100
AcDbEntity
  8
LAYER1
 62
         3
100
AcDbCircle
 10
-58.7161489525
 20
-42.507093571
 30
0.0
 40
5.0
210
0.0
220
0.0
230
1.0
  0
CIRCLE
  5
13D
100
AcDbEntity
  8
LAYER1
 62
         3
100
AcDbCircle
 10
-58.7161489525
 20
-42.507093571
 30
0.0
 40
4.0
210
0.0
220
0.0
230
1.0
  0
LINE
  5
13E
100
AcDbEntity
  8
LAYER1
 62
         3
100
AcDbLine
 10
-55.6850600392
 20
-47.2570935712
 30
0.0
 11
-53.0869838279
 21
-42.7570935753
 31
0.0
  0
LINE
  5
13F
100
AcDbEntity
  8
LAYER1
 62
         3
100
AcDbLine
 10
-64.3453140771
 20
-42.7570935668
 30
0.0
 11
-61.7472378657
 21
-47.2570935708
 31
0.0
  0
LINE
  5
140
100
AcDbEntity
  8
LAYER1
 62
         3
100
AcDbLine
 10
-56.118072741
 20
-47.507093571
 30
0.0
 11
-61.3142251637
 21
-47.507093571
 31
0.0
  0
ARC
  5
141
100
AcDbEntity
  8
LAYER1
 62
         3
100
AcDbCircle
 10
-61.3142251637
 20
-47.007093571
 30
0.0
 40
0.5
210
0.0
220
0.0
230
1.0
100
AcDbArc
 50
209.9999974193
 51
269.9999984648
  0
ARC
  5
142
100
AcDbEntity
  8
LAYER1
 62
         3
100
AcDbCircle
 10
-57.3046062206
 20
-51.507093571
 30
0.0
 40
2.0
210
0.0
220
0.0
230
1.0
100
AcDbArc
 50
269.9999984648
 51
299.9999989765
  0
ARC
  5
143
100
AcDbEntity
  8
LAYER1
 62
         3
100
AcDbCircle
 10
-56.118072741
 20
-47.007093571
 30
0.0
 40
0.5
210
0.0
220
0.0
230
1.0
100
AcDbArc
 50
269.9999984648
 51
329.9999994657
  0
LINE
  5
144
100
AcDbEntity
  8
LAYER1
 62
         3
100
AcDbLine
 10
-53.0869838279
 20
-42.2570935753
 30
0.0
 11
-55.6850600393
 21
-37.757093571
 31
0.0
  0
ARC
  5
145
100
AcDbEntity
  8
LAYER1
 62
         3
100
AcDbCircle
 10
-60.2161489525
 20
-44.007093571
 30
0.0
 40
1.0
210
0.0
220
-0.0
230
1.0
100
AcDbArc
 50
0.0
 51
90.0000015352
  0
LINE
  5
146
100
AcDbEntity
  8
LAYER1
 62
         3
100
AcDbLine
 10
-70.2161489525
 20
-28.507093571
 30
0.0
 11
-70.2161489525
 21
-56.507093571
 31
0.0
  0
LINE
  5
147
100
AcDbEntity
  8
LAYER1
 62
         3
100
AcDbLine
 10
-72.7161489525
 20
-28.507093571
 30
0.0
 11
-72.7161489525
 21
-56.507093571
 31
0.0
  0
LINE
  5
148
100
AcDbEntity
  8
LAYER1
 62
         3
100
AcDbLine
 10
-59.0161489525
 20
-53.507093571
 30
0.0
 11
-59.0161489525
 21
-56.507093571
 31
0.0
  0
LINE
  5
149
100
AcDbEntity
  8
LAYER1
 62
         3
100
AcDbLine
 10
-58.7161489525
 20
-53.507093571
 30
0.0
 11
-58.7161489525
 21
-56.507093571
 31
0.0
  0
LINE
  5
14A
100
AcDbEntity
  8
LAYER1
 62
         3
100
AcDbLine
 10
-2.2161489525
 20
37.4239526935
 30
0.0
 11
-0.4369081726
 21
37.4239526935
 31
0.0
  0
ARC
  5
14B
100
AcDbEntity
  8
LAYER1
 62
         3
100
AcDbCircle
 10
-0.4369081726
 20
38.4239526935
 30
0.0
 40
1.0
210
0.0
220
0.0
230
1.0
100
AcDbArc
 50
269.9999984648
 51
341.5650508626
  0
LINE
  5
14C
100
AcDbEntity
  8
LAYER1
 62
         3
100
AcDbLine
 10
0.5117751255
 20
38.1077249275
 30
0.0
 11
1.2838510475
 21
40.4239526935
 31
0.0
  0
LINE
  5
14D
100
AcDbEntity
  8
LAYER0
 62
         3
100
AcDbLine
 10
95.0
 20
-125.5
 30
0.0
 11
-40.0
 21
-125.5
 31
0.0
  0
LINE
  5
14E
100
AcDbEntity
  8
LAYER0
 62
         3
100
AcDbLine
 10
95.0
 20
-130.5
 30
0.0
 11
-40.0
 21
-130.5
 31
0.0
  0
LINE
  5
14F
100
AcDbEntity
  8
LAYER0
 62
         3
100
AcDbLine
 10
95.0
 20
-138.5
 30
0.0
 11
-40.0
 21
-138.5
 31
0.0
  0
LINE
  5
150
100
AcDbEntity
  8
LAYER1
 62
         3
100
AcDbLine
 10
10.9838510475
 20
40.4239526935
 30
0.0
 11
1.2838510475
 21
40.4239526935
 31
0.0
  0
LINE
  5
151
100
AcDbEntity
  8
LAYER1
 62
         3
100
AcDbLine
 10
-58.4298889966
 20
49.7622331075
 30
0.0
 11
10.9687254987
 21
46.4312047792
 31
0.0
  0
LINE
  5
152
100
AcDbEntity
  8
LAYER1
 62
         3
100
AcDbLine
 10
1.2838510475
 20
-28.507093571
 30
0.0
 11
1.2838510475
 21
-56.507093571
 31
0.0
  0
LINE
  5
153
100
AcDbEntity
  8
LAYER1
 62
         3
100
AcDbLine
 10
0.2838510475
 20
-28.507093571
 30
0.0
 11
0.2838510475
 21
-56.507093571
 31
0.0
  0
LINE
  5
154
100
AcDbEntity
  8
LAYER1
 62
         3
100
AcDbLine
 10
10.9838510475
 20
40.4239526935
 30
0.0
 11
1.2838510475
 21
40.4239526935
 31
0.0
  0
LINE
  5
155
100
AcDbEntity
  8
LAYER1
 62
         3
100
AcDbLine
 10
56.2877975567
 20
-56.507093571
 30
0.0
 11
-76.7161489525
 21
-56.507093571
 31
0.0
  0
LINE
  5
156
100
AcDbEntity
  8
LAYER1
 62
         3
100
AcDbLine
 10
-76.7161489525
 20
-28.507093571
 30
0.0
 11
56.2877975567
 21
-28.507093571
 31
0.0
  0
LINE
  5
157
100
AcDbEntity
  8
LAYER3
 62
         4
100
AcDbLine
 10
-76.7161489525
 20
-72.9802781112
 30
0.0
 11
56.2877975567
 21
-72.9802781112
 31
0.0
  0
MTEXT
  5
158
100
AcDbEntity
  8
LAYER0
100
AcDbMText
 10
-17.3781737419
 20
-132.5157576176
 30
0.0
 40
3.0922104359
 41
11.0792708193
 71
         1
 72
         1
  1
\W0.8;S-20WA
  0
MTEXT
  5
159
100
AcDbEntity
  8
LAYER0
100
AcDbMText
 10
-35.7051459079
 20
-126.6461242782
 30
0.0
 40
2.1473683357
 41
6.4116149902
 71
         1
 72
         1
  1
\W0.8;Ｎｏ.
  0
LINE
  5
15A
100
AcDbEntity
  8
LAYER0
 62
         3
100
AcDbLine
 10
-25.0
 20
-125.5
 30
0.0
 11
-25.0
 21
-138.5
 31
0.0
  0
MTEXT
  5
15B
100
AcDbEntity
  8
LAYER0
100
AcDbMText
 10
-10.6564309049
 20
-126.7970201517
 30
0.0
 40
2.1473683357
 41
7.6538653946
 71
         1
 72
         1
  1
\W0.8;品　番
  0
LINE
  5
15C
100
AcDbEntity
  8
LAYER0
 62
         3
100
AcDbLine
 10
-40.0
 20
-138.5
 30
0.0
 11
-40.0
 21
-125.5
 31
0.0
  0
LINE
  5
15D
100
AcDbEntity
  8
LAYER1
 62
         3
100
AcDbLine
 10
-48.2161489525
 20
-48.5692713975
 30
0.0
 11
-48.2161489525
 21
-56.507093571
 31
0.0
  0
ARC
  5
15E
100
AcDbEntity
  8
LAYER1
 62
         3
100
AcDbCircle
 10
-57.2161489525
 20
-44.007093571
 30
0.0
 40
1.0
210
0.0
220
0.0
230
1.0
100
AcDbArc
 50
90.0000015352
 51
179.9999969295
  0
ARC
  5
15F
100
AcDbEntity
  8
LAYER1
 62
         3
100
AcDbCircle
 10
-57.2161489525
 20
-41.007093571
 30
0.0
 40
1.0
210
0.0
220
0.0
230
1.0
100
AcDbArc
 50
179.9999969295
 51
269.9999984648
  0
LINE
  5
160
100
AcDbEntity
  8
LAYER1
 62
         3
100
AcDbLine
 10
-58.2161489525
 20
-45.507093571
 30
0.0
 11
-58.2161489525
 21
-44.007093571
 31
0.0
  0
LINE
  5
161
100
AcDbEntity
  8
LAYER1
 62
         3
100
AcDbLine
 10
-59.2161489525
 20
-45.507093571
 30
0.0
 11
-58.2161489525
 21
-45.507093571
 31
0.0
  0
LINE
  5
162
100
AcDbEntity
  8
LAYER1
 62
         3
100
AcDbLine
 10
-59.2161489525
 20
-44.007093571
 30
0.0
 11
-59.2161489525
 21
-45.507093571
 31
0.0
  0
ENDSEC
  0
SECTION
  2
OBJECTS
  0
DICTIONARY
  5
19
100
AcDbDictionary
280
         0
281
         1
  3
ACAD_GROUP
350
1A
  3
ACAD_MLINESTYLE
350
1B
  3
ACAD_LAYOUT
350
1E
  3
ACAD_PLOTSETTINGS
350
22
  3
ACAD_PLOTSTYLENAME
350
1F
  3
ACAD_WIPEOUT_VARS
350
23
  0
DICTIONARY
  5
1A
102
{ACAD_REACTORS
330
19
102
}
100
AcDbDictionary
280
         0
281
         1
  0
DICTIONARY
  5
1B
102
{ACAD_REACTORS
330
19
102
}
100
AcDbDictionary
280
         0
281
         1
  3
Standard
350
1C
  0
MLINESTYLE
  5
1C
102
{ACAD_REACTORS
330
1B
102
}
100
AcDbMlineStyle
  2
Standard
 70
         0
  3

 62
         0
 51
90.0
 52
90.0
 71
         2
 49
0.5
 62
       256
  6
BYLAYER
 49
-0.5
 62
       256
  6
BYLAYER
  0
ACDBDICTIONARYWDFLT
  5
1F
102
{ACAD_REACTORS
330
19
102
}
100
AcDbDictionary
281
         1
  3
Normal
350
1D
100
AcDbDictionaryWithDefault
340
1D
  0
ACDBPLACEHOLDER
  5
1D
102
{ACAD_REACTORS
330
1F
102
}
  0
LAYOUT
  5
20
102
{ACAD_REACTORS
330
1E
102
}
100
AcDbPlotSettings
  1

  2

  4

  6

 40
0.0
 41
0.0
 42
0.0
 43
0.0
 44
0.0
 45
0.0
 46
0.0
 47
0.0
 48
0.0
 49
0.0
140
0.0
141
0.0
142
1.0
143
1.0
 70
         0
 72
         0
 73
         0
 74
         0
  7

 75
         0
147
1.0
148
0.0
149
0.0
100
AcDbLayout
  1
Model
 70
         0
 71
         0
 10
0.0
 20
0.0
 11
0.0
 21
0.0
 12
0.0
 22
0.0
 32
0.0
 14
0.0
 24
0.0
 34
0.0
 15
0.0
 25
0.0
 35
0.0
146
0.0
 13
0.0
 23
0.0
 33
0.0
 16
0.0
 26
0.0
 36
0.0
 17
0.0
 27
0.0
 37
0.0
 76
         0
330
A
331
0
345
0
346
0
  0
LAYOUT
  5
21
102
{ACAD_REACTORS
330
1E
102
}
100
AcDbPlotSettings
  1

  2

  4

  6

 40
0.0
 41
0.0
 42
0.0
 43
0.0
 44
0.0
 45
0.0
 46
0.0
 47
0.0
 48
0.0
 49
0.0
140
0.0
141
0.0
142
1.0
143
1.0
 70
         0
 72
         0
 73
         0
 74
         0
  7

 75
         0
147
1.0
148
0.0
149
0.0
100
AcDbLayout
  1
Layout1
 70
         0
 71
         0
 10
0.0
 20
0.0
 11
0.0
 21
0.0
 12
0.0
 22
0.0
 32
0.0
 14
0.0
 24
0.0
 34
0.0
 15
0.0
 25
0.0
 35
0.0
146
0.0
 13
0.0
 23
0.0
 33
0.0
 16
0.0
 26
0.0
 36
0.0
 17
0.0
 27
0.0
 37
0.0
 76
         0
330
B
331
0
345
0
346
0
  0
DICTIONARY
  5
1E
102
{ACAD_REACTORS
330
19
102
}
100
AcDbDictionary
280
         0
281
         1
  3
Layout1
350
21
  3
Model
350
20
  0
DICTIONARY
  5
22
102
{ACAD_REACTORS
330
19
102
}
100
AcDbDictionary
280
         0
281
         1
  0
WIPEOUTVARIABLES
  5
23
100
AcDbWipeoutVariables
 70
         1
  0
ENDSEC
  0
EOF
