  0
SECTION
  2
HEADER
  9
$ACADVER
  1
AC1015
  9
$ACADMAINTVER
 70
         6
  9
$DWGCODEPAGE
  3
ANSI_932
  9
$INSBASE
 10
0.0
 20
0.0
 30
0.0
  9
$EXTMIN
 10
1.0000000000E+20
 20
1.0000000000E+20
 30
1.0000000000E+20
  9
$EXTMAX
 10
-1.0000000000E+20
 20
-1.0000000000E+20
 30
-1.0000000000E+20
  9
$LIMMIN
 10
0.0
 20
0.0
  9
$LIMMAX
 10
0.0
 20
0.0
  9
$ORTHOMODE
 70
         0
  9
$REGENMODE
 70
         1
  9
$FILLMODE
 70
         1
  9
$QTEXTMODE
 70
         0
  9
$MIRRTEXT
 70
         1
  9
$LTSCALE
 40
1.0
  9
$ATTMODE
 70
         1
  9
$TEXTSIZE
 40
0.2
  9
$TRACEWID
 40
0.05
  9
$TEXTSTYLE
  7
Standard
  9
$CLAYER
  8
0
  9
$CELTYPE
  6
Continuous
  9
$CECOLOR
 62
       256
  9
$CELTSCALE
 40
1.0
  9
$DISPSILH
 70
         0
  9
$DIMSCALE
 40
1.0
  9
$DIMASZ
 40
0.18
  9
$DIMEXO
 40
0.0625
  9
$DIMDLI
 40
0.38
  9
$DIMRND
 40
0.0
  9
$DIMDLE
 40
0.0
  9
$DIMEXE
 40
0.18
  9
$DIMTP
 40
0.0
  9
$DIMTM
 40
0.0
  9
$DIMTXT
 40
0.18
  9
$DIMCEN
 40
0.09
  9
$DIMTSZ
 40
0.0
  9
$DIMTOL
 70
         0
  9
$DIMLIM
 70
         0
  9
$DIMTIH
 70
         1
  9
$DIMTOH
 70
         1
  9
$DIMSE1
 70
         0
  9
$DIMSE2
 70
         0
  9
$DIMTAD
 70
         0
  9
$DIMZIN
 70
         0
  9
$DIMBLK
  1

  9
$DIMASO
 70
         1
  9
$DIMSHO
 70
         1
  9
$DIMPOST
  1

  9
$DIMAPOST
  1

  9
$DIMALT
 70
         0
  9
$DIMALTD
 70
         2
  9
$DIMALTF
 40
25.4
  9
$DIMLFAC
 40
1.0
  9
$DIMTOFL
 70
         0
  9
$DIMTVP
 40
0.0
  9
$DIMTIX
 70
         0
  9
$DIMSOXD
 70
         0
  9
$DIMSAH
 70
         0
  9
$DIMBLK1
  1

  9
$DIMBLK2
  1

  9
$DIMSTYLE
  2
Standard
  9
$DIMCLRD
 70
         0
  9
$DIMCLRE
 70
         0
  9
$DIMCLRT
 70
         0
  9
$DIMTFAC
 40
1.0
  9
$DIMGAP
 40
0.09
  9
$DIMJUST
 70
         0
  9
$DIMSD1
 70
         0
  9
$DIMSD2
 70
         0
  9
$DIMTOLJ
 70
         1
  9
$DIMTZIN
 70
         0
  9
$DIMALTZ
 70
         0
  9
$DIMALTTZ
 70
         0
  9
$DIMUPT
 70
         0
  9
$DIMDEC
 70
         4
  9
$DIMTDEC
 70
         4
  9
$DIMALTU
 70
         2
  9
$DIMALTTD
 70
         2
  9
$DIMTXSTY
  7
Standard
  9
$DIMAUNIT
 70
         0
  9
$DIMADEC
 70
         0
  9
$DIMALTRND
 40
0.0
  9
$DIMAZIN
 70
         0
  9
$DIMDSEP
 70
         0
  9
$DIMATFIT
 70
         3
  9
$DIMFRAC
 70
         0
  9
$DIMLDRBLK
  1

  9
$DIMLUNIT
 70
         2
  9
$DIMLWD
 70
         0
  9
$DIMLWE
 70
         0
  9
$DIMTMOVE
 70
         0
  9
$LUNITS
 70
         2
  9
$LUPREC
 70
         4
  9
$SKETCHINC
 40
0.1
  9
$FILLETRAD
 40
0.0
  9
$AUNITS
 70
         0
  9
$AUPREC
 70
         0
  9
$MENU
  1
acad
  9
$ELEVATION
 40
0.0
  9
$PELEVATION
 40
0.0
  9
$THICKNESS
 40
0.0
  9
$LIMCHECK
 70
         0
  9
$CHAMFERA
 40
0.0
  9
$CHAMFERB
 40
0.0
  9
$CHAMFERC
 40
0.0
  9
$CHAMFERD
 40
0.0
  9
$SKPOLY
 70
         0
  9
$TDCREATE
 40
0.000000000
  9
$TDUCREATE
 40
0.000000000
  9
$TDUPDATE
 40
0.000000000
  9
$TDUUPDATE
 40
0.000000000
  9
$TDINDWG
 40
0.0000000000
  9
$TDUSRTIMER
 40
0.0000000000
  9
$USRTIMER
 70
         1
  9
$ANGBASE
 50
0.0
  9
$ANGDIR
 70
         0
  9
$PDMODE
 70
         3
  9
$PDSIZE
 40
-1.0
  9
$PLINEWID
 40
0.0
  9
$SPLFRAME
 70
         0
  9
$SPLINETYPE
 70
         6
  9
$SPLINESEGS
 70
         8
  9
$HANDSEED
  5
1AF
  9
$SURFTAB1
 70
         6
  9
$SURFTAB2
 70
         6
  9
$SURFTYPE
 70
         6
  9
$SURFU
 70
         6
  9
$SURFV
 70
         6
  9
$UCSBASE
  2

  9
$UCSNAME
  2

  9
$UCSORG
 10
0.0
 20
0.0
 30
0.0
  9
$UCSXDIR
 10
1.0
 20
0.0
 30
0.0
  9
$UCSYDIR
 10
0.0
 20
1.0
 30
0.0
  9
$UCSORTHOREF
  2

  9
$UCSORTHOVIEW
 70
         0
  9
$UCSORGTOP
 10
0.0
 20
0.0
 30
0.0
  9
$UCSORGBOTTOM
 10
0.0
 20
0.0
 30
0.0
  9
$UCSORGLEFT
 10
0.0
 20
0.0
 30
0.0
  9
$UCSORGRIGHT
 10
0.0
 20
0.0
 30
0.0
  9
$UCSORGFRONT
 10
0.0
 20
0.0
 30
0.0
  9
$UCSORGBACK
 10
0.0
 20
0.0
 30
0.0
  9
$PUCSBASE
  2

  9
$PUCSNAME
  2

  9
$PUCSORG
 10
0.0
 20
0.0
 30
0.0
  9
$PUCSXDIR
 10
1.0
 20
0.0
 30
0.0
  9
$PUCSYDIR
 10
0.0
 20
1.0
 30
0.0
  9
$PUCSORTHOREF
  2

  9
$PUCSORTHOVIEW
 70
         0
  9
$PUCSORGTOP
 10
0.0
 20
0.0
 30
0.0
  9
$PUCSORGBOTTOM
 10
0.0
 20
0.0
 30
0.0
  9
$PUCSORGLEFT
 10
0.0
 20
0.0
 30
0.0
  9
$PUCSORGRIGHT
 10
0.0
 20
0.0
 30
0.0
  9
$PUCSORGFRONT
 10
0.0
 20
0.0
 30
0.0
  9
$PUCSORGBACK
 10
0.0
 20
0.0
 30
0.0
  9
$USERI1
 70
         0
  9
$USERI2
 70
         0
  9
$USERI3
 70
         0
  9
$USERI4
 70
         0
  9
$USERI5
 70
         0
  9
$USERR1
 40
0.0
  9
$USERR2
 40
0.0
  9
$USERR3
 40
0.0
  9
$USERR4
 40
0.0
  9
$USERR5
 40
0.0
  9
$WORLDVIEW
 70
         1
  9
$SHADEDGE
 70
         3
  9
$SHADEDIF
 70
        70
  9
$TILEMODE
 70
         1
  9
$MAXACTVP
 70
        16
  9
$PINSBASE
 10
0.0
 20
0.0
 30
0.0
  9
$PLIMCHECK
 70
         0
  9
$PEXTMIN
 10
1.0000000000E+20
 20
1.0000000000E+20
 30
1.0000000000E+20
  9
$PEXTMAX
 10
-1.0000000000E+20
 20
-1.0000000000E+20
 30
-1.0000000000E+20
  9
$PLIMMIN
 10
0.0
 20
0.0
  9
$PLIMMAX
 10
12.0
 20
9.0
  9
$UNITMODE
 70
         0
  9
$VISRETAIN
 70
         0
  9
$PLINEGEN
 70
         1
  9
$PSLTSCALE
 70
         0
  9
$TREEDEPTH
 70
      3020
  9
$CMLSTYLE
  2
Standard
  9
$CMLJUST
 70
         0
  9
$CMLSCALE
 40
1.0
  9
$PROXYGRAPHICS
 70
         0
  9
$MEASUREMENT
 70
         0
  9
$CELWEIGHT
370
         0
  9
$ENDCAPS
280
         0
  9
$JOINSTYLE
280
         0
  9
$LWDISPLAY
290
         0
  9
$INSUNITS
 70
         0
  9
$HYPERLINKBASE
  1

  9
$XEDIT
290
         1
  9
$CEPSNTYPE
380
         0
  9
$PSTYLEMODE
290
         0
  9
$FINGERPRINTGUID
  2

  9
$VERSIONGUID
  2

  9
$EXTNAMES
290
         1
  9
$PSVPSCALE
 40
0.0
  0
ENDSEC
  0
SECTION
  2
CLASSES
  0
CLASS
  1
LWPOLYLINE
  2
AcDbPolyline
  3
"AutoCAD"
 90
        0
280
         0
281
         1
  0
CLASS
  1
IMAGE
  2
AcDbRasterImage
  3
ISM
 90
      127
280
         0
281
         1
  0
CLASS
  1
OLE2FRAME
  2
AcDbOle2Frame
  3
""
 90
        0
280
         0
281
         1
  0
CLASS
  1
HATCH
  2
AcDbHatch
  3
"ACAD_SEDONA"
 90
        0
280
         0
281
         1
  0
CLASS
  1
DICTIONARYVAR
  2
AcDbDictionaryVar
  3
"AutoCAD"
 90
        0
280
         0
281
         0
  0
CLASS
  1
RASTERVARIABLES
  2
AcDbRasterVariables
  3
ISM
 90
        0
280
         0
281
         0
  0
CLASS
  1
IMAGEDEF
  2
AcDbRasterImageDef
  3
ISM
 90
        0
280
         0
281
         0
  0
CLASS
  1
IMAGEDEF_REACTOR
  2
AcDbRasterImageDefReactor
  3
ISM
 90
        1
280
         0
281
         0
  0
CLASS
  1
IDBUFFER
  2
AcDbIdBuffer
  3
"Acad"
 90
        0
280
         0
281
         0
  0
CLASS
  1
SPATIAL_FILTER
  2
AcDbSpatialFilter
  3
"Acad"
 90
        0
280
         0
281
         0
  0
CLASS
  1
XRECORD
  2
AcDbXrecord
  3
"<Built In>"
 90
        0
280
         0
281
         0
  0
CLASS
  1
SORTENTSTABLE
  2
AcDbSortentsTable
  3
"AutoCAD"
 90
        0
280
         0
281
         0
  0
CLASS
  1
LAYER_INDEX
  2
AcDbLayerIndex
  3
"Acad"
 90
        0
280
         0
281
         0
  0
CLASS
  1
SPATIAL_INDEX
  2
AcDbSpatialIndex
  3
"Acad"
 90
        0
280
         0
281
         0
  0
CLASS
  1
OBJECT_PTR
  2
CAseDLPNTableRecord
  3
"ASE-LPNTableRecord"
 90
        1
280
         0
281
         0
  0
CLASS
  1
LAYOUT
  2
AcDbLayout
  3
"AutoCAD 2000"
 90
        1
280
         0
281
         0
  0
CLASS
  1
PLOTSETTINGS
  2
AcDbPlotSettings
  3
"AutoCAD 2000"
 90
        1
280
         0
281
         0
  0
CLASS
  1
ACDBDICTIONARYWDFLT
  2
AcDbDictionaryWithDefault
  3
"AutoCAD 2000"
 90
        1
280
         0
281
         0
  0
CLASS
  1
ACDBPLACEHOLDER
  2
AcDbPlaceHolder
  3
"AutoCAD 2000"
 90
        1
280
         0
281
         0
  0
CLASS
  1
VBA_PROJECT
  2
AcDbVbaProject
  3
"acadvba"
 90
        1
280
         0
281
         0
  0
CLASS
  1
WIPEOUT
  2
AcDbWipeout
  3
WipeOut|AutoCAD Express Tool|expresstools@autodesk.com
 90
      127
280
         0
281
         1
  0
CLASS
  1
WIPEOUTVARIABLES
  2
AcDbWipeoutVariables
  3
WipeOut|AutoCAD Express Tool|expresstools@autodesk.com
 90
        0
280
         0
281
         0
  0
CLASS
  1
RTEXT
  2
RText
  3
RText|AutoCAD Express Tool|expresstools@autodesk.com
 90
        0
280
         0
281
         1
  0
CLASS
  1
ARCALIGNEDTEXT
  2
AcDbArcAlignedText
  3
ATEXT|AutoCAD Express Tool|expresstools@autodesk.com
 90
        0
280
         0
281
         1
  0
ENDSEC
  0
SECTION
  2
TABLES
  0
TABLE
  2
VPORT
  5
7
100
AcDbSymbolTable
 70
         1
  0
VPORT
  5
15
100
AcDbSymbolTableRecord
100
AcDbViewportTableRecord
  2
*ACTIVE
 70
         0
 10
0.0
 20
0.0
 11
1.0
 21
1.0
 12
6.591288
 22
4.579184
 13
0.0
 23
0.0
 14
1.0
 24
1.0
 15
0.0
 25
0.0
 16
0.0
 26
0.0
 36
1.0
 17
0.0
 27
0.0
 37
0.0
 40
9.158369
 41
0.688564
 42
50.0
 43
0.0
 44
0.0
 50
0.0
 51
0.0
 71
         0
 72
       100
 73
         1
 74
         1
 75
         0
 76
         0
 77
         0
 78
         0
281
         0
 65
         0
110
0.0
120
0.0
130
0.0
111
1.0
121
0.0
131
0.0
112
0.0
122
1.0
132
0.0
345
0
346
0
 79
         0
146
0.0
  0
ENDTAB
  0
TABLE
  2
LTYPE
  5
4
100
AcDbSymbolTable
 70
        13
  0
LTYPE
  5
11
100
AcDbSymbolTableRecord
100
AcDbLinetypeTableRecord
  2
ByBlock
 70
        64
  3

 72
        65
 73
         0
 40
0.0
  0
LTYPE
  5
12
100
AcDbSymbolTableRecord
100
AcDbLinetypeTableRecord
  2
ByLayer
 70
        64
  3

 72
        65
 73
         0
 40
0.0
  0
LTYPE
  5
13
100
AcDbSymbolTableRecord
100
AcDbLinetypeTableRecord
  2
Continuous
 70
        64
  3
Solid line
 72
        65
 73
         0
 40
0.0
  0
LTYPE
  5
24
100
AcDbSymbolTableRecord
100
AcDbLinetypeTableRecord
  2
DOT
 70
        64
  3
. . . . . . . . 
 72
        65
 73
         2
 40
1.0
 49
0.0
 74
         0
 49
-1.0
 74
         0
  0
LTYPE
  5
25
100
AcDbSymbolTableRecord
100
AcDbLinetypeTableRecord
  2
DASHED
 70
        64
  3
___  ___  ___  ___  
 72
        65
 73
         2
 40
4.0
 49
3.0
 74
         0
 49
-1.0
 74
         0
  0
LTYPE
  5
26
100
AcDbSymbolTableRecord
100
AcDbLinetypeTableRecord
  2
HIDDEN
 70
        64
  3
__ __ __ __ 
 72
        65
 73
         2
 40
3.0
 49
2.0
 74
         0
 49
-1.0
 74
         0
  0
LTYPE
  5
27
100
AcDbSymbolTableRecord
100
AcDbLinetypeTableRecord
  2
STITCH
 70
        64
  3
_ _ _ _ 
 72
        65
 73
         2
 40
2.0
 49
1.0
 74
         0
 49
-1.0
 74
         0
  0
LTYPE
  5
28
100
AcDbSymbolTableRecord
100
AcDbLinetypeTableRecord
  2
CENTER
 70
        64
  3
______  __  ______  __  
 72
        65
 73
         4
 40
43.0
 49
40.0
 74
         0
 49
-1.0
 74
         0
 49
1.0
 74
         0
 49
-1.0
 74
         0
  0
LTYPE
  5
29
100
AcDbSymbolTableRecord
100
AcDbLinetypeTableRecord
  2
DASHDOT
 70
        64
  3
____ . ____ . 
 72
        65
 73
         4
 40
32.0
 49
30.0
 74
         0
 49
-1.0
 74
         0
 49
0.0
 74
         0
 49
-1.0
 74
         0
  0
LTYPE
  5
2A
100
AcDbSymbolTableRecord
100
AcDbLinetypeTableRecord
  2
BORDER
 70
        64
  3
__ . __ . 
 72
        65
 73
         4
 40
22.0
 49
20.0
 74
         0
 49
-1.0
 74
         0
 49
0.0
 74
         0
 49
-1.0
 74
         0
  0
LTYPE
  5
2B
100
AcDbSymbolTableRecord
100
AcDbLinetypeTableRecord
  2
CUTTING
 70
        64
  3
________   ___   ___   
 72
        65
 73
         6
 40
45.0
 49
40.0
 74
         0
 49
-1.0
 74
         0
 49
1.0
 74
         0
 49
-1.0
 74
         0
 49
1.0
 74
         0
 49
-1.0
 74
         0
  0
LTYPE
  5
2C
100
AcDbSymbolTableRecord
100
AcDbLinetypeTableRecord
  2
PHANTOM
 70
        64
  3
______  __  __  
 72
        65
 73
         6
 40
35.0
 49
30.0
 74
         0
 49
-1.0
 74
         0
 49
1.0
 74
         0
 49
-1.0
 74
         0
 49
1.0
 74
         0
 49
-1.0
 74
         0
  0
LTYPE
  5
2D
100
AcDbSymbolTableRecord
100
AcDbLinetypeTableRecord
  2
DIVIDE
 70
        64
  3
____ . . ____ . . 
 72
        65
 73
         6
 40
23.0
 49
20.0
 74
         0
 49
-1.0
 74
         0
 49
0.0
 74
         0
 49
-1.0
 74
         0
 49
0.0
 74
         0
 49
-1.0
 74
         0
  0
ENDTAB
  0
TABLE
  2
LAYER
  5
2
100
AcDbSymbolTable
 70
         4
  0
LAYER
  5
14
100
AcDbSymbolTableRecord
100
AcDbLayerTableRecord
  2
0
 70
         0
 62
         7
  6
Continuous
290
         1
370
        -3
390
1D
  0
LAYER
  5
34
100
AcDbSymbolTableRecord
100
AcDbLayerTableRecord
  2
LAYER0
 70
         0
 62
         7
  6
Continuous
290
         1
370
        -3
390
1F
  0
LAYER
  5
40
100
AcDbSymbolTableRecord
100
AcDbLayerTableRecord
  2
LAYER1
 70
         0
 62
         7
  6
Continuous
290
         1
370
        -3
390
1F
  0
LAYER
  5
DC
100
AcDbSymbolTableRecord
100
AcDbLayerTableRecord
  2
LAYER3
 70
         0
 62
         7
  6
Continuous
290
         1
370
        -3
390
1F
  0
ENDTAB
  0
TABLE
  2
STYLE
  5
3
100
AcDbSymbolTable
 70
         1
  0
STYLE
  5
17
100
AcDbSymbolTableRecord
100
AcDbTextStyleTableRecord
  2
Standard
 70
         0
 40
0.0
 41
1.0
 50
0.0
 71
         0
 42
0.0
  3
txt
  4
extfont
  0
ENDTAB
  0
TABLE
  2
VIEW
  5
5
100
AcDbSymbolTable
 70
         0
  0
ENDTAB
  0
TABLE
  2
UCS
  5
6
100
AcDbSymbolTable
 70
         0
  0
ENDTAB
  0
TABLE
  2
APPID
  5
8
100
AcDbSymbolTable
 70
         1
  0
APPID
  5
16
100
AcDbSymbolTableRecord
100
AcDbRegAppTableRecord
  2
ACAD
 70
         0
  0
ENDTAB
  0
TABLE
  2
DIMSTYLE
  5
9
100
AcDbSymbolTable
 70
         1
100
AcDbDimStyleTable
 71
         0
  0
DIMSTYLE
105
18
100
AcDbSymbolTableRecord
100
AcDbDimStyleTableRecord
  2
Standard
 70
         0
  3

  4

 40
1.0
 41
0.18
 42
0.0625
 43
0.38
 44
0.18
 45
0.0
 46
0.0
 47
0.0
 48
0.0
 71
         0
 72
         0
 73
         1
 74
         1
 75
         0
 76
         0
 77
         0
 78
         0
 79
         0
140
0.18
141
0.09
142
0.0
143
25.4
144
1.0
145
0.0
146
1.0
147
0.09
148
0.0
170
         0
171
         2
172
         0
173
         0
174
         0
175
         0
176
         0
177
         0
178
         0
179
         0
271
         4
272
         4
273
         2
274
         2
275
         0
276
         0
277
         2
278
        46
279
         0
280
         0
281
         0
282
         0
283
         1
284
         0
285
         0
286
         0
288
         0
340
17
341
0
342
0
343
0
344
0
371
        -2
372
        -2
  0
ENDTAB
  0
TABLE
  2
BLOCK_RECORD
  5
1
100
AcDbSymbolTable
 70
        20
  0
BLOCK_RECORD
  5
A
100
AcDbSymbolTableRecord
100
AcDbBlockTableRecord
  2
*MODEL_SPACE
340
20
  0
BLOCK_RECORD
  5
B
100
AcDbSymbolTableRecord
100
AcDbBlockTableRecord
  2
*PAPER_SPACE
340
21
  0
BLOCK_RECORD
  5
2E
100
AcDbSymbolTableRecord
100
AcDbBlockTableRecord
  2
CLUMP0
340
0
  0
BLOCK_RECORD
  5
31
100
AcDbSymbolTableRecord
100
AcDbBlockTableRecord
  2
CLUMP1
340
0
  0
BLOCK_RECORD
  5
63
100
AcDbSymbolTableRecord
100
AcDbBlockTableRecord
  2
CLUMP2
340
0
  0
BLOCK_RECORD
  5
66
100
AcDbSymbolTableRecord
100
AcDbBlockTableRecord
  2
CLUMP3
340
0
  0
BLOCK_RECORD
  5
6F
100
AcDbSymbolTableRecord
100
AcDbBlockTableRecord
  2
CLUMP4
340
0
  0
BLOCK_RECORD
  5
72
100
AcDbSymbolTableRecord
100
AcDbBlockTableRecord
  2
CLUMP5
340
0
  0
BLOCK_RECORD
  5
7E
100
AcDbSymbolTableRecord
100
AcDbBlockTableRecord
  2
CLUMP6
340
0
  0
BLOCK_RECORD
  5
81
100
AcDbSymbolTableRecord
100
AcDbBlockTableRecord
  2
CLUMP7
340
0
  0
BLOCK_RECORD
  5
92
100
AcDbSymbolTableRecord
100
AcDbBlockTableRecord
  2
CLUMP8
340
0
  0
BLOCK_RECORD
  5
95
100
AcDbSymbolTableRecord
100
AcDbBlockTableRecord
  2
CLUMP9
340
0
  0
BLOCK_RECORD
  5
A6
100
AcDbSymbolTableRecord
100
AcDbBlockTableRecord
  2
CLUMP10
340
0
  0
BLOCK_RECORD
  5
A9
100
AcDbSymbolTableRecord
100
AcDbBlockTableRecord
  2
CLUMP11
340
0
  0
BLOCK_RECORD
  5
FE
100
AcDbSymbolTableRecord
100
AcDbBlockTableRecord
  2
CLUMP12
340
0
  0
BLOCK_RECORD
  5
101
100
AcDbSymbolTableRecord
100
AcDbBlockTableRecord
  2
CLUMP13
340
0
  0
BLOCK_RECORD
  5
10E
100
AcDbSymbolTableRecord
100
AcDbBlockTableRecord
  2
CLUMP14
340
0
  0
BLOCK_RECORD
  5
111
100
AcDbSymbolTableRecord
100
AcDbBlockTableRecord
  2
CLUMP15
340
0
  0
BLOCK_RECORD
  5
127
100
AcDbSymbolTableRecord
100
AcDbBlockTableRecord
  2
CLUMP16
340
0
  0
BLOCK_RECORD
  5
12A
100
AcDbSymbolTableRecord
100
AcDbBlockTableRecord
  2
CLUMP17
340
0
  0
BLOCK_RECORD
  5
16D
100
AcDbSymbolTableRecord
100
AcDbBlockTableRecord
  2
CLUMP18
340
0
  0
BLOCK_RECORD
  5
170
100
AcDbSymbolTableRecord
100
AcDbBlockTableRecord
  2
CLUMP19
340
0
  0
ENDTAB
  0
ENDSEC
  0
SECTION
  2
BLOCKS
  0
BLOCK
  5
D
100
AcDbEntity
  8
0
100
AcDbBlockBegin
  2
*MODEL_SPACE
 70
         0
 10
0.0
 20
0.0
 30
0.0
  3
*MODEL_SPACE
  1

  0
ENDBLK
  5
E
100
AcDbEntity
  8
0
100
AcDbBlockEnd
  0
BLOCK
  5
F
100
AcDbEntity
 67
         1
  8
0
100
AcDbBlockBegin
  2
*PAPER_SPACE
 70
         0
 10
0.0
 20
0.0
 30
0.0
  3
*PAPER_SPACE
  1

  0
ENDBLK
  5
10
100
AcDbEntity
 67
         1
  8
0
100
AcDbBlockEnd
  0
BLOCK
  5
30
100
AcDbEntity
  8
0
100
AcDbBlockBegin
  2
CLUMP0
 70
         0
 10
0.0
 20
0.0
 30
0.0
  3

  1

  0
INSERT
  5
32
100
AcDbEntity
  8
0
100
AcDbBlockReference
  2
CLUMP1
 10
0.0
 20
0.0
 30
0.0
  0
ENDBLK
  5
3D
100
AcDbEntity
  8
0
100
AcDbBlockEnd
  0
BLOCK
  5
33
100
AcDbEntity
  8
0
100
AcDbBlockBegin
  2
CLUMP1
 70
         0
 10
0.0
 20
0.0
 30
0.0
  3

  1

  0
LINE
  5
35
100
AcDbEntity
  8
LAYER0
 62
         3
100
AcDbLine
 10
24.603495969
 20
21.0302896891
 30
0.0
 11
24.4330411807
 21
21.1152163334
 31
0.0
  0
LINE
  5
36
100
AcDbEntity
  8
LAYER0
 62
         3
100
AcDbLine
 10
24.4330411807
 20
21.1152163334
 30
0.0
 11
24.2675754342
 21
21.1970880019
 31
0.0
  0
LINE
  5
37
100
AcDbEntity
  8
LAYER0
 62
         3
100
AcDbLine
 10
24.2675754342
 20
21.1970880019
 30
0.0
 11
24.1119417469
 21
21.2735083922
 31
0.0
  0
LINE
  5
38
100
AcDbEntity
  8
LAYER0
 62
         3
100
AcDbLine
 10
24.1119417469
 20
21.2735083922
 30
0.0
 11
23.970695362
 21
21.3422407559
 31
0.0
  0
LINE
  5
39
100
AcDbEntity
  8
LAYER0
 62
         3
100
AcDbLine
 10
23.970695362
 20
21.3422407559
 30
0.0
 11
23.8479704202
 21
21.4012733651
 31
0.0
  0
LINE
  5
3A
100
AcDbEntity
  8
LAYER0
 62
         3
100
AcDbLine
 10
23.8479704202
 20
21.4012733651
 30
0.0
 11
23.7473589583
 21
21.4488783941
 31
0.0
  0
LINE
  5
3B
100
AcDbEntity
  8
LAYER0
 62
         3
100
AcDbLine
 10
23.7473589583
 20
21.4488783941
 30
0.0
 11
24.603495969
 21
21.0302896891
 31
0.0
  0
ENDBLK
  5
3C
100
AcDbEntity
  8
0
100
AcDbBlockEnd
  0
BLOCK
  5
65
100
AcDbEntity
  8
0
100
AcDbBlockBegin
  2
CLUMP2
 70
         0
 10
0.0
 20
0.0
 30
0.0
  3

  1

  0
INSERT
  5
67
100
AcDbEntity
  8
0
100
AcDbBlockReference
  2
CLUMP3
 10
0.0
 20
0.0
 30
0.0
  0
ENDBLK
  5
6E
100
AcDbEntity
  8
0
100
AcDbBlockEnd
  0
BLOCK
  5
68
100
AcDbEntity
  8
0
100
AcDbBlockBegin
  2
CLUMP3
 70
         0
 10
0.0
 20
0.0
 30
0.0
  3

  1

  0
LINE
  5
69
100
AcDbEntity
  8
LAYER0
 62
         3
100
AcDbLine
 10
31.203495969
 20
21.5947487283
 30
0.0
 11
31.18715719
 21
21.5439291598
 31
0.0
  0
LINE
  5
6A
100
AcDbEntity
  8
LAYER0
 62
         3
100
AcDbLine
 10
31.18715719
 20
21.5439291598
 30
0.0
 11
31.1386747645
 21
21.4947702506
 31
0.0
  0
LINE
  5
6B
100
AcDbEntity
  8
LAYER0
 62
         3
100
AcDbLine
 10
31.1386747645
 20
21.4947702506
 30
0.0
 11
31.0596329797
 21
21.448878394
 31
0.0
  0
LINE
  5
6C
100
AcDbEntity
  8
LAYER0
 62
         3
100
AcDbLine
 10
31.0596329797
 20
21.448878394
 30
0.0
 11
31.203495969
 21
21.5947487283
 31
0.0
  0
ENDBLK
  5
6D
100
AcDbEntity
  8
0
100
AcDbBlockEnd
  0
BLOCK
  5
71
100
AcDbEntity
  8
0
100
AcDbBlockBegin
  2
CLUMP4
 70
         0
 10
0.0
 20
0.0
 30
0.0
  3

  1

  0
INSERT
  5
73
100
AcDbEntity
  8
0
100
AcDbBlockReference
  2
CLUMP5
 10
0.0
 20
0.0
 30
0.0
  0
ENDBLK
  5
7D
100
AcDbEntity
  8
0
100
AcDbBlockEnd
  0
BLOCK
  5
74
100
AcDbEntity
  8
0
100
AcDbBlockBegin
  2
CLUMP5
 70
         0
 10
0.0
 20
0.0
 30
0.0
  3

  1

  0
LINE
  5
75
100
AcDbEntity
  8
LAYER0
 62
         3
100
AcDbLine
 10
30.203495969
 20
21.0302896891
 30
0.0
 11
30.3739507573
 21
21.1152163334
 31
0.0
  0
LINE
  5
76
100
AcDbEntity
  8
LAYER0
 62
         3
100
AcDbLine
 10
30.3739507573
 20
21.1152163334
 30
0.0
 11
30.5394165038
 21
21.1970880019
 31
0.0
  0
LINE
  5
77
100
AcDbEntity
  8
LAYER0
 62
         3
100
AcDbLine
 10
30.5394165038
 20
21.1970880019
 30
0.0
 11
30.6950501911
 21
21.2735083922
 31
0.0
  0
LINE
  5
78
100
AcDbEntity
  8
LAYER0
 62
         3
100
AcDbLine
 10
30.6950501911
 20
21.2735083922
 30
0.0
 11
30.836296576
 21
21.3422407559
 31
0.0
  0
LINE
  5
79
100
AcDbEntity
  8
LAYER0
 62
         3
100
AcDbLine
 10
30.836296576
 20
21.3422407559
 30
0.0
 11
30.9590215178
 21
21.4012733651
 31
0.0
  0
LINE
  5
7A
100
AcDbEntity
  8
LAYER0
 62
         3
100
AcDbLine
 10
30.9590215178
 20
21.4012733651
 30
0.0
 11
31.0596329797
 21
21.4488783941
 31
0.0
  0
LINE
  5
7B
100
AcDbEntity
  8
LAYER0
 62
         3
100
AcDbLine
 10
31.0596329797
 20
21.4488783941
 30
0.0
 11
30.203495969
 21
21.0302896891
 31
0.0
  0
ENDBLK
  5
7C
100
AcDbEntity
  8
0
100
AcDbBlockEnd
  0
BLOCK
  5
80
100
AcDbEntity
  8
0
100
AcDbBlockBegin
  2
CLUMP6
 70
         0
 10
0.0
 20
0.0
 30
0.0
  3

  1

  0
INSERT
  5
82
100
AcDbEntity
  8
0
100
AcDbBlockReference
  2
CLUMP7
 10
0.0
 20
0.0
 30
0.0
  0
ENDBLK
  5
91
100
AcDbEntity
  8
0
100
AcDbBlockEnd
  0
BLOCK
  5
83
100
AcDbEntity
  8
0
100
AcDbBlockBegin
  2
CLUMP7
 70
         0
 10
0.0
 20
0.0
 30
0.0
  3

  1

  0
LINE
  5
84
100
AcDbEntity
  8
LAYER0
 62
         3
100
AcDbLine
 10
31.203495969
 20
2.8056685278
 30
0.0
 11
31.2035171876
 21
2.802598318
 31
0.0
  0
LINE
  5
85
100
AcDbEntity
  8
LAYER0
 62
         3
100
AcDbLine
 10
31.2035171876
 20
2.802598318
 30
0.0
 11
31.2065187847
 21
2.7692179509
 31
0.0
  0
LINE
  5
86
100
AcDbEntity
  8
LAYER0
 62
         3
100
AcDbLine
 10
31.2065187847
 20
2.7692179509
 30
0.0
 11
31.2146412981
 21
2.7359369291
 31
0.0
  0
LINE
  5
87
100
AcDbEntity
  8
LAYER0
 62
         3
100
AcDbLine
 10
31.2146412981
 20
2.7359369291
 30
0.0
 11
31.2277380125
 21
2.7028496112
 31
0.0
  0
LINE
  5
88
100
AcDbEntity
  8
LAYER0
 62
         3
100
AcDbLine
 10
31.2277380125
 20
2.7028496112
 30
0.0
 11
31.2456622123
 21
2.6700503556
 31
0.0
  0
LINE
  5
89
100
AcDbEntity
  8
LAYER0
 62
         3
100
AcDbLine
 10
31.2456622123
 20
2.6700503556
 30
0.0
 11
31.2722068125
 21
2.6327950884
 31
0.0
  0
LINE
  5
8A
100
AcDbEntity
  8
LAYER0
 62
         3
100
AcDbLine
 10
31.2722068125
 20
2.6327950884
 30
0.0
 11
31.305325351
 21
2.596532152
 31
0.0
  0
LINE
  5
8B
100
AcDbEntity
  8
LAYER0
 62
         3
100
AcDbLine
 10
31.305325351
 20
2.596532152
 30
0.0
 11
31.3453774814
 21
2.5617461677
 31
0.0
  0
LINE
  5
8C
100
AcDbEntity
  8
LAYER0
 62
         3
100
AcDbLine
 10
31.3453774814
 20
2.5617461677
 30
0.0
 11
31.3927228574
 21
2.5289217566
 31
0.0
  0
LINE
  5
8D
100
AcDbEntity
  8
LAYER0
 62
         3
100
AcDbLine
 10
31.3927228574
 20
2.5289217566
 30
0.0
 11
31.4475056904
 21
2.498278125
 31
0.0
  0
LINE
  5
8E
100
AcDbEntity
  8
LAYER0
 62
         3
100
AcDbLine
 10
31.4475056904
 20
2.498278125
 30
0.0
 11
31.5080605014
 21
2.4694794649
 31
0.0
  0
LINE
  5
8F
100
AcDbEntity
  8
LAYER0
 62
         3
100
AcDbLine
 10
31.5080605014
 20
2.4694794649
 30
0.0
 11
31.6387900866
 21
2.4149570969
 31
0.0
  0
ENDBLK
  5
90
100
AcDbEntity
  8
0
100
AcDbBlockEnd
  0
BLOCK
  5
94
100
AcDbEntity
  8
0
100
AcDbBlockBegin
  2
CLUMP8
 70
         0
 10
0.0
 20
0.0
 30
0.0
  3

  1

  0
INSERT
  5
96
100
AcDbEntity
  8
0
100
AcDbBlockReference
  2
CLUMP9
 10
0.0
 20
0.0
 30
0.0
  0
ENDBLK
  5
A5
100
AcDbEntity
  8
0
100
AcDbBlockEnd
  0
BLOCK
  5
97
100
AcDbEntity
  8
0
100
AcDbBlockBegin
  2
CLUMP9
 70
         0
 10
0.0
 20
0.0
 30
0.0
  3

  1

  0
LINE
  5
98
100
AcDbEntity
  8
LAYER0
 62
         3
100
AcDbLine
 10
23.603495969
 20
2.8056685278
 30
0.0
 11
23.6034747504
 21
2.802598318
 31
0.0
  0
LINE
  5
99
100
AcDbEntity
  8
LAYER0
 62
         3
100
AcDbLine
 10
23.6034747504
 20
2.802598318
 30
0.0
 11
23.6004731533
 21
2.7692179509
 31
0.0
  0
LINE
  5
9A
100
AcDbEntity
  8
LAYER0
 62
         3
100
AcDbLine
 10
23.6004731533
 20
2.7692179509
 30
0.0
 11
23.5923506399
 21
2.7359369291
 31
0.0
  0
LINE
  5
9B
100
AcDbEntity
  8
LAYER0
 62
         3
100
AcDbLine
 10
23.5923506399
 20
2.7359369291
 30
0.0
 11
23.5792539255
 21
2.7028496112
 31
0.0
  0
LINE
  5
9C
100
AcDbEntity
  8
LAYER0
 62
         3
100
AcDbLine
 10
23.5792539255
 20
2.7028496112
 30
0.0
 11
23.5613297257
 21
2.6700503556
 31
0.0
  0
LINE
  5
9D
100
AcDbEntity
  8
LAYER0
 62
         3
100
AcDbLine
 10
23.5613297257
 20
2.6700503556
 30
0.0
 11
23.5347851255
 21
2.6327950884
 31
0.0
  0
LINE
  5
9E
100
AcDbEntity
  8
LAYER0
 62
         3
100
AcDbLine
 10
23.5347851255
 20
2.6327950884
 30
0.0
 11
23.501666587
 21
2.596532152
 31
0.0
  0
LINE
  5
9F
100
AcDbEntity
  8
LAYER0
 62
         3
100
AcDbLine
 10
23.501666587
 20
2.596532152
 30
0.0
 11
23.4616144566
 21
2.5617461677
 31
0.0
  0
LINE
  5
A0
100
AcDbEntity
  8
LAYER0
 62
         3
100
AcDbLine
 10
23.4616144566
 20
2.5617461677
 30
0.0
 11
23.4142690806
 21
2.5289217566
 31
0.0
  0
LINE
  5
A1
100
AcDbEntity
  8
LAYER0
 62
         3
100
AcDbLine
 10
23.4142690806
 20
2.5289217566
 30
0.0
 11
23.3594862476
 21
2.498278125
 31
0.0
  0
LINE
  5
A2
100
AcDbEntity
  8
LAYER0
 62
         3
100
AcDbLine
 10
23.3594862476
 20
2.498278125
 30
0.0
 11
23.2989314366
 21
2.4694794649
 31
0.0
  0
LINE
  5
A3
100
AcDbEntity
  8
LAYER0
 62
         3
100
AcDbLine
 10
23.2989314366
 20
2.4694794649
 30
0.0
 11
23.1682018514
 21
2.4149570969
 31
0.0
  0
ENDBLK
  5
A4
100
AcDbEntity
  8
0
100
AcDbBlockEnd
  0
BLOCK
  5
A8
100
AcDbEntity
  8
0
100
AcDbBlockBegin
  2
CLUMP10
 70
         0
 10
0.0
 20
0.0
 30
0.0
  3

  1

  0
INSERT
  5
AA
100
AcDbEntity
  8
0
100
AcDbBlockReference
  2
CLUMP11
 10
0.0
 20
0.0
 30
0.0
  0
ENDBLK
  5
B1
100
AcDbEntity
  8
0
100
AcDbBlockEnd
  0
BLOCK
  5
AB
100
AcDbEntity
  8
0
100
AcDbBlockBegin
  2
CLUMP11
 70
         0
 10
0.0
 20
0.0
 30
0.0
  3

  1

  0
LINE
  5
AC
100
AcDbEntity
  8
LAYER0
 62
         3
100
AcDbLine
 10
23.603495969
 20
21.5947487283
 30
0.0
 11
23.619834748
 21
21.5439291598
 31
0.0
  0
LINE
  5
AD
100
AcDbEntity
  8
LAYER0
 62
         3
100
AcDbLine
 10
23.619834748
 20
21.5439291598
 30
0.0
 11
23.6683171735
 21
21.4947702506
 31
0.0
  0
LINE
  5
AE
100
AcDbEntity
  8
LAYER0
 62
         3
100
AcDbLine
 10
23.6683171735
 20
21.4947702506
 30
0.0
 11
23.7473589583
 21
21.448878394
 31
0.0
  0
LINE
  5
AF
100
AcDbEntity
  8
LAYER0
 62
         3
100
AcDbLine
 10
23.7473589583
 20
21.448878394
 30
0.0
 11
23.603495969
 21
21.5947487283
 31
0.0
  0
ENDBLK
  5
B0
100
AcDbEntity
  8
0
100
AcDbBlockEnd
  0
BLOCK
  5
100
100
AcDbEntity
  8
0
100
AcDbBlockBegin
  2
CLUMP12
 70
         0
 10
0.0
 20
0.0
 30
0.0
  3

  1

  0
INSERT
  5
102
100
AcDbEntity
  8
0
100
AcDbBlockReference
  2
CLUMP13
 10
0.0
 20
0.0
 30
0.0
  0
ENDBLK
  5
10D
100
AcDbEntity
  8
0
100
AcDbBlockEnd
  0
BLOCK
  5
103
100
AcDbEntity
  8
0
100
AcDbBlockBegin
  2
CLUMP13
 70
         0
 10
0.0
 20
0.0
 30
0.0
  3

  1

  0
LINE
  5
104
100
AcDbEntity
  8
LAYER0
 62
         3
100
AcDbLine
 10
-6.8747389008
 20
2.8056685278
 30
0.0
 11
-6.8812532557
 21
2.802598318
 31
0.0
  0
LINE
  5
105
100
AcDbEntity
  8
LAYER0
 62
         3
100
AcDbLine
 10
-6.8812532557
 20
2.802598318
 30
0.0
 11
-7.1620618802
 21
2.6700503556
 31
0.0
  0
LINE
  5
106
100
AcDbEntity
  8
LAYER0
 62
         3
100
AcDbLine
 10
-7.1620618802
 20
2.6700503556
 30
0.0
 11
-7.3174425437
 21
2.596532152
 31
0.0
  0
LINE
  5
107
100
AcDbEntity
  8
LAYER0
 62
         3
100
AcDbLine
 10
-7.3174425437
 20
2.596532152
 30
0.0
 11
-7.3908704464
 21
2.5617461677
 31
0.0
  0
LINE
  5
108
100
AcDbEntity
  8
LAYER0
 62
         3
100
AcDbLine
 10
-7.3908704464
 20
2.5617461677
 30
0.0
 11
-7.4600994405
 21
2.5289217566
 31
0.0
  0
LINE
  5
109
100
AcDbEntity
  8
LAYER0
 62
         3
100
AcDbLine
 10
-7.4600994405
 20
2.5289217566
 30
0.0
 11
-7.5246728204
 21
2.498278125
 31
0.0
  0
LINE
  5
10A
100
AcDbEntity
  8
LAYER0
 62
         3
100
AcDbLine
 10
-7.5246728204
 20
2.498278125
 30
0.0
 11
-7.5853115228
 21
2.4694794649
 31
0.0
  0
LINE
  5
10B
100
AcDbEntity
  8
LAYER0
 62
         3
100
AcDbLine
 10
-7.5853115228
 20
2.4694794649
 30
0.0
 11
-7.7000311318
 21
2.4149570969
 31
0.0
  0
ENDBLK
  5
10C
100
AcDbEntity
  8
0
100
AcDbBlockEnd
  0
BLOCK
  5
110
100
AcDbEntity
  8
0
100
AcDbBlockBegin
  2
CLUMP14
 70
         0
 10
0.0
 20
0.0
 30
0.0
  3

  1

  0
INSERT
  5
112
100
AcDbEntity
  8
0
100
AcDbBlockReference
  2
CLUMP15
 10
0.0
 20
0.0
 30
0.0
  0
ENDBLK
  5
126
100
AcDbEntity
  8
0
100
AcDbBlockEnd
  0
BLOCK
  5
113
100
AcDbEntity
  8
0
100
AcDbBlockBegin
  2
CLUMP15
 70
         0
 10
0.0
 20
0.0
 30
0.0
  3

  1

  0
LINE
  5
114
100
AcDbEntity
  8
LAYER0
 62
         3
100
AcDbLine
 10
-7.8062103653
 20
2.3914549654
 30
0.0
 11
-7.9994243182
 21
2.55224095
 31
0.0
  0
LINE
  5
115
100
AcDbEntity
  8
LAYER0
 62
         3
100
AcDbLine
 10
-7.9994243182
 20
2.55224095
 30
0.0
 11
-8.8821784651
 21
3.2735611195
 31
0.0
  0
LINE
  5
116
100
AcDbEntity
  8
LAYER0
 62
         3
100
AcDbLine
 10
-8.8821784651
 20
3.2735611195
 30
0.0
 11
-9.7868106109
 21
3.9694382691
 31
0.0
  0
LINE
  5
117
100
AcDbEntity
  8
LAYER0
 62
         3
100
AcDbLine
 10
-9.7868106109
 20
3.9694382691
 30
0.0
 11
-10.7249306113
 21
4.6142327482
 31
0.0
  0
LINE
  5
118
100
AcDbEntity
  8
LAYER0
 62
         3
100
AcDbLine
 10
-10.7249306113
 20
4.6142327482
 30
0.0
 11
-11.7081483219
 21
5.1823049063
 31
0.0
  0
LINE
  5
119
100
AcDbEntity
  8
LAYER0
 62
         3
100
AcDbLine
 10
-11.7081483219
 20
5.1823049063
 30
0.0
 11
-12.2670091766
 21
5.4434246894
 31
0.0
  0
LINE
  5
11A
100
AcDbEntity
  8
LAYER0
 62
         3
100
AcDbLine
 10
-12.2670091766
 20
5.4434246894
 30
0.0
 11
-12.848713255
 21
5.6473105747
 31
0.0
  0
LINE
  5
11B
100
AcDbEntity
  8
LAYER0
 62
         3
100
AcDbLine
 10
-12.848713255
 20
5.6473105747
 30
0.0
 11
-13.4671242342
 21
5.77195474
 31
0.0
  0
LINE
  5
11C
100
AcDbEntity
  8
LAYER0
 62
         3
100
AcDbLine
 10
-13.4671242342
 20
5.77195474
 30
0.0
 11
-14.0970866982
 21
5.7924079091
 31
0.0
  0
LINE
  5
11D
100
AcDbEntity
  8
LAYER0
 62
         3
100
AcDbLine
 10
-14.0970866982
 20
5.7924079091
 30
0.0
 11
-14.5859793137
 21
5.7292100771
 31
0.0
  0
LINE
  5
11E
100
AcDbEntity
  8
LAYER0
 62
         3
100
AcDbLine
 10
-14.5859793137
 20
5.7292100771
 30
0.0
 11
-15.0655875046
 21
5.606284907
 31
0.0
  0
LINE
  5
11F
100
AcDbEntity
  8
LAYER0
 62
         3
100
AcDbLine
 10
-15.0655875046
 20
5.606284907
 30
0.0
 11
-15.5293748388
 21
5.4362390556
 31
0.0
  0
LINE
  5
120
100
AcDbEntity
  8
LAYER0
 62
         3
100
AcDbLine
 10
-15.5293748388
 20
5.4362390556
 30
0.0
 11
-16.4377138644
 21
4.9912785559
 31
0.0
  0
LINE
  5
121
100
AcDbEntity
  8
LAYER0
 62
         3
100
AcDbLine
 10
-16.4377138644
 20
4.9912785559
 30
0.0
 11
-17.3007169541
 21
4.4566971679
 31
0.0
  0
LINE
  5
122
100
AcDbEntity
  8
LAYER0
 62
         3
100
AcDbLine
 10
-17.3007169541
 20
4.4566971679
 30
0.0
 11
-18.128807231
 21
3.8625997193
 31
0.0
  0
LINE
  5
123
100
AcDbEntity
  8
LAYER0
 62
         3
100
AcDbLine
 10
-18.128807231
 20
3.8625997193
 30
0.0
 11
-18.9324078182
 21
3.2390910378
 31
0.0
  0
LINE
  5
124
100
AcDbEntity
  8
LAYER0
 62
         3
100
AcDbLine
 10
-18.9324078182
 20
3.2390910378
 30
0.0
 11
-19.9732353621
 21
2.3914549654
 31
0.0
  0
ENDBLK
  5
125
100
AcDbEntity
  8
0
100
AcDbBlockEnd
  0
BLOCK
  5
129
100
AcDbEntity
  8
0
100
AcDbBlockBegin
  2
CLUMP16
 70
         0
 10
0.0
 20
0.0
 30
0.0
  3

  1

  0
INSERT
  5
12B
100
AcDbEntity
  8
0
100
AcDbBlockReference
  2
CLUMP17
 10
0.0
 20
0.0
 30
0.0
  0
ENDBLK
  5
13E
100
AcDbEntity
  8
0
100
AcDbBlockEnd
  0
BLOCK
  5
12C
100
AcDbEntity
  8
0
100
AcDbBlockBegin
  2
CLUMP17
 70
         0
 10
0.0
 20
0.0
 30
0.0
  3

  1

  0
LINE
  5
12D
100
AcDbEntity
  8
LAYER0
 62
         3
100
AcDbLine
 10
-20.9047068267
 20
2.8056685278
 30
0.0
 11
-19.4684152834
 21
3.946197819
 31
0.0
  0
LINE
  5
12E
100
AcDbEntity
  8
LAYER0
 62
         3
100
AcDbLine
 10
-19.4684152834
 20
3.946197819
 30
0.0
 11
-18.6018968813
 21
4.584137365
 31
0.0
  0
LINE
  5
12F
100
AcDbEntity
  8
LAYER0
 62
         3
100
AcDbLine
 10
-18.6018968813
 20
4.584137365
 30
0.0
 11
-17.7048273538
 21
5.1833401568
 31
0.0
  0
LINE
  5
130
100
AcDbEntity
  8
LAYER0
 62
         3
100
AcDbLine
 10
-17.7048273538
 20
5.1833401568
 30
0.0
 11
-16.7698507621
 21
5.7132587841
 31
0.0
  0
LINE
  5
131
100
AcDbEntity
  8
LAYER0
 62
         3
100
AcDbLine
 10
-16.7698507621
 20
5.7132587841
 30
0.0
 11
-15.7896111672
 21
6.1433458368
 31
0.0
  0
LINE
  5
132
100
AcDbEntity
  8
LAYER0
 62
         3
100
AcDbLine
 10
-15.7896111672
 20
6.1433458368
 30
0.0
 11
-14.9739993567
 21
6.3838888202
 31
0.0
  0
LINE
  5
133
100
AcDbEntity
  8
LAYER0
 62
         3
100
AcDbLine
 10
-14.9739993567
 20
6.3838888202
 30
0.0
 11
-14.1328580303
 21
6.4995146903
 31
0.0
  0
LINE
  5
134
100
AcDbEntity
  8
LAYER0
 62
         3
100
AcDbLine
 10
-14.1328580303
 20
6.4995146903
 30
0.0
 11
-13.3990282321
 21
6.4798346042
 31
0.0
  0
LINE
  5
135
100
AcDbEntity
  8
LAYER0
 62
         3
100
AcDbLine
 10
-13.3990282321
 20
6.4798346042
 30
0.0
 11
-12.6752731253
 21
6.3544173559
 31
0.0
  0
LINE
  5
136
100
AcDbEntity
  8
LAYER0
 62
         3
100
AcDbLine
 10
-12.6752731253
 20
6.3544173559
 30
0.0
 11
-12.0169432756
 21
6.1532330748
 31
0.0
  0
LINE
  5
137
100
AcDbEntity
  8
LAYER0
 62
         3
100
AcDbLine
 10
-12.0169432756
 20
6.1532330748
 30
0.0
 11
-11.3805719795
 21
5.8894116875
 31
0.0
  0
LINE
  5
138
100
AcDbEntity
  8
LAYER0
 62
         3
100
AcDbLine
 10
-11.3805719795
 20
5.8894116875
 30
0.0
 11
-10.3316626222
 21
5.3372175949
 31
0.0
  0
LINE
  5
139
100
AcDbEntity
  8
LAYER0
 62
         3
100
AcDbLine
 10
-10.3316626222
 20
5.3372175949
 30
0.0
 11
-9.3306441223
 21
4.6962942136
 31
0.0
  0
LINE
  5
13A
100
AcDbEntity
  8
LAYER0
 62
         3
100
AcDbLine
 10
-9.3306441223
 20
4.6962942136
 30
0.0
 11
-8.3674253843
 21
3.9944135802
 31
0.0
  0
LINE
  5
13B
100
AcDbEntity
  8
LAYER0
 62
         3
100
AcDbLine
 10
-8.3674253843
 20
3.9944135802
 30
0.0
 11
-7.431915313
 21
3.2593477312
 31
0.0
  0
LINE
  5
13C
100
AcDbEntity
  8
LAYER0
 62
         3
100
AcDbLine
 10
-7.431915313
 20
3.2593477312
 30
0.0
 11
-6.8747389008
 21
2.8056685278
 31
0.0
  0
ENDBLK
  5
13D
100
AcDbEntity
  8
0
100
AcDbBlockEnd
  0
BLOCK
  5
16F
100
AcDbEntity
  8
0
100
AcDbBlockBegin
  2
CLUMP18
 70
         0
 10
0.0
 20
0.0
 30
0.0
  3

  1

  0
INSERT
  5
171
100
AcDbEntity
  8
0
100
AcDbBlockReference
  2
CLUMP19
 10
0.0
 20
0.0
 30
0.0
  0
ENDBLK
  5
17C
100
AcDbEntity
  8
0
100
AcDbBlockEnd
  0
BLOCK
  5
172
100
AcDbEntity
  8
0
100
AcDbBlockBegin
  2
CLUMP19
 70
         0
 10
0.0
 20
0.0
 30
0.0
  3

  1

  0
LINE
  5
173
100
AcDbEntity
  8
LAYER0
 62
         3
100
AcDbLine
 10
-20.9047068267
 20
2.8056685278
 30
0.0
 11
-20.8981924717
 21
2.802598318
 31
0.0
  0
LINE
  5
174
100
AcDbEntity
  8
LAYER0
 62
         3
100
AcDbLine
 10
-20.8981924717
 20
2.802598318
 30
0.0
 11
-20.6173838473
 21
2.6700503556
 31
0.0
  0
LINE
  5
175
100
AcDbEntity
  8
LAYER0
 62
         3
100
AcDbLine
 10
-20.6173838473
 20
2.6700503556
 30
0.0
 11
-20.4620031838
 21
2.596532152
 31
0.0
  0
LINE
  5
176
100
AcDbEntity
  8
LAYER0
 62
         3
100
AcDbLine
 10
-20.4620031838
 20
2.596532152
 30
0.0
 11
-20.388575281
 21
2.5617461677
 31
0.0
  0
LINE
  5
177
100
AcDbEntity
  8
LAYER0
 62
         3
100
AcDbLine
 10
-20.388575281
 20
2.5617461677
 30
0.0
 11
-20.3193462869
 21
2.5289217566
 31
0.0
  0
LINE
  5
178
100
AcDbEntity
  8
LAYER0
 62
         3
100
AcDbLine
 10
-20.3193462869
 20
2.5289217566
 30
0.0
 11
-20.254772907
 21
2.498278125
 31
0.0
  0
LINE
  5
179
100
AcDbEntity
  8
LAYER0
 62
         3
100
AcDbLine
 10
-20.254772907
 20
2.498278125
 30
0.0
 11
-20.1941342046
 21
2.4694794649
 31
0.0
  0
LINE
  5
17A
100
AcDbEntity
  8
LAYER0
 62
         3
100
AcDbLine
 10
-20.1941342046
 20
2.4694794649
 30
0.0
 11
-20.0794145957
 21
2.4149570969
 31
0.0
  0
ENDBLK
  5
17B
100
AcDbEntity
  8
0
100
AcDbBlockEnd
  0
ENDSEC
  0
SECTION
  2
ENTITIES
  0
INSERT
  5
2F
100
AcDbEntity
  8
0
100
AcDbBlockReference
  2
CLUMP0
 10
0.0
 20
0.0
 30
0.0
  0
ARC
  5
3E
100
AcDbEntity
  8
LAYER0
 62
         3
100
AcDbCircle
 10
30.734745969
 20
25.1381255367
 30
0.0
 40
0.4701368373
210
0.0
220
-0.0
230
1.0
100
AcDbArc
 50
4.4019497274
 51
93.8112626497
  0
LINE
  5
3F
100
AcDbEntity
  8
LAYER0
 62
         3
100
AcDbLine
 10
30.703495969
 20
25.6072226304
 30
0.0
 11
29.903495969
 21
25.6072226304
 31
0.0
  0
LINE
  5
41
100
AcDbEntity
  8
LAYER1
 62
         3
100
AcDbLine
 10
32.0034956054
 20
27.8914571835
 30
0.0
 11
32.0034956054
 21
11.8914571835
 31
0.0
  0
LINE
  5
42
100
AcDbEntity
  8
LAYER0
 62
         3
100
AcDbLine
 10
36.903495969
 20
11.8914571835
 30
0.0
 11
32.0034956054
 21
11.8914571835
 31
0.0
  0
LINE
  5
43
100
AcDbEntity
  8
LAYER1
 62
         3
100
AcDbLine
 10
37.2034954594
 20
22.3914580351
 30
0.0
 11
37.2034954594
 21
17.3914553529
 31
0.0
  0
LINE
  5
44
100
AcDbEntity
  8
LAYER1
 62
         3
100
AcDbLine
 10
37.2034954594
 20
17.3914553529
 30
0.0
 11
36.903495969
 21
17.3914553529
 31
0.0
  0
LINE
  5
45
100
AcDbEntity
  8
LAYER1
 62
         3
100
AcDbLine
 10
36.903495969
 20
22.3914580351
 30
0.0
 11
37.2034954594
 21
22.3914580351
 31
0.0
  0
LINE
  5
46
100
AcDbEntity
  8
LAYER0
 62
         3
100
AcDbLine
 10
36.903495969
 20
27.8914571835
 30
0.0
 11
36.903495969
 21
11.8914571835
 31
0.0
  0
LINE
  5
47
100
AcDbEntity
  8
LAYER0
 62
         3
100
AcDbLine
 10
36.903495969
 20
27.8914571835
 30
0.0
 11
32.0034956054
 21
27.8914571835
 31
0.0
  0
LINE
  5
48
100
AcDbEntity
  8
LAYER1
 62
         3
100
AcDbLine
 10
22.8034963326
 20
27.8914571835
 30
0.0
 11
22.8034963326
 21
11.8914571835
 31
0.0
  0
LINE
  5
49
100
AcDbEntity
  8
LAYER0
 62
         3
100
AcDbLine
 10
17.903495969
 20
11.8914571835
 30
0.0
 11
22.8034963326
 21
11.8914571835
 31
0.0
  0
LINE
  5
4A
100
AcDbEntity
  8
LAYER0
 62
         3
100
AcDbLine
 10
17.903495969
 20
27.8914571835
 30
0.0
 11
22.8034963326
 21
27.8914571835
 31
0.0
  0
LINE
  5
4B
100
AcDbEntity
  8
LAYER0
 62
         3
100
AcDbLine
 10
17.903495969
 20
27.8914571835
 30
0.0
 11
17.903495969
 21
11.8914571835
 31
0.0
  0
LINE
  5
4C
100
AcDbEntity
  8
LAYER1
 62
         3
100
AcDbLine
 10
17.6034964786
 20
22.3914580351
 30
0.0
 11
17.6034964786
 21
17.3914553529
 31
0.0
  0
LINE
  5
4D
100
AcDbEntity
  8
LAYER1
 62
         3
100
AcDbLine
 10
17.6034964786
 20
17.3914553529
 30
0.0
 11
17.903495969
 21
17.3914553529
 31
0.0
  0
LINE
  5
4E
100
AcDbEntity
  8
LAYER1
 62
         3
100
AcDbLine
 10
17.903495969
 20
22.3914580351
 30
0.0
 11
17.6034964786
 21
22.3914580351
 31
0.0
  0
LINE
  5
4F
100
AcDbEntity
  8
LAYER0
 62
         3
100
AcDbLine
 10
24.903495969
 20
26.4914549654
 30
0.0
 11
24.103495969
 21
26.4914549654
 31
0.0
  0
ARC
  5
50
100
AcDbEntity
  8
LAYER0
 62
         3
100
AcDbCircle
 10
24.103495969
 20
25.9914549654
 30
0.0
 40
0.5
210
0.0
220
0.0
230
1.0
100
AcDbArc
 50
90.0000015352
 51
179.9999969295
  0
LINE
  5
51
100
AcDbEntity
  8
LAYER0
 62
         3
100
AcDbLine
 10
27.403495969
 20
22.4706662675
 30
0.0
 11
27.403495969
 21
23.0544179469
 31
0.0
  0
LINE
  5
52
100
AcDbEntity
  8
LAYER0
 62
         3
100
AcDbLine
 10
27.403495969
 20
25.52062009
 30
0.0
 11
27.403495969
 21
23.0544179469
 31
0.0
  0
LINE
  5
53
100
AcDbEntity
  8
LAYER0
 62
         3
100
AcDbLine
 10
27.403495969
 20
26.3914549654
 30
0.0
 11
27.403495969
 21
25.52062009
 31
0.0
  0
LINE
  5
54
100
AcDbEntity
  8
LAYER0
 62
         3
100
AcDbLine
 10
34.903495969
 20
2.3914549654
 30
0.0
 11
31.503785228
 21
5.7911657064
 31
0.0
  0
LINE
  5
55
100
AcDbEntity
  8
LAYER0
 62
         3
100
AcDbLine
 10
32.003495969
 20
22.8914549654
 30
0.0
 11
31.903495969
 21
22.8914549654
 31
0.0
  0
LINE
  5
56
100
AcDbEntity
  8
LAYER0
 62
         3
100
AcDbLine
 10
22.903495969
 20
22.8914549654
 30
0.0
 11
22.803495969
 21
22.8914549654
 31
0.0
  0
LINE
  5
57
100
AcDbEntity
  8
LAYER0
 62
         3
100
AcDbLine
 10
22.803495969
 20
16.8914549654
 30
0.0
 11
22.903495969
 21
16.8914549654
 31
0.0
  0
LINE
  5
58
100
AcDbEntity
  8
LAYER0
 62
         3
100
AcDbLine
 10
31.903495969
 20
16.8914549654
 30
0.0
 11
32.003495969
 21
16.8914549654
 31
0.0
  0
LINE
  5
59
100
AcDbEntity
  8
LAYER0
 62
         3
100
AcDbLine
 10
29.903495969
 20
26.3914549654
 30
0.0
 11
27.403495969
 21
26.3914549654
 31
0.0
  0
LINE
  5
5A
100
AcDbEntity
  8
LAYER0
 62
         3
100
AcDbLine
 10
27.403495969
 20
26.3914549654
 30
0.0
 11
24.903495969
 21
26.3914549654
 31
0.0
  0
ARC
  5
5B
100
AcDbEntity
  8
LAYER0
 62
         3
100
AcDbCircle
 10
32.2034707454
 20
6.5055884012
 30
0.0
 40
0.9999747793
210
0.0
220
0.0
230
1.0
100
AcDbArc
 50
180.1065048359
 51
225.7243381048
  0
ARC
  5
5C
100
AcDbEntity
  8
LAYER0
 62
         3
100
AcDbCircle
 10
22.6035212584
 20
6.5055883834
 30
0.0
 40
0.9999747135
210
0.0
220
0.0
230
1.0
100
AcDbArc
 50
314.4660109603
 51
359.8934931097
  0
LINE
  5
5D
100
AcDbEntity
  8
LAYER0
 62
         3
100
AcDbLine
 10
23.603495969
 20
21.5947487283
 30
0.0
 11
23.603495969
 21
25.1742099285
 31
0.0
  0
LINE
  5
5E
100
AcDbEntity
  8
LAYER0
 62
         3
100
AcDbLine
 10
31.7899382269
 20
2.3914549654
 30
0.0
 11
31.6387900866
 21
2.4149570969
 31
0.0
  0
LINE
  5
5F
100
AcDbEntity
  8
LAYER0
 62
         3
100
AcDbLine
 10
23.30320671
 20
5.7911657064
 30
0.0
 11
19.903495969
 21
2.3914549654
 31
0.0
  0
LINE
  5
60
100
AcDbEntity
  8
LAYER0
 62
         3
100
AcDbLine
 10
31.903495969
 20
23.8914549654
 30
0.0
 11
31.203495969
 21
23.8914549654
 31
0.0
  0
LINE
  5
61
100
AcDbEntity
  8
LAYER0
 62
         3
100
AcDbLine
 10
31.203495969
 20
15.8914549654
 30
0.0
 11
31.903495969
 21
15.8914549654
 31
0.0
  0
LINE
  5
62
100
AcDbEntity
  8
LAYER0
 62
         3
100
AcDbLine
 10
22.903495969
 20
15.8914549654
 30
0.0
 11
23.603495969
 21
15.8914549654
 31
0.0
  0
INSERT
  5
64
100
AcDbEntity
  8
0
100
AcDbBlockReference
  2
CLUMP2
 10
0.0
 20
0.0
 30
0.0
  0
INSERT
  5
70
100
AcDbEntity
  8
0
100
AcDbBlockReference
  2
CLUMP4
 10
0.0
 20
0.0
 30
0.0
  0
INSERT
  5
7F
100
AcDbEntity
  8
0
100
AcDbBlockReference
  2
CLUMP6
 10
0.0
 20
0.0
 30
0.0
  0
INSERT
  5
93
100
AcDbEntity
  8
0
100
AcDbBlockReference
  2
CLUMP8
 10
0.0
 20
0.0
 30
0.0
  0
INSERT
  5
A7
100
AcDbEntity
  8
0
100
AcDbBlockReference
  2
CLUMP10
 10
0.0
 20
0.0
 30
0.0
  0
LINE
  5
B2
100
AcDbEntity
  8
LAYER0
 62
         3
100
AcDbLine
 10
24.903495969
 20
23.0544179469
 30
0.0
 11
27.403495969
 21
23.0544179469
 31
0.0
  0
LINE
  5
B3
100
AcDbEntity
  8
LAYER0
 62
         3
100
AcDbLine
 10
24.903495969
 20
25.52062009
 30
0.0
 11
27.403495969
 21
25.52062009
 31
0.0
  0
LINE
  5
B4
100
AcDbEntity
  8
LAYER0
 62
         3
100
AcDbLine
 10
30.203495969
 20
21.030289689
 30
0.0
 11
24.603495969
 21
21.030289689
 31
0.0
  0
LINE
  5
B5
100
AcDbEntity
  8
LAYER0
 62
         3
100
AcDbLine
 10
24.103495969
 20
25.6072226304
 30
0.0
 11
24.903495969
 21
25.6072226304
 31
0.0
  0
LINE
  5
B6
100
AcDbEntity
  8
LAYER0
 62
         3
100
AcDbLine
 10
24.903495969
 20
22.4706662675
 30
0.0
 11
24.903495969
 21
25.6072226304
 31
0.0
  0
LINE
  5
B7
100
AcDbEntity
  8
LAYER0
 62
         3
100
AcDbLine
 10
29.903495969
 20
22.4706662675
 30
0.0
 11
24.903495969
 21
22.4706662675
 31
0.0
  0
LINE
  5
B8
100
AcDbEntity
  8
LAYER0
 62
         3
100
AcDbLine
 10
29.903495969
 20
22.4706662675
 30
0.0
 11
29.903495969
 21
25.6072226304
 31
0.0
  0
LINE
  5
B9
100
AcDbEntity
  8
LAYER0
 62
         3
100
AcDbLine
 10
31.203495969
 20
25.1742099285
 30
0.0
 11
31.203495969
 21
21.5947487283
 31
0.0
  0
ARC
  5
BA
100
AcDbEntity
  8
LAYER0
 62
         3
100
AcDbCircle
 10
24.072245969
 20
25.1381255367
 30
0.0
 40
0.4701368373
210
0.0
220
-0.0
230
1.0
100
AcDbArc
 50
86.1887404207
 51
175.5980533431
  0
LINE
  5
BB
100
AcDbEntity
  8
LAYER0
 62
         3
100
AcDbLine
 10
31.498299809
 20
5.7856802873
 30
0.0
 11
31.4984154855
 21
5.7849061132
 31
0.0
  0
LINE
  5
BC
100
AcDbEntity
  8
LAYER0
 62
         3
100
AcDbLine
 10
23.1682018514
 20
2.4149570969
 30
0.0
 11
23.0170537111
 21
2.3914549654
 31
0.0
  0
LINE
  5
BD
100
AcDbEntity
  8
LAYER0
 62
         3
100
AcDbLine
 10
23.3085776028
 20
5.7849138114
 30
0.0
 11
23.308692129
 21
5.7856802873
 31
0.0
  0
LINE
  5
BE
100
AcDbEntity
  8
LAYER0
 62
         3
100
AcDbLine
 10
34.903495969
 20
2.3914549654
 30
0.0
 11
31.7899382269
 21
2.3914549654
 31
0.0
  0
LINE
  5
BF
100
AcDbEntity
  8
LAYER0
 62
         3
100
AcDbLine
 10
23.0170537111
 20
2.3914549654
 30
0.0
 11
19.903495969
 21
2.3914549654
 31
0.0
  0
LINE
  5
C0
100
AcDbEntity
  8
LAYER0
 62
         3
100
AcDbLine
 10
31.903495969
 20
19.8914549654
 30
0.0
 11
31.903495969
 21
23.8914549654
 31
0.0
  0
LINE
  5
C1
100
AcDbEntity
  8
LAYER0
 62
         3
100
AcDbLine
 10
31.903495969
 20
15.8914549654
 30
0.0
 11
31.903495969
 21
19.8914549654
 31
0.0
  0
LINE
  5
C2
100
AcDbEntity
  8
LAYER0
 62
         3
100
AcDbLine
 10
22.903495969
 20
19.8914549654
 30
0.0
 11
22.903495969
 21
23.8914549654
 31
0.0
  0
LINE
  5
C3
100
AcDbEntity
  8
LAYER0
 62
         3
100
AcDbLine
 10
22.903495969
 20
15.8914549654
 30
0.0
 11
22.903495969
 21
19.8914549654
 31
0.0
  0
LINE
  5
C4
100
AcDbEntity
  8
LAYER0
 62
         3
100
AcDbLine
 10
31.203495969
 20
25.9914549654
 30
0.0
 11
31.203495969
 21
25.1742099285
 31
0.0
  0
LINE
  5
C5
100
AcDbEntity
  8
LAYER0
 62
         3
100
AcDbLine
 10
29.903495969
 20
25.6072226304
 30
0.0
 11
29.903495969
 21
26.4914549654
 31
0.0
  0
LINE
  5
C6
100
AcDbEntity
  8
LAYER0
 62
         3
100
AcDbLine
 10
24.903495969
 20
25.6072226304
 30
0.0
 11
24.903495969
 21
26.4914549654
 31
0.0
  0
LINE
  5
C7
100
AcDbEntity
  8
LAYER0
 62
         3
100
AcDbLine
 10
23.603495969
 20
25.1742099285
 30
0.0
 11
23.603495969
 21
25.9914549654
 31
0.0
  0
LINE
  5
C8
100
AcDbEntity
  8
LAYER0
 62
         3
100
AcDbLine
 10
23.603495969
 20
23.8914549654
 30
0.0
 11
22.903495969
 21
23.8914549654
 31
0.0
  0
ARC
  5
C9
100
AcDbEntity
  8
LAYER0
 62
         3
100
AcDbCircle
 10
30.703495969
 20
25.9914549654
 30
0.0
 40
0.5
210
0.0
220
-0.0
230
1.0
100
AcDbArc
 50
0.0
 51
90.0000015352
  0
LINE
  5
CA
100
AcDbEntity
  8
LAYER0
 62
         3
100
AcDbLine
 10
30.703495969
 20
26.4914549654
 30
0.0
 11
29.903495969
 21
26.4914549654
 31
0.0
  0
ARC
  5
CB
100
AcDbEntity
  8
LAYER0
 62
         3
100
AcDbCircle
 10
20.403495969
 20
-3.6085450346
 30
0.0
 40
0.5
210
0.0
220
0.0
230
1.0
100
AcDbArc
 50
179.9999969295
 51
269.9999984648
  0
LINE
  5
CC
100
AcDbEntity
  8
LAYER0
 62
         3
100
AcDbLine
 10
31.5133040348
 20
-4.0242798407
 30
0.0
 11
31.4644889381
 21
-4.0704848008
 31
0.0
  0
LINE
  5
CD
100
AcDbEntity
  8
LAYER0
 62
         3
100
AcDbLine
 10
31.5560908249
 20
-3.9620984252
 30
0.0
 11
31.5133040348
 21
-4.0242798407
 31
0.0
  0
LINE
  5
CE
100
AcDbEntity
  8
LAYER0
 62
         3
100
AcDbLine
 10
31.591205036
 20
-3.8863301511
 30
0.0
 11
31.5560908249
 21
-3.9620984252
 31
0.0
  0
LINE
  5
CF
100
AcDbEntity
  8
LAYER0
 62
         3
100
AcDbLine
 10
31.6172972488
 20
-3.7998867508
 30
0.0
 11
31.591205036
 21
-3.8863301511
 31
0.0
  0
LINE
  5
D0
100
AcDbEntity
  8
LAYER0
 62
         3
100
AcDbLine
 10
31.6333647541
 20
-3.7060901956
 30
0.0
 11
31.6172972488
 21
-3.7998867508
 31
0.0
  0
LINE
  5
D1
100
AcDbEntity
  8
LAYER0
 62
         3
100
AcDbLine
 10
31.6387900866
 20
-3.6085450346
 30
0.0
 11
31.6333647541
 21
-3.7060901956
 31
0.0
  0
LINE
  5
D2
100
AcDbEntity
  8
LAYER0
 62
         3
100
AcDbLine
 10
23.1736271839
 20
-3.7060901956
 30
0.0
 11
23.1682018514
 21
-3.6085450346
 31
0.0
  0
LINE
  5
D3
100
AcDbEntity
  8
LAYER0
 62
         3
100
AcDbLine
 10
23.1896946892
 20
-3.7998867508
 30
0.0
 11
23.1736271839
 21
-3.7060901956
 31
0.0
  0
LINE
  5
D4
100
AcDbEntity
  8
LAYER0
 62
         3
100
AcDbLine
 10
23.215786902
 20
-3.8863301511
 30
0.0
 11
23.1896946892
 21
-3.7998867508
 31
0.0
  0
LINE
  5
D5
100
AcDbEntity
  8
LAYER0
 62
         3
100
AcDbLine
 10
23.2509011131
 20
-3.9620984252
 30
0.0
 11
23.215786902
 21
-3.8863301511
 31
0.0
  0
LINE
  5
D6
100
AcDbEntity
  8
LAYER0
 62
         3
100
AcDbLine
 10
23.2936879032
 20
-4.0242798407
 30
0.0
 11
23.2509011131
 21
-3.9620984252
 31
0.0
  0
LINE
  5
D7
100
AcDbEntity
  8
LAYER0
 62
         3
100
AcDbLine
 10
23.3425029999
 20
-4.0704848008
 30
0.0
 11
23.2936879032
 21
-4.0242798407
 31
0.0
  0
LINE
  5
D8
100
AcDbEntity
  8
LAYER0
 62
         3
100
AcDbLine
 10
23.3954704663
 20
-4.0989376748
 30
0.0
 11
23.3425029999
 21
-4.0704848008
 31
0.0
  0
LINE
  5
D9
100
AcDbEntity
  8
LAYER0
 62
         3
100
AcDbLine
 10
23.4505547925
 20
-4.1085450346
 30
0.0
 11
23.3954704663
 21
-4.0989376748
 31
0.0
  0
LINE
  5
DA
100
AcDbEntity
  8
LAYER0
 62
         3
100
AcDbLine
 10
31.4115214717
 20
-4.0989376748
 30
0.0
 11
31.3564371455
 21
-4.1085450346
 31
0.0
  0
LINE
  5
DB
100
AcDbEntity
  8
LAYER0
 62
         3
100
AcDbLine
 10
31.4644889381
 20
-4.0704848008
 30
0.0
 11
31.4115214717
 21
-4.0989376748
 31
0.0
  0
MTEXT
  5
DD
100
AcDbEntity
  8
LAYER3
100
AcDbMText
 10
25.003495969
 20
-33.6836025614
 30
0.0
 40
2.1473683357
 41
2.5646459961
 71
         1
 72
         1
  1
\W0.8;19
  0
LINE
  5
DE
100
AcDbEntity
  8
LAYER3
 62
         4
100
AcDbLine
 10
36.903495969
 20
-37.4712612528
 30
0.0
 11
33.9690531668
 21
-38.0949963252
 31
0.0
  0
LINE
  5
DF
100
AcDbEntity
  8
LAYER3
 62
         4
100
AcDbLine
 10
36.903495969
 20
-37.4712612528
 30
0.0
 11
33.9690531668
 21
-36.8475261803
 31
0.0
  0
LINE
  5
E0
100
AcDbEntity
  8
LAYER3
 62
         4
100
AcDbLine
 10
17.903495969
 20
-37.4712612528
 30
0.0
 11
20.8379387712
 21
-36.8475261803
 31
0.0
  0
LINE
  5
E1
100
AcDbEntity
  8
LAYER3
 62
         4
100
AcDbLine
 10
17.903495969
 20
-37.4712612528
 30
0.0
 11
20.8379387712
 21
-38.0949963252
 31
0.0
  0
LINE
  5
E2
100
AcDbEntity
  8
LAYER3
 62
         4
100
AcDbLine
 10
17.903495969
 20
-37.4712612528
 30
0.0
 11
36.903495969
 21
-37.4712612528
 31
0.0
  0
LINE
  5
E3
100
AcDbEntity
  8
LAYER0
 62
         3
100
AcDbLine
 10
27.403495969
 20
23.0544179469
 30
0.0
 11
29.903495969
 21
23.0544179469
 31
0.0
  0
LINE
  5
E4
100
AcDbEntity
  8
LAYER0
 62
         3
100
AcDbLine
 10
29.903495969
 20
25.52062009
 30
0.0
 11
27.403495969
 21
25.52062009
 31
0.0
  0
LINE
  5
E5
100
AcDbEntity
  8
LAYER0
 62
         3
100
AcDbLine
 10
26.153495969
 20
-17.2599005788
 30
0.0
 11
26.153495969
 21
-8.6051471996
 31
0.0
  0
LINE
  5
E6
100
AcDbEntity
  8
LAYER0
 62
         3
100
AcDbLine
 10
26.153495969
 20
-25.6051471996
 30
0.0
 11
26.153495969
 21
-17.2599005788
 31
0.0
  0
LINE
  5
E7
100
AcDbEntity
  8
LAYER0
 62
         3
100
AcDbLine
 10
28.653495969
 20
-17.2599005788
 30
0.0
 11
28.653495969
 21
-8.6051471996
 31
0.0
  0
LINE
  5
E8
100
AcDbEntity
  8
LAYER0
 62
         3
100
AcDbLine
 10
28.653495969
 20
-25.6051471996
 30
0.0
 11
28.653495969
 21
-17.2599005788
 31
0.0
  0
ARC
  5
E9
100
AcDbEntity
  8
LAYER0
 62
         3
100
AcDbCircle
 10
29.5031647805
 20
-4.5784608345
 30
0.0
 40
1.9996688133
210
0.0
220
0.0
230
1.0
100
AcDbArc
 50
180.0024281724
 51
247.5599944353
  0
ARC
  5
EA
100
AcDbEntity
  8
LAYER0
 62
         3
100
AcDbCircle
 10
27.4044312351
 20
-9.6610260681
 30
0.0
 40
4.9989729074
210
-0.0
220
0.0
230
1.0
100
AcDbArc
 50
284.4694794528
 51
71.3444145549
  0
ARC
  5
EB
100
AcDbEntity
  8
LAYER0
 62
         3
100
AcDbCircle
 10
27.4025579873
 20
-9.6610261673
 30
0.0
 40
4.9989721328
210
0.0
220
0.0
230
1.0
100
AcDbArc
 50
108.655558662
 51
255.5305473303
  0
LINE
  5
EC
100
AcDbEntity
  8
LAYER0
 62
         3
100
AcDbLine
 10
30.203495969
 20
-4.1085450346
 30
0.0
 11
30.203495969
 21
-3.5988204527
 31
0.0
  0
LINE
  5
ED
100
AcDbEntity
  8
LAYER0
 62
         3
100
AcDbLine
 10
24.603495969
 20
-4.1085450346
 30
0.0
 11
24.603495969
 21
-3.5988204527
 31
0.0
  0
LINE
  5
EE
100
AcDbEntity
  8
LAYER0
 62
         3
100
AcDbLine
 10
25.803495969
 20
-4.9247065998
 30
0.0
 11
25.803495969
 21
-4.1085450346
 31
0.0
  0
LINE
  5
EF
100
AcDbEntity
  8
LAYER0
 62
         3
100
AcDbLine
 10
27.303495969
 20
-4.1085450346
 30
0.0
 11
27.303495969
 21
-4.5785456869
 31
0.0
  0
LINE
  5
F0
100
AcDbEntity
  8
LAYER0
 62
         3
100
AcDbLine
 10
27.503495969
 20
-4.5785456869
 30
0.0
 11
27.503495969
 21
-4.1085450346
 31
0.0
  0
LINE
  5
F1
100
AcDbEntity
  8
LAYER0
 62
         3
100
AcDbLine
 10
29.003495969
 20
-4.1085450346
 30
0.0
 11
29.003495969
 21
-4.9247065998
 31
0.0
  0
LINE
  5
F2
100
AcDbEntity
  8
LAYER0
 62
         3
100
AcDbLine
 10
30.703495969
 20
-4.1085450346
 30
0.0
 11
30.203495969
 21
-4.1085450346
 31
0.0
  0
ARC
  5
F3
100
AcDbEntity
  8
LAYER0
 62
         3
100
AcDbCircle
 10
30.703495969
 20
-3.6085450346
 30
0.0
 40
0.5
210
-0.0
220
0.0
230
1.0
100
AcDbArc
 50
269.9999984648
 51
0.0
  0
LINE
  5
F4
100
AcDbEntity
  8
LAYER0
 62
         3
100
AcDbLine
 10
30.203495969
 20
-4.1085450346
 30
0.0
 11
24.603495969
 21
-4.1085450346
 31
0.0
  0
LINE
  5
F5
100
AcDbEntity
  8
LAYER0
 62
         3
100
AcDbLine
 10
24.603495969
 20
-4.1085450346
 30
0.0
 11
24.103495969
 21
-4.1085450346
 31
0.0
  0
ARC
  5
F6
100
AcDbEntity
  8
LAYER0
 62
         3
100
AcDbCircle
 10
25.3038271575
 20
-4.5784608345
 30
0.0
 40
1.9996688133
210
0.0
220
0.0
230
1.0
100
AcDbArc
 50
292.4400024943
 51
359.9975687572
  0
ARC
  5
F7
100
AcDbEntity
  8
LAYER0
 62
         3
100
AcDbCircle
 10
27.4027839031
 20
-9.6610129136
 30
0.0
 40
3.4992360831
210
0.0
220
0.0
230
1.0
100
AcDbArc
 50
112.4389050932
 51
249.0828652875
  0
ARC
  5
F8
100
AcDbEntity
  8
LAYER0
 62
         3
100
AcDbCircle
 10
27.4042120538
 20
-9.661012967
 30
0.0
 40
3.4992345984
210
-0.0
220
0.0
230
1.0
100
AcDbArc
 50
290.9170704869
 51
67.5611591326
  0
LINE
  5
F9
100
AcDbEntity
  8
LAYER0
 62
         3
100
AcDbLine
 10
28.653495969
 20
-8.6051471996
 30
0.0
 11
26.153495969
 21
-8.6051471996
 31
0.0
  0
LINE
  5
FA
100
AcDbEntity
  8
LAYER0
 62
         3
100
AcDbLine
 10
26.153495969
 20
-25.6051471996
 30
0.0
 11
28.653495969
 21
-25.6051471996
 31
0.0
  0
LINE
  5
FB
100
AcDbEntity
  8
LAYER0
 62
         3
100
AcDbLine
 10
32.403495969
 20
-9.6610091497
 30
0.0
 11
32.403495969
 21
-9.5517714702
 31
0.0
  0
LINE
  5
FC
100
AcDbEntity
  8
LAYER0
 62
         3
100
AcDbLine
 10
22.403495969
 20
-9.5517714702
 30
0.0
 11
22.403495969
 21
-9.6610091497
 31
0.0
  0
ARC
  5
FD
100
AcDbEntity
  8
LAYER0
 62
         3
100
AcDbCircle
 10
34.403495969
 20
-3.6085450346
 30
0.0
 40
0.5
210
-0.0
220
0.0
230
1.0
100
AcDbArc
 50
269.9999984648
 51
0.0
  0
INSERT
  5
FF
100
AcDbEntity
  8
0
100
AcDbBlockReference
  2
CLUMP12
 10
0.0
 20
0.0
 30
0.0
  0
INSERT
  5
10F
100
AcDbEntity
  8
0
100
AcDbBlockReference
  2
CLUMP14
 10
0.0
 20
0.0
 30
0.0
  0
INSERT
  5
128
100
AcDbEntity
  8
0
100
AcDbBlockReference
  2
CLUMP16
 10
0.0
 20
0.0
 30
0.0
  0
LINE
  5
13F
100
AcDbEntity
  8
LAYER0
 62
         3
100
AcDbLine
 10
-23.3895315261
 20
22.0277614302
 30
0.0
 11
-23.6508902009
 21
21.8768659289
 31
0.0
  0
ARC
  5
140
100
AcDbEntity
  8
LAYER0
 62
         3
100
AcDbCircle
 10
-23.1508902009
 20
21.0108405252
 30
0.0
 40
1.0
210
0.0
220
0.0
230
1.0
100
AcDbArc
 50
120.000002047
 51
178.8855777809
  0
LINE
  5
141
100
AcDbEntity
  8
LAYER0
 62
         3
100
AcDbLine
 10
-21.1050772538
 20
23.3466917192
 30
0.0
 11
-23.3895315261
 21
22.0277614302
 31
0.0
  0
LINE
  5
142
100
AcDbEntity
  8
LAYER0
 62
         3
100
AcDbLine
 10
-23.650890201
 20
21.8768659289
 30
0.0
 11
-23.6797669828
 21
21.8525821541
 31
0.0
  0
LINE
  5
143
100
AcDbEntity
  8
LAYER3
 62
         4
100
AcDbLine
 10
-47.7607225338
 20
27.8914549654
 30
0.0
 11
-47.1369874614
 21
24.9570121632
 31
0.0
  0
LINE
  5
144
100
AcDbEntity
  8
LAYER3
 62
         4
100
AcDbLine
 10
-47.7607225338
 20
27.8914549654
 30
0.0
 11
-48.3844576063
 21
24.9570121632
 31
0.0
  0
LINE
  5
145
100
AcDbEntity
  8
LAYER3
 62
         4
100
AcDbLine
 10
-14.8897228637
 20
27.8914549654
 30
0.0
 11
-48.7607225338
 21
27.8914549654
 31
0.0
  0
CIRCLE
  5
146
100
AcDbEntity
  8
LAYER1
 62
         3
100
AcDbCircle
 10
-13.8897228637
 20
19.8914549654
 30
0.0
 40
6.5
210
0.0
220
0.0
230
1.0
  0
CIRCLE
  5
147
100
AcDbEntity
  8
LAYER0
 62
         3
100
AcDbCircle
 10
-13.8897228637
 20
19.8914549654
 30
0.0
 40
6.0
210
0.0
220
0.0
230
1.0
  0
CIRCLE
  5
148
100
AcDbEntity
  8
LAYER0
 62
         3
100
AcDbCircle
 10
-13.8897228637
 20
19.8914549654
 30
0.0
 40
8.0
210
0.0
220
0.0
230
1.0
  0
MTEXT
  5
149
100
AcDbEntity
  8
LAYER0
100
AcDbMText
 10
21.8512602544
 20
-132.8866032766
 30
0.0
 40
2.4737683892
 41
28.0674865354
 71
         1
 72
         1
  1
\W0.8;4０用重量級ランナー
  0
MTEXT
  5
14A
100
AcDbEntity
  8
LAYER0
100
AcDbMText
 10
69.2920019132
 20
-133.1354167344
 30
0.0
 40
2.4737683892
 41
8.8634168007
 71
         1
 72
         1
  1
\W0.8;D55522
  0
LINE
  5
14B
100
AcDbEntity
  8
LAYER0
 62
         3
100
AcDbLine
 10
60.0
 20
-125.5
 30
0.0
 11
60.0
 21
-138.5
 31
0.0
  0
MTEXT
  5
14C
100
AcDbEntity
  8
LAYER0
100
AcDbMText
 10
72.5158633528
 20
-126.7970201517
 30
0.0
 40
2.1473683357
 41
10.2585839844
 71
         1
 72
         1
  1
\W0.8;管理図番
  0
MTEXT
  5
14D
100
AcDbEntity
  8
LAYER0
100
AcDbMText
 10
32.0542682872
 20
-126.7970201517
 30
0.0
 40
2.1473683357
 41
7.6538653946
 71
         1
 72
         1
  1
\W0.8;品　名
  0
LINE
  5
14E
100
AcDbEntity
  8
LAYER0
 62
         3
100
AcDbLine
 10
10.0
 20
-138.5
 30
0.0
 11
10.0
 21
-125.5
 31
0.0
  0
LINE
  5
14F
100
AcDbEntity
  8
LAYER0
 62
         3
100
AcDbLine
 10
95.0
 20
-138.5
 30
0.0
 11
95.0
 21
-125.5
 31
0.0
  0
ARC
  5
150
100
AcDbEntity
  8
LAYER0
 62
         3
100
AcDbCircle
 10
24.103495969
 20
-3.6085450346
 30
0.0
 40
0.5
210
0.0
220
0.0
230
1.0
100
AcDbArc
 50
179.9999969295
 51
269.9999984648
  0
LINE
  5
151
100
AcDbEntity
  8
LAYER0
 62
         3
100
AcDbLine
 10
31.3564371455
 20
-4.1085450346
 30
0.0
 11
30.703495969
 21
-4.1085450346
 31
0.0
  0
LINE
  5
152
100
AcDbEntity
  8
LAYER0
 62
         3
100
AcDbLine
 10
24.103495969
 20
-4.1085450346
 30
0.0
 11
23.4505547925
 21
-4.1085450346
 31
0.0
  0
LINE
  5
153
100
AcDbEntity
  8
LAYER0
 62
         3
100
AcDbLine
 10
34.403495969
 20
-4.1085450346
 30
0.0
 11
31.3564371455
 21
-4.1085450346
 31
0.0
  0
LINE
  5
154
100
AcDbEntity
  8
LAYER0
 62
         3
100
AcDbLine
 10
23.4505547925
 20
-4.1085450346
 30
0.0
 11
20.403495969
 21
-4.1085450346
 31
0.0
  0
LINE
  5
155
100
AcDbEntity
  8
LAYER3
 62
         4
100
AcDbLine
 10
-14.8897228637
 20
-22.6058112436
 30
0.0
 11
-40.758413065
 21
-22.6058112436
 31
0.0
  0
MTEXT
  5
156
100
AcDbEntity
  8
LAYER3
100
AcDbMText
 10
-18.6897228638
 20
-34.0914948176
 30
0.0
 40
2.1473683357
 41
5.1292919922
 71
         1
 72
         1
  1
\W0.8;21.5
  0
LINE
  5
157
100
AcDbEntity
  8
LAYER3
 62
         4
100
AcDbLine
 10
-3.1397228638
 20
-37.879153509
 30
0.0
 11
-6.074165666
 21
-38.5028885814
 31
0.0
  0
LINE
  5
158
100
AcDbEntity
  8
LAYER3
 62
         4
100
AcDbLine
 10
-3.1397228638
 20
-37.879153509
 30
0.0
 11
-6.074165666
 21
-37.2554184365
 31
0.0
  0
LINE
  5
159
100
AcDbEntity
  8
LAYER3
 62
         4
100
AcDbLine
 10
-24.6397228638
 20
-37.879153509
 30
0.0
 11
-21.7052800616
 21
-37.2554184365
 31
0.0
  0
LINE
  5
15A
100
AcDbEntity
  8
LAYER3
 62
         4
100
AcDbLine
 10
-24.6397228638
 20
-37.879153509
 30
0.0
 11
-21.7052800616
 21
-38.5028885814
 31
0.0
  0
LINE
  5
15B
100
AcDbEntity
  8
LAYER3
 62
         4
100
AcDbLine
 10
-24.6397228638
 20
-37.879153509
 30
0.0
 11
-3.1397228638
 21
-37.879153509
 31
0.0
  0
LINE
  5
15C
100
AcDbEntity
  8
LAYER3
 62
         4
100
AcDbLine
 10
-24.6397228638
 20
-5.1085450346
 30
0.0
 11
-24.6397228638
 21
-38.879153509
 31
0.0
  0
LINE
  5
15D
100
AcDbEntity
  8
LAYER3
 62
         4
100
AcDbLine
 10
-3.1397228638
 20
-5.1085450346
 30
0.0
 11
-3.1397228638
 21
-38.879153509
 31
0.0
  0
LINE
  5
15E
100
AcDbEntity
  8
LAYER3
 62
         4
100
AcDbLine
 10
-47.7607225338
 20
-25.6058112436
 30
0.0
 11
-48.3844576063
 21
-22.6713684414
 31
0.0
  0
LINE
  5
15F
100
AcDbEntity
  8
LAYER3
 62
         4
100
AcDbLine
 10
-47.7607225338
 20
-25.6058112436
 30
0.0
 11
-47.1369874614
 21
-22.6713684414
 31
0.0
  0
LINE
  5
160
100
AcDbEntity
  8
LAYER3
 62
         4
100
AcDbLine
 10
-14.8897228637
 20
-25.6058112436
 30
0.0
 11
-48.7607225338
 21
-25.6058112436
 31
0.0
  0
MTEXT
  5
161
100
AcDbEntity
  8
LAYER3
100
AcDbMText
 10
-43.5460717564
 20
-10.1571782138
 30
0.0
 40
2.1473683357
 41
5.1292919922
 71
         1
 72
         1
  1
\W0.8;34.5
 11
-0.0000000268
 21
1.0
 31
0.0
  0
LINE
  5
162
100
AcDbEntity
  8
LAYER0
 62
         3
100
AcDbLine
 10
-7.8062103653
 20
2.3914549654
 30
0.0
 11
-19.9732353621
 21
2.3914549654
 31
0.0
  0
LINE
  5
163
100
AcDbEntity
  8
LAYER0
 62
         3
100
AcDbLine
 10
-7.7000311318
 20
2.4149570969
 30
0.0
 11
-7.8062103653
 21
2.3914549654
 31
0.0
  0
LINE
  5
164
100
AcDbEntity
  8
LAYER0
 62
         3
100
AcDbLine
 10
-6.6743684736
 20
23.3466917192
 30
0.0
 11
-4.3899142013
 21
22.0277614302
 31
0.0
  0
LINE
  5
165
100
AcDbEntity
  8
LAYER0
 62
         3
100
AcDbLine
 10
-4.3899142013
 20
22.0277614302
 30
0.0
 11
-4.1285555265
 21
21.8768659289
 31
0.0
  0
ARC
  5
166
100
AcDbEntity
  8
LAYER0
 62
         3
100
AcDbCircle
 10
-4.6285555265
 20
21.0108405252
 30
0.0
 40
1.0
210
0.0
220
0.0
230
1.0
100
AcDbArc
 50
1.1144252896
 51
60.0000010235
  0
CIRCLE
  5
167
100
AcDbEntity
  8
LAYER0
 62
         3
100
AcDbCircle
 10
-13.8897228637
 20
19.8914549654
 30
0.0
 40
3.3
210
0.0
220
0.0
230
1.0
  0
CIRCLE
  5
168
100
AcDbEntity
  8
LAYER0
 62
         3
100
AcDbCircle
 10
-13.8897228637
 20
19.8914549654
 30
0.0
 40
2.5
210
0.0
220
0.0
230
1.0
  0
LINE
  5
169
100
AcDbEntity
  8
LAYER0
 62
         3
100
AcDbLine
 10
-19.9732353621
 20
2.3914549654
 30
0.0
 11
-20.0794145957
 21
2.4149570969
 31
0.0
  0
LINE
  5
16A
100
AcDbEntity
  8
LAYER3
 62
         4
100
AcDbLine
 10
-39.758413065
 20
11.8914549654
 30
0.0
 11
-39.1346779925
 21
8.9570121632
 31
0.0
  0
LINE
  5
16B
100
AcDbEntity
  8
LAYER3
 62
         4
100
AcDbLine
 10
-39.758413065
 20
11.8914549654
 30
0.0
 11
-40.3821481374
 21
8.9570121632
 31
0.0
  0
LINE
  5
16C
100
AcDbEntity
  8
LAYER3
 62
         4
100
AcDbLine
 10
-14.8897228637
 20
11.8914549654
 30
0.0
 11
-40.758413065
 21
11.8914549654
 31
0.0
  0
INSERT
  5
16E
100
AcDbEntity
  8
0
100
AcDbBlockReference
  2
CLUMP18
 10
0.0
 20
0.0
 30
0.0
  0
MTEXT
  5
17D
100
AcDbEntity
  8
LAYER0
100
AcDbMText
 10
-10.6564309049
 20
-126.7970201517
 30
0.0
 40
2.1473683357
 41
7.6538653946
 71
         1
 72
         1
  1
\W0.8;品　番
  0
LINE
  5
17E
100
AcDbEntity
  8
LAYER0
 62
         3
100
AcDbLine
 10
-40.0
 20
-138.5
 30
0.0
 11
-40.0
 21
-125.5
 31
0.0
  0
LINE
  5
17F
100
AcDbEntity
  8
LAYER0
 62
         3
100
AcDbLine
 10
-6.8747389008
 20
-4.1085450346
 30
0.0
 11
-6.8747389008
 21
-3.6085450346
 31
0.0
  0
LINE
  5
180
100
AcDbEntity
  8
LAYER0
 62
         3
100
AcDbLine
 10
-8.1126772472
 20
-4.1085450346
 30
0.0
 11
-19.6667684803
 21
-4.1085450346
 31
0.0
  0
LINE
  5
181
100
AcDbEntity
  8
LAYER0
 62
         3
100
AcDbLine
 10
-19.6667684803
 20
-4.1085450346
 30
0.0
 11
-20.9047068267
 21
-4.1085450346
 31
0.0
  0
LINE
  5
182
100
AcDbEntity
  8
LAYER0
 62
         3
100
AcDbLine
 10
-6.8747389008
 20
-4.1085450346
 30
0.0
 11
-8.1126772472
 21
-4.1085450346
 31
0.0
  0
LINE
  5
183
100
AcDbEntity
  8
LAYER0
 62
         3
100
AcDbLine
 10
-20.9047068267
 20
-4.1085450346
 30
0.0
 11
-23.6298072534
 21
-4.1085450346
 31
0.0
  0
ARC
  5
184
100
AcDbEntity
  8
LAYER0
 62
         3
100
AcDbCircle
 10
-3.6495438798
 20
-3.6085450346
 30
0.0
 40
0.5
210
-0.0
220
0.0
230
1.0
100
AcDbArc
 50
269.9999984648
 51
1.1144252896
  0
LINE
  5
185
100
AcDbEntity
  8
LAYER0
 62
         3
100
AcDbLine
 10
-3.6495438798
 20
-4.1085450346
 30
0.0
 11
-4.1496384741
 21
-4.1085450346
 31
0.0
  0
ARC
  5
186
100
AcDbEntity
  8
LAYER0
 62
         3
100
AcDbCircle
 10
-24.1299018477
 20
-3.6085450346
 30
0.0
 40
0.5
210
0.0
220
0.0
230
1.0
100
AcDbArc
 50
178.8855777809
 51
269.9999984648
  0
LINE
  5
187
100
AcDbEntity
  8
LAYER0
 62
         3
100
AcDbLine
 10
-23.6298072534
 20
-4.1085450346
 30
0.0
 11
-24.1299018477
 21
-4.1085450346
 31
0.0
  0
LINE
  5
188
100
AcDbEntity
  8
LAYER0
 62
         3
100
AcDbLine
 10
-4.1496384741
 20
-4.1085450346
 30
0.0
 11
-6.8747389008
 21
-4.1085450346
 31
0.0
  0
ARC
  5
189
100
AcDbEntity
  8
LAYER0
 62
         3
100
AcDbCircle
 10
-19.6184685082
 20
-3.6484066263
 30
0.0
 40
0.462666448
210
0.0
220
0.0
230
1.0
100
AcDbArc
 50
175.0574877366
 51
264.0076987395
  0
ARC
  5
18A
100
AcDbEntity
  8
LAYER0
 62
         3
100
AcDbCircle
 10
-8.1609772193
 20
-3.6484066263
 30
0.0
 40
0.462666448
210
-0.0
220
0.0
230
1.0
100
AcDbArc
 50
275.99229819
 51
4.9425153339
  0
LINE
  5
18B
100
AcDbEntity
  8
LAYER0
 62
         3
100
AcDbLine
 10
-20.9047068267
 20
-4.1085450346
 30
0.0
 11
-20.9047068267
 21
-3.6085450346
 31
0.0
  0
LINE
  5
18C
100
AcDbEntity
  8
LAYER0
 62
         3
100
AcDbLine
 10
-16.8897141093
 20
-14.6058007383
 30
0.0
 11
-10.8897141094
 21
-14.6058217488
 31
0.0
  0
ARC
  5
18D
100
AcDbEntity
  8
LAYER0
 62
         3
100
AcDbCircle
 10
-13.8897228637
 20
-17.1058112436
 30
0.0
 40
5.5
210
-0.0
220
0.0
230
1.0
100
AcDbArc
 50
359.9997993639
 51
56.9440691844
  0
ARC
  5
18E
100
AcDbEntity
  8
LAYER0
 62
         3
100
AcDbCircle
 10
-13.8897228637
 20
-17.1058112436
 30
0.0
 40
5.5
210
-0.0
220
-0.0
230
1.0
100
AcDbArc
 50
123.0555326138
 51
359.9997993639
  0
ARC
  5
18F
100
AcDbEntity
  8
LAYER0
 62
         3
100
AcDbCircle
 10
-13.8897228637
 20
-17.1058112436
 30
0.0
 40
8.5
210
-0.0
220
0.0
230
1.0
100
AcDbArc
 50
359.9997993639
 51
69.3324840531
  0
ARC
  5
190
100
AcDbEntity
  8
LAYER0
 62
         3
100
AcDbCircle
 10
-13.8897228637
 20
-17.1058112436
 30
0.0
 40
8.5
210
-0.0
220
-0.0
230
1.0
100
AcDbArc
 50
110.6671177452
 51
359.9997993639
  0
LINE
  5
191
100
AcDbEntity
  8
LAYER0
 62
         3
100
AcDbLine
 10
-10.8897141094
 20
-14.6058217488
 30
0.0
 11
-10.8896773504
 21
-4.1085450346
 31
0.0
  0
LINE
  5
192
100
AcDbEntity
  8
LAYER0
 62
         3
100
AcDbLine
 10
-16.8897141093
 20
-14.6058007383
 30
0.0
 11
-16.8896800124
 21
-4.8687130253
 31
0.0
  0
LINE
  5
193
100
AcDbEntity
  8
LAYER0
 62
         3
100
AcDbLine
 10
-16.8896800124
 20
-4.8687130253
 30
0.0
 11
-16.8896773505
 21
-4.1085450346
 31
0.0
  0
LINE
  5
194
100
AcDbEntity
  8
LAYER3
 62
         4
100
AcDbLine
 10
-39.758413065
 20
-22.6058112436
 30
0.0
 11
-40.3821481374
 21
-19.6713684414
 31
0.0
  0
LINE
  5
195
100
AcDbEntity
  8
LAYER3
 62
         4
100
AcDbLine
 10
-39.758413065
 20
-22.6058112436
 30
0.0
 11
-39.1346779925
 21
-19.6713684414
 31
0.0
  0
LINE
  5
196
100
AcDbEntity
  8
LAYER0
 62
         3
100
AcDbLine
 10
95.0
 20
-125.5
 30
0.0
 11
-40.0
 21
-125.5
 31
0.0
  0
LINE
  5
197
100
AcDbEntity
  8
LAYER0
 62
         3
100
AcDbLine
 10
95.0
 20
-130.5
 30
0.0
 11
-40.0
 21
-130.5
 31
0.0
  0
LINE
  5
198
100
AcDbEntity
  8
LAYER0
 62
         3
100
AcDbLine
 10
95.0
 20
-138.5
 30
0.0
 11
-40.0
 21
-138.5
 31
0.0
  0
LINE
  5
199
100
AcDbEntity
  8
LAYER0
 62
         3
100
AcDbLine
 10
-3.6287446794
 20
21.030289689
 30
0.0
 11
-3.1397228638
 21
-4.1085450346
 31
0.0
  0
LINE
  5
19A
100
AcDbEntity
  8
LAYER0
 62
         3
100
AcDbLine
 10
-24.6397228638
 20
-4.1085450346
 30
0.0
 11
-24.1507010481
 21
21.030289689
 31
0.0
  0
LINE
  5
19B
100
AcDbEntity
  8
LAYER0
 62
         3
100
AcDbLine
 10
-7.7000311318
 20
-3.6085450346
 30
0.0
 11
-7.7000311318
 21
2.4149570969
 31
0.0
  0
LINE
  5
19C
100
AcDbEntity
  8
LAYER0
 62
         3
100
AcDbLine
 10
-20.0794145957
 20
2.4149570969
 30
0.0
 11
-20.0794145957
 21
-3.6085450346
 31
0.0
  0
LINE
  5
19D
100
AcDbEntity
  8
LAYER0
 62
         3
100
AcDbLine
 10
-20.9047068267
 20
-3.6085450346
 30
0.0
 11
-20.9047068267
 21
2.8056685278
 31
0.0
  0
LINE
  5
19E
100
AcDbEntity
  8
LAYER0
 62
         3
100
AcDbLine
 10
-6.8747389008
 20
2.8056685278
 30
0.0
 11
-6.8747389008
 21
-3.6085450346
 31
0.0
  0
LINE
  5
19F
100
AcDbEntity
  8
LAYER3
 62
         4
100
AcDbLine
 10
-39.758413065
 20
11.8914549654
 30
0.0
 11
-39.758413065
 21
-22.6058112436
 31
0.0
  0
MTEXT
  5
1A0
100
AcDbEntity
  8
LAYER3
100
AcDbMText
 10
-51.5483812252
 20
-3.6571782138
 30
0.0
 40
2.1473683357
 41
5.1292919922
 71
         1
 72
         1
  1
\W0.8;53.5
 11
-0.0000000268
 21
1.0
 31
0.0
  0
LINE
  5
1A1
100
AcDbEntity
  8
LAYER3
 62
         4
100
AcDbLine
 10
-47.7607225338
 20
27.8914549654
 30
0.0
 11
-47.7607225338
 21
-25.6058112436
 31
0.0
  0
LINE
  5
1A2
100
AcDbEntity
  8
LAYER0
 62
         3
100
AcDbLine
 10
30.203495969
 20
-3.5988204527
 30
0.0
 11
30.203495969
 21
21.030289689
 31
0.0
  0
LINE
  5
1A3
100
AcDbEntity
  8
LAYER0
 62
         3
100
AcDbLine
 10
24.603495969
 20
21.030289689
 30
0.0
 11
24.603495969
 21
-3.5988204527
 31
0.0
  0
LINE
  5
1A4
100
AcDbEntity
  8
LAYER0
 62
         3
100
AcDbLine
 10
31.6387900866
 20
2.4149570969
 30
0.0
 11
31.6387900866
 21
-3.6085450346
 31
0.0
  0
LINE
  5
1A5
100
AcDbEntity
  8
LAYER0
 62
         3
100
AcDbLine
 10
23.1682018514
 20
-3.6085450346
 30
0.0
 11
23.1682018514
 21
2.4149570969
 31
0.0
  0
LINE
  5
1A6
100
AcDbEntity
  8
LAYER0
 62
         3
100
AcDbLine
 10
31.203495969
 20
21.5947487283
 30
0.0
 11
31.203495969
 21
-3.6085450346
 31
0.0
  0
LINE
  5
1A7
100
AcDbEntity
  8
LAYER0
 62
         3
100
AcDbLine
 10
23.603495969
 20
-3.6085450346
 30
0.0
 11
23.603495969
 21
21.5947487283
 31
0.0
  0
LINE
  5
1A8
100
AcDbEntity
  8
LAYER0
 62
         3
100
AcDbLine
 10
34.903495969
 20
-3.6085450346
 30
0.0
 11
34.903495969
 21
2.3914549654
 31
0.0
  0
LINE
  5
1A9
100
AcDbEntity
  8
LAYER0
 62
         3
100
AcDbLine
 10
19.903495969
 20
2.3914549654
 30
0.0
 11
19.903495969
 21
-3.6085450346
 31
0.0
  0
LINE
  5
1AA
100
AcDbEntity
  8
LAYER3
 62
         4
100
AcDbLine
 10
36.903495969
 20
10.8914571835
 30
0.0
 11
36.903495969
 21
-38.4712612528
 31
0.0
  0
LINE
  5
1AB
100
AcDbEntity
  8
LAYER3
 62
         4
100
AcDbLine
 10
17.903495969
 20
10.8914571835
 30
0.0
 11
17.903495969
 21
-38.4712612528
 31
0.0
  0
MTEXT
  5
1AC
100
AcDbEntity
  8
LAYER0
100
AcDbMText
 10
-17.3781737419
 20
-132.5157576176
 30
0.0
 40
3.0922104359
 41
11.0792708193
 71
         1
 72
         1
  1
\W0.8;S-201A
  0
MTEXT
  5
1AD
100
AcDbEntity
  8
LAYER0
100
AcDbMText
 10
-35.7051459079
 20
-126.6461242782
 30
0.0
 40
2.1473683357
 41
6.4116149902
 71
         1
 72
         1
  1
\W0.8;Ｎｏ.
  0
LINE
  5
1AE
100
AcDbEntity
  8
LAYER0
 62
         3
100
AcDbLine
 10
-25.0
 20
-125.5
 30
0.0
 11
-25.0
 21
-138.5
 31
0.0
  0
ENDSEC
  0
SECTION
  2
OBJECTS
  0
DICTIONARY
  5
19
100
AcDbDictionary
280
         0
281
         1
  3
ACAD_GROUP
350
1A
  3
ACAD_MLINESTYLE
350
1B
  3
ACAD_LAYOUT
350
1E
  3
ACAD_PLOTSETTINGS
350
22
  3
ACAD_PLOTSTYLENAME
350
1F
  3
ACAD_WIPEOUT_VARS
350
23
  0
DICTIONARY
  5
1A
102
{ACAD_REACTORS
330
19
102
}
100
AcDbDictionary
280
         0
281
         1
  0
DICTIONARY
  5
1B
102
{ACAD_REACTORS
330
19
102
}
100
AcDbDictionary
280
         0
281
         1
  3
Standard
350
1C
  0
MLINESTYLE
  5
1C
102
{ACAD_REACTORS
330
1B
102
}
100
AcDbMlineStyle
  2
Standard
 70
         0
  3

 62
         0
 51
90.0
 52
90.0
 71
         2
 49
0.5
 62
       256
  6
BYLAYER
 49
-0.5
 62
       256
  6
BYLAYER
  0
ACDBDICTIONARYWDFLT
  5
1F
102
{ACAD_REACTORS
330
19
102
}
100
AcDbDictionary
281
         1
  3
Normal
350
1D
100
AcDbDictionaryWithDefault
340
1D
  0
ACDBPLACEHOLDER
  5
1D
102
{ACAD_REACTORS
330
1F
102
}
  0
LAYOUT
  5
20
102
{ACAD_REACTORS
330
1E
102
}
100
AcDbPlotSettings
  1

  2

  4

  6

 40
0.0
 41
0.0
 42
0.0
 43
0.0
 44
0.0
 45
0.0
 46
0.0
 47
0.0
 48
0.0
 49
0.0
140
0.0
141
0.0
142
1.0
143
1.0
 70
         0
 72
         0
 73
         0
 74
         0
  7

 75
         0
147
1.0
148
0.0
149
0.0
100
AcDbLayout
  1
Model
 70
         0
 71
         0
 10
0.0
 20
0.0
 11
0.0
 21
0.0
 12
0.0
 22
0.0
 32
0.0
 14
0.0
 24
0.0
 34
0.0
 15
0.0
 25
0.0
 35
0.0
146
0.0
 13
0.0
 23
0.0
 33
0.0
 16
0.0
 26
0.0
 36
0.0
 17
0.0
 27
0.0
 37
0.0
 76
         0
330
A
331
0
345
0
346
0
  0
LAYOUT
  5
21
102
{ACAD_REACTORS
330
1E
102
}
100
AcDbPlotSettings
  1

  2

  4

  6

 40
0.0
 41
0.0
 42
0.0
 43
0.0
 44
0.0
 45
0.0
 46
0.0
 47
0.0
 48
0.0
 49
0.0
140
0.0
141
0.0
142
1.0
143
1.0
 70
         0
 72
         0
 73
         0
 74
         0
  7

 75
         0
147
1.0
148
0.0
149
0.0
100
AcDbLayout
  1
Layout1
 70
         0
 71
         0
 10
0.0
 20
0.0
 11
0.0
 21
0.0
 12
0.0
 22
0.0
 32
0.0
 14
0.0
 24
0.0
 34
0.0
 15
0.0
 25
0.0
 35
0.0
146
0.0
 13
0.0
 23
0.0
 33
0.0
 16
0.0
 26
0.0
 36
0.0
 17
0.0
 27
0.0
 37
0.0
 76
         0
330
B
331
0
345
0
346
0
  0
DICTIONARY
  5
1E
102
{ACAD_REACTORS
330
19
102
}
100
AcDbDictionary
280
         0
281
         1
  3
Layout1
350
21
  3
Model
350
20
  0
DICTIONARY
  5
22
102
{ACAD_REACTORS
330
19
102
}
100
AcDbDictionary
280
         0
281
         1
  0
WIPEOUTVARIABLES
  5
23
100
AcDbWipeoutVariables
 70
         1
  0
ENDSEC
  0
EOF
