  0
SECTION
  2
HEADER
  9
$ACADVER
  1
AC1015
  9
$ACADMAINTVER
 70
         6
  9
$DWGCODEPAGE
  3
ANSI_932
  9
$INSBASE
 10
0.0
 20
0.0
 30
0.0
  9
$EXTMIN
 10
1.0000000000E+20
 20
1.0000000000E+20
 30
1.0000000000E+20
  9
$EXTMAX
 10
-1.0000000000E+20
 20
-1.0000000000E+20
 30
-1.0000000000E+20
  9
$LIMMIN
 10
0.0
 20
0.0
  9
$LIMMAX
 10
0.0
 20
0.0
  9
$ORTHOMODE
 70
         0
  9
$REGENMODE
 70
         1
  9
$FILLMODE
 70
         1
  9
$QTEXTMODE
 70
         0
  9
$MIRRTEXT
 70
         1
  9
$LTSCALE
 40
1.0
  9
$ATTMODE
 70
         1
  9
$TEXTSIZE
 40
0.2
  9
$TRACEWID
 40
0.05
  9
$TEXTSTYLE
  7
Standard
  9
$CLAYER
  8
0
  9
$CELTYPE
  6
Continuous
  9
$CECOLOR
 62
       256
  9
$CELTSCALE
 40
1.0
  9
$DISPSILH
 70
         0
  9
$DIMSCALE
 40
1.0
  9
$DIMASZ
 40
0.18
  9
$DIMEXO
 40
0.0625
  9
$DIMDLI
 40
0.38
  9
$DIMRND
 40
0.0
  9
$DIMDLE
 40
0.0
  9
$DIMEXE
 40
0.18
  9
$DIMTP
 40
0.0
  9
$DIMTM
 40
0.0
  9
$DIMTXT
 40
0.18
  9
$DIMCEN
 40
0.09
  9
$DIMTSZ
 40
0.0
  9
$DIMTOL
 70
         0
  9
$DIMLIM
 70
         0
  9
$DIMTIH
 70
         1
  9
$DIMTOH
 70
         1
  9
$DIMSE1
 70
         0
  9
$DIMSE2
 70
         0
  9
$DIMTAD
 70
         0
  9
$DIMZIN
 70
         0
  9
$DIMBLK
  1

  9
$DIMASO
 70
         1
  9
$DIMSHO
 70
         1
  9
$DIMPOST
  1

  9
$DIMAPOST
  1

  9
$DIMALT
 70
         0
  9
$DIMALTD
 70
         2
  9
$DIMALTF
 40
25.4
  9
$DIMLFAC
 40
1.0
  9
$DIMTOFL
 70
         0
  9
$DIMTVP
 40
0.0
  9
$DIMTIX
 70
         0
  9
$DIMSOXD
 70
         0
  9
$DIMSAH
 70
         0
  9
$DIMBLK1
  1

  9
$DIMBLK2
  1

  9
$DIMSTYLE
  2
Standard
  9
$DIMCLRD
 70
         0
  9
$DIMCLRE
 70
         0
  9
$DIMCLRT
 70
         0
  9
$DIMTFAC
 40
1.0
  9
$DIMGAP
 40
0.09
  9
$DIMJUST
 70
         0
  9
$DIMSD1
 70
         0
  9
$DIMSD2
 70
         0
  9
$DIMTOLJ
 70
         1
  9
$DIMTZIN
 70
         0
  9
$DIMALTZ
 70
         0
  9
$DIMALTTZ
 70
         0
  9
$DIMUPT
 70
         0
  9
$DIMDEC
 70
         4
  9
$DIMTDEC
 70
         4
  9
$DIMALTU
 70
         2
  9
$DIMALTTD
 70
         2
  9
$DIMTXSTY
  7
Standard
  9
$DIMAUNIT
 70
         0
  9
$DIMADEC
 70
         0
  9
$DIMALTRND
 40
0.0
  9
$DIMAZIN
 70
         0
  9
$DIMDSEP
 70
         0
  9
$DIMATFIT
 70
         3
  9
$DIMFRAC
 70
         0
  9
$DIMLDRBLK
  1

  9
$DIMLUNIT
 70
         2
  9
$DIMLWD
 70
         0
  9
$DIMLWE
 70
         0
  9
$DIMTMOVE
 70
         0
  9
$LUNITS
 70
         2
  9
$LUPREC
 70
         4
  9
$SKETCHINC
 40
0.1
  9
$FILLETRAD
 40
0.0
  9
$AUNITS
 70
         0
  9
$AUPREC
 70
         0
  9
$MENU
  1
acad
  9
$ELEVATION
 40
0.0
  9
$PELEVATION
 40
0.0
  9
$THICKNESS
 40
0.0
  9
$LIMCHECK
 70
         0
  9
$CHAMFERA
 40
0.0
  9
$CHAMFERB
 40
0.0
  9
$CHAMFERC
 40
0.0
  9
$CHAMFERD
 40
0.0
  9
$SKPOLY
 70
         0
  9
$TDCREATE
 40
0.000000000
  9
$TDUCREATE
 40
0.000000000
  9
$TDUPDATE
 40
0.000000000
  9
$TDUUPDATE
 40
0.000000000
  9
$TDINDWG
 40
0.0000000000
  9
$TDUSRTIMER
 40
0.0000000000
  9
$USRTIMER
 70
         1
  9
$ANGBASE
 50
0.0
  9
$ANGDIR
 70
         0
  9
$PDMODE
 70
         3
  9
$PDSIZE
 40
-1.0
  9
$PLINEWID
 40
0.0
  9
$SPLFRAME
 70
         0
  9
$SPLINETYPE
 70
         6
  9
$SPLINESEGS
 70
         8
  9
$HANDSEED
  5
1F5
  9
$SURFTAB1
 70
         6
  9
$SURFTAB2
 70
         6
  9
$SURFTYPE
 70
         6
  9
$SURFU
 70
         6
  9
$SURFV
 70
         6
  9
$UCSBASE
  2

  9
$UCSNAME
  2

  9
$UCSORG
 10
0.0
 20
0.0
 30
0.0
  9
$UCSXDIR
 10
1.0
 20
0.0
 30
0.0
  9
$UCSYDIR
 10
0.0
 20
1.0
 30
0.0
  9
$UCSORTHOREF
  2

  9
$UCSORTHOVIEW
 70
         0
  9
$UCSORGTOP
 10
0.0
 20
0.0
 30
0.0
  9
$UCSORGBOTTOM
 10
0.0
 20
0.0
 30
0.0
  9
$UCSORGLEFT
 10
0.0
 20
0.0
 30
0.0
  9
$UCSORGRIGHT
 10
0.0
 20
0.0
 30
0.0
  9
$UCSORGFRONT
 10
0.0
 20
0.0
 30
0.0
  9
$UCSORGBACK
 10
0.0
 20
0.0
 30
0.0
  9
$PUCSBASE
  2

  9
$PUCSNAME
  2

  9
$PUCSORG
 10
0.0
 20
0.0
 30
0.0
  9
$PUCSXDIR
 10
1.0
 20
0.0
 30
0.0
  9
$PUCSYDIR
 10
0.0
 20
1.0
 30
0.0
  9
$PUCSORTHOREF
  2

  9
$PUCSORTHOVIEW
 70
         0
  9
$PUCSORGTOP
 10
0.0
 20
0.0
 30
0.0
  9
$PUCSORGBOTTOM
 10
0.0
 20
0.0
 30
0.0
  9
$PUCSORGLEFT
 10
0.0
 20
0.0
 30
0.0
  9
$PUCSORGRIGHT
 10
0.0
 20
0.0
 30
0.0
  9
$PUCSORGFRONT
 10
0.0
 20
0.0
 30
0.0
  9
$PUCSORGBACK
 10
0.0
 20
0.0
 30
0.0
  9
$USERI1
 70
         0
  9
$USERI2
 70
         0
  9
$USERI3
 70
         0
  9
$USERI4
 70
         0
  9
$USERI5
 70
         0
  9
$USERR1
 40
0.0
  9
$USERR2
 40
0.0
  9
$USERR3
 40
0.0
  9
$USERR4
 40
0.0
  9
$USERR5
 40
0.0
  9
$WORLDVIEW
 70
         1
  9
$SHADEDGE
 70
         3
  9
$SHADEDIF
 70
        70
  9
$TILEMODE
 70
         1
  9
$MAXACTVP
 70
        16
  9
$PINSBASE
 10
0.0
 20
0.0
 30
0.0
  9
$PLIMCHECK
 70
         0
  9
$PEXTMIN
 10
1.0000000000E+20
 20
1.0000000000E+20
 30
1.0000000000E+20
  9
$PEXTMAX
 10
-1.0000000000E+20
 20
-1.0000000000E+20
 30
-1.0000000000E+20
  9
$PLIMMIN
 10
0.0
 20
0.0
  9
$PLIMMAX
 10
12.0
 20
9.0
  9
$UNITMODE
 70
         0
  9
$VISRETAIN
 70
         0
  9
$PLINEGEN
 70
         1
  9
$PSLTSCALE
 70
         0
  9
$TREEDEPTH
 70
      3020
  9
$CMLSTYLE
  2
Standard
  9
$CMLJUST
 70
         0
  9
$CMLSCALE
 40
1.0
  9
$PROXYGRAPHICS
 70
         0
  9
$MEASUREMENT
 70
         0
  9
$CELWEIGHT
370
         0
  9
$ENDCAPS
280
         0
  9
$JOINSTYLE
280
         0
  9
$LWDISPLAY
290
         0
  9
$INSUNITS
 70
         0
  9
$HYPERLINKBASE
  1

  9
$XEDIT
290
         1
  9
$CEPSNTYPE
380
         0
  9
$PSTYLEMODE
290
         0
  9
$FINGERPRINTGUID
  2

  9
$VERSIONGUID
  2

  9
$EXTNAMES
290
         1
  9
$PSVPSCALE
 40
0.0
  0
ENDSEC
  0
SECTION
  2
CLASSES
  0
CLASS
  1
LWPOLYLINE
  2
AcDbPolyline
  3
"AutoCAD"
 90
        0
280
         0
281
         1
  0
CLASS
  1
IMAGE
  2
AcDbRasterImage
  3
ISM
 90
      127
280
         0
281
         1
  0
CLASS
  1
OLE2FRAME
  2
AcDbOle2Frame
  3
""
 90
        0
280
         0
281
         1
  0
CLASS
  1
HATCH
  2
AcDbHatch
  3
"ACAD_SEDONA"
 90
        0
280
         0
281
         1
  0
CLASS
  1
DICTIONARYVAR
  2
AcDbDictionaryVar
  3
"AutoCAD"
 90
        0
280
         0
281
         0
  0
CLASS
  1
RASTERVARIABLES
  2
AcDbRasterVariables
  3
ISM
 90
        0
280
         0
281
         0
  0
CLASS
  1
IMAGEDEF
  2
AcDbRasterImageDef
  3
ISM
 90
        0
280
         0
281
         0
  0
CLASS
  1
IMAGEDEF_REACTOR
  2
AcDbRasterImageDefReactor
  3
ISM
 90
        1
280
         0
281
         0
  0
CLASS
  1
IDBUFFER
  2
AcDbIdBuffer
  3
"Acad"
 90
        0
280
         0
281
         0
  0
CLASS
  1
SPATIAL_FILTER
  2
AcDbSpatialFilter
  3
"Acad"
 90
        0
280
         0
281
         0
  0
CLASS
  1
XRECORD
  2
AcDbXrecord
  3
"<Built In>"
 90
        0
280
         0
281
         0
  0
CLASS
  1
SORTENTSTABLE
  2
AcDbSortentsTable
  3
"AutoCAD"
 90
        0
280
         0
281
         0
  0
CLASS
  1
LAYER_INDEX
  2
AcDbLayerIndex
  3
"Acad"
 90
        0
280
         0
281
         0
  0
CLASS
  1
SPATIAL_INDEX
  2
AcDbSpatialIndex
  3
"Acad"
 90
        0
280
         0
281
         0
  0
CLASS
  1
OBJECT_PTR
  2
CAseDLPNTableRecord
  3
"ASE-LPNTableRecord"
 90
        1
280
         0
281
         0
  0
CLASS
  1
LAYOUT
  2
AcDbLayout
  3
"AutoCAD 2000"
 90
        1
280
         0
281
         0
  0
CLASS
  1
PLOTSETTINGS
  2
AcDbPlotSettings
  3
"AutoCAD 2000"
 90
        1
280
         0
281
         0
  0
CLASS
  1
ACDBDICTIONARYWDFLT
  2
AcDbDictionaryWithDefault
  3
"AutoCAD 2000"
 90
        1
280
         0
281
         0
  0
CLASS
  1
ACDBPLACEHOLDER
  2
AcDbPlaceHolder
  3
"AutoCAD 2000"
 90
        1
280
         0
281
         0
  0
CLASS
  1
VBA_PROJECT
  2
AcDbVbaProject
  3
"acadvba"
 90
        1
280
         0
281
         0
  0
CLASS
  1
WIPEOUT
  2
AcDbWipeout
  3
WipeOut|AutoCAD Express Tool|expresstools@autodesk.com
 90
      127
280
         0
281
         1
  0
CLASS
  1
WIPEOUTVARIABLES
  2
AcDbWipeoutVariables
  3
WipeOut|AutoCAD Express Tool|expresstools@autodesk.com
 90
        0
280
         0
281
         0
  0
CLASS
  1
RTEXT
  2
RText
  3
RText|AutoCAD Express Tool|expresstools@autodesk.com
 90
        0
280
         0
281
         1
  0
CLASS
  1
ARCALIGNEDTEXT
  2
AcDbArcAlignedText
  3
ATEXT|AutoCAD Express Tool|expresstools@autodesk.com
 90
        0
280
         0
281
         1
  0
ENDSEC
  0
SECTION
  2
TABLES
  0
TABLE
  2
VPORT
  5
7
100
AcDbSymbolTable
 70
         1
  0
VPORT
  5
15
100
AcDbSymbolTableRecord
100
AcDbViewportTableRecord
  2
*ACTIVE
 70
         0
 10
0.0
 20
0.0
 11
1.0
 21
1.0
 12
6.591288
 22
4.579184
 13
0.0
 23
0.0
 14
1.0
 24
1.0
 15
0.0
 25
0.0
 16
0.0
 26
0.0
 36
1.0
 17
0.0
 27
0.0
 37
0.0
 40
9.158369
 41
0.688564
 42
50.0
 43
0.0
 44
0.0
 50
0.0
 51
0.0
 71
         0
 72
       100
 73
         1
 74
         1
 75
         0
 76
         0
 77
         0
 78
         0
281
         0
 65
         0
110
0.0
120
0.0
130
0.0
111
1.0
121
0.0
131
0.0
112
0.0
122
1.0
132
0.0
345
0
346
0
 79
         0
146
0.0
  0
ENDTAB
  0
TABLE
  2
LTYPE
  5
4
100
AcDbSymbolTable
 70
        13
  0
LTYPE
  5
11
100
AcDbSymbolTableRecord
100
AcDbLinetypeTableRecord
  2
ByBlock
 70
        64
  3

 72
        65
 73
         0
 40
0.0
  0
LTYPE
  5
12
100
AcDbSymbolTableRecord
100
AcDbLinetypeTableRecord
  2
ByLayer
 70
        64
  3

 72
        65
 73
         0
 40
0.0
  0
LTYPE
  5
13
100
AcDbSymbolTableRecord
100
AcDbLinetypeTableRecord
  2
Continuous
 70
        64
  3
Solid line
 72
        65
 73
         0
 40
0.0
  0
LTYPE
  5
24
100
AcDbSymbolTableRecord
100
AcDbLinetypeTableRecord
  2
DOT
 70
        64
  3
. . . . . . . . 
 72
        65
 73
         2
 40
1.0
 49
0.0
 74
         0
 49
-1.0
 74
         0
  0
LTYPE
  5
25
100
AcDbSymbolTableRecord
100
AcDbLinetypeTableRecord
  2
DASHED
 70
        64
  3
___  ___  ___  ___  
 72
        65
 73
         2
 40
4.0
 49
3.0
 74
         0
 49
-1.0
 74
         0
  0
LTYPE
  5
26
100
AcDbSymbolTableRecord
100
AcDbLinetypeTableRecord
  2
HIDDEN
 70
        64
  3
__ __ __ __ 
 72
        65
 73
         2
 40
3.0
 49
2.0
 74
         0
 49
-1.0
 74
         0
  0
LTYPE
  5
27
100
AcDbSymbolTableRecord
100
AcDbLinetypeTableRecord
  2
STITCH
 70
        64
  3
_ _ _ _ 
 72
        65
 73
         2
 40
2.0
 49
1.0
 74
         0
 49
-1.0
 74
         0
  0
LTYPE
  5
28
100
AcDbSymbolTableRecord
100
AcDbLinetypeTableRecord
  2
CENTER
 70
        64
  3
______  __  ______  __  
 72
        65
 73
         4
 40
43.0
 49
40.0
 74
         0
 49
-1.0
 74
         0
 49
1.0
 74
         0
 49
-1.0
 74
         0
  0
LTYPE
  5
29
100
AcDbSymbolTableRecord
100
AcDbLinetypeTableRecord
  2
DASHDOT
 70
        64
  3
____ . ____ . 
 72
        65
 73
         4
 40
32.0
 49
30.0
 74
         0
 49
-1.0
 74
         0
 49
0.0
 74
         0
 49
-1.0
 74
         0
  0
LTYPE
  5
2A
100
AcDbSymbolTableRecord
100
AcDbLinetypeTableRecord
  2
BORDER
 70
        64
  3
__ . __ . 
 72
        65
 73
         4
 40
22.0
 49
20.0
 74
         0
 49
-1.0
 74
         0
 49
0.0
 74
         0
 49
-1.0
 74
         0
  0
LTYPE
  5
2B
100
AcDbSymbolTableRecord
100
AcDbLinetypeTableRecord
  2
CUTTING
 70
        64
  3
________   ___   ___   
 72
        65
 73
         6
 40
45.0
 49
40.0
 74
         0
 49
-1.0
 74
         0
 49
1.0
 74
         0
 49
-1.0
 74
         0
 49
1.0
 74
         0
 49
-1.0
 74
         0
  0
LTYPE
  5
2C
100
AcDbSymbolTableRecord
100
AcDbLinetypeTableRecord
  2
PHANTOM
 70
        64
  3
______  __  __  
 72
        65
 73
         6
 40
35.0
 49
30.0
 74
         0
 49
-1.0
 74
         0
 49
1.0
 74
         0
 49
-1.0
 74
         0
 49
1.0
 74
         0
 49
-1.0
 74
         0
  0
LTYPE
  5
2D
100
AcDbSymbolTableRecord
100
AcDbLinetypeTableRecord
  2
DIVIDE
 70
        64
  3
____ . . ____ . . 
 72
        65
 73
         6
 40
23.0
 49
20.0
 74
         0
 49
-1.0
 74
         0
 49
0.0
 74
         0
 49
-1.0
 74
         0
 49
0.0
 74
         0
 49
-1.0
 74
         0
  0
ENDTAB
  0
TABLE
  2
LAYER
  5
2
100
AcDbSymbolTable
 70
         8
  0
LAYER
  5
14
100
AcDbSymbolTableRecord
100
AcDbLayerTableRecord
  2
0
 70
         0
 62
         7
  6
Continuous
290
         1
370
        -3
390
1D
  0
LAYER
  5
2E
100
AcDbSymbolTableRecord
100
AcDbLayerTableRecord
  2
LAYER3
 70
         0
 62
         7
  6
Continuous
290
         1
370
        -3
390
1F
  0
LAYER
  5
30
100
AcDbSymbolTableRecord
100
AcDbLayerTableRecord
  2
LAYER0
 70
         0
 62
         7
  6
Continuous
290
         1
370
        -3
390
1F
  0
LAYER
  5
3E
100
AcDbSymbolTableRecord
100
AcDbLayerTableRecord
  2
LAYER5
 70
         0
 62
         7
  6
Continuous
290
         1
370
        -3
390
1F
  0
LAYER
  5
42
100
AcDbSymbolTableRecord
100
AcDbLayerTableRecord
  2
LAYER4
 70
         0
 62
         7
  6
Continuous
290
         1
370
        -3
390
1F
  0
LAYER
  5
66
100
AcDbSymbolTableRecord
100
AcDbLayerTableRecord
  2
LAYER2
 70
         0
 62
         7
  6
Continuous
290
         1
370
        -3
390
1F
  0
LAYER
  5
A5
100
AcDbSymbolTableRecord
100
AcDbLayerTableRecord
  2
LAYER6
 70
         0
 62
         7
  6
Continuous
290
         1
370
        -3
390
1F
  0
LAYER
  5
A8
100
AcDbSymbolTableRecord
100
AcDbLayerTableRecord
  2
LAYER8
 70
         0
 62
         7
  6
Continuous
290
         1
370
        -3
390
1F
  0
ENDTAB
  0
TABLE
  2
STYLE
  5
3
100
AcDbSymbolTable
 70
         1
  0
STYLE
  5
17
100
AcDbSymbolTableRecord
100
AcDbTextStyleTableRecord
  2
Standard
 70
         0
 40
0.0
 41
1.0
 50
0.0
 71
         0
 42
0.0
  3
txt
  4
extfont
  0
ENDTAB
  0
TABLE
  2
VIEW
  5
5
100
AcDbSymbolTable
 70
         0
  0
ENDTAB
  0
TABLE
  2
UCS
  5
6
100
AcDbSymbolTable
 70
         0
  0
ENDTAB
  0
TABLE
  2
APPID
  5
8
100
AcDbSymbolTable
 70
         1
  0
APPID
  5
16
100
AcDbSymbolTableRecord
100
AcDbRegAppTableRecord
  2
ACAD
 70
         0
  0
ENDTAB
  0
TABLE
  2
DIMSTYLE
  5
9
100
AcDbSymbolTable
 70
         1
100
AcDbDimStyleTable
 71
         0
  0
DIMSTYLE
105
18
100
AcDbSymbolTableRecord
100
AcDbDimStyleTableRecord
  2
Standard
 70
         0
  3

  4

 40
1.0
 41
0.18
 42
0.0625
 43
0.38
 44
0.18
 45
0.0
 46
0.0
 47
0.0
 48
0.0
 71
         0
 72
         0
 73
         1
 74
         1
 75
         0
 76
         0
 77
         0
 78
         0
 79
         0
140
0.18
141
0.09
142
0.0
143
25.4
144
1.0
145
0.0
146
1.0
147
0.09
148
0.0
170
         0
171
         2
172
         0
173
         0
174
         0
175
         0
176
         0
177
         0
178
         0
179
         0
271
         4
272
         4
273
         2
274
         2
275
         0
276
         0
277
         2
278
        46
279
         0
280
         0
281
         0
282
         0
283
         1
284
         0
285
         0
286
         0
288
         0
340
17
341
0
342
0
343
0
344
0
371
        -2
372
        -2
  0
ENDTAB
  0
TABLE
  2
BLOCK_RECORD
  5
1
100
AcDbSymbolTable
 70
         2
  0
BLOCK_RECORD
  5
A
100
AcDbSymbolTableRecord
100
AcDbBlockTableRecord
  2
*MODEL_SPACE
340
20
  0
BLOCK_RECORD
  5
B
100
AcDbSymbolTableRecord
100
AcDbBlockTableRecord
  2
*PAPER_SPACE
340
21
  0
BLOCK_RECORD
  5
195
100
AcDbSymbolTableRecord
100
AcDbBlockTableRecord
  2
CLUMP0
340
0
  0
BLOCK_RECORD
  5
198
100
AcDbSymbolTableRecord
100
AcDbBlockTableRecord
  2
CLUMP1
340
0
  0
ENDTAB
  0
ENDSEC
  0
SECTION
  2
BLOCKS
  0
BLOCK
  5
D
100
AcDbEntity
  8
0
100
AcDbBlockBegin
  2
*MODEL_SPACE
 70
         0
 10
0.0
 20
0.0
 30
0.0
  3
*MODEL_SPACE
  1

  0
ENDBLK
  5
E
100
AcDbEntity
  8
0
100
AcDbBlockEnd
  0
BLOCK
  5
F
100
AcDbEntity
 67
         1
  8
0
100
AcDbBlockBegin
  2
*PAPER_SPACE
 70
         0
 10
0.0
 20
0.0
 30
0.0
  3
*PAPER_SPACE
  1

  0
ENDBLK
  5
10
100
AcDbEntity
 67
         1
  8
0
100
AcDbBlockEnd
  0
BLOCK
  5
197
100
AcDbEntity
  8
0
100
AcDbBlockBegin
  2
CLUMP0
 70
         0
 10
0.0
 20
0.0
 30
0.0
  3

  1

  0
INSERT
  5
199
100
AcDbEntity
  8
0
100
AcDbBlockReference
  2
CLUMP1
 10
0.0
 20
0.0
 30
0.0
  0
ENDBLK
  5
19E
100
AcDbEntity
  8
0
100
AcDbBlockEnd
  0
BLOCK
  5
19A
100
AcDbEntity
  8
0
100
AcDbBlockBegin
  2
CLUMP1
 70
         0
 10
0.0
 20
0.0
 30
0.0
  3

  1

  0
CIRCLE
  5
19B
100
AcDbEntity
  8
LAYER0
 62
         4
100
AcDbCircle
 10
-1.1536729858
 20
69.8147304936
 30
0.0
 40
2.4585
210
0.0
220
0.0
230
1.0
  0
CIRCLE
  5
19C
100
AcDbEntity
  8
LAYER0
 62
         4
100
AcDbCircle
 10
-1.1536729858
 20
69.8147304936
 30
0.0
 40
3.0
210
0.0
220
0.0
230
1.0
  0
ENDBLK
  5
19D
100
AcDbEntity
  8
0
100
AcDbBlockEnd
  0
ENDSEC
  0
SECTION
  2
ENTITIES
  0
LINE
  5
2F
100
AcDbEntity
  8
LAYER3
 62
         4
100
AcDbLine
 10
76.3963270142
 20
-22.9572547425
 30
0.0
 11
91.6311308538
 21
-22.9572547425
 31
0.0
  0
LINE
  5
31
100
AcDbEntity
  8
LAYER0
 62
         3
100
AcDbLine
 10
5.5463270142
 20
56.1147304936
 30
0.0
 11
5.5463270142
 21
58.3147304936
 31
0.0
  0
LINE
  5
32
100
AcDbEntity
  8
LAYER0
 62
         3
100
AcDbLine
 10
7.8463270142
 20
54.8147304936
 30
0.0
 11
9.4463270142
 21
54.8147304936
 31
0.0
  0
LINE
  5
33
100
AcDbEntity
  8
LAYER0
 62
         3
100
AcDbLine
 10
9.4463270142
 20
26.2427452575
 30
0.0
 11
7.8463270142
 21
26.2427452575
 31
0.0
  0
ARC
  5
34
100
AcDbEntity
  8
LAYER0
 62
         3
100
AcDbCircle
 10
47.3963270142
 20
25.2427452575
 30
0.0
 40
1.0
210
0.0
220
0.0
230
1.0
100
AcDbArc
 50
90.0000015352
 51
179.9999969295
  0
LINE
  5
35
100
AcDbEntity
  8
LAYER3
 62
         4
100
AcDbLine
 10
46.3963270142
 20
26.2427452575
 30
0.0
 11
46.3963270142
 21
40.6889782184
 31
0.0
  0
ARC
  5
36
100
AcDbEntity
  8
LAYER0
 62
         3
100
AcDbCircle
 10
75.3963270142
 20
25.2427452575
 30
0.0
 40
1.0
210
0.0
220
-0.0
230
1.0
100
AcDbArc
 50
0.0
 51
90.0000015352
  0
LINE
  5
37
100
AcDbEntity
  8
LAYER3
 62
         4
100
AcDbLine
 10
76.3963270142
 20
26.2427452575
 30
0.0
 11
76.3963270142
 21
40.6889782184
 31
0.0
  0
LINE
  5
38
100
AcDbEntity
  8
LAYER3
 62
         4
100
AcDbLine
 10
90.6311308538
 20
26.2427452575
 30
0.0
 11
91.2548659263
 21
23.3083024553
 31
0.0
  0
LINE
  5
39
100
AcDbEntity
  8
LAYER3
 62
         4
100
AcDbLine
 10
90.6311308538
 20
26.2427452575
 30
0.0
 11
90.0073957814
 21
23.3083024553
 31
0.0
  0
LINE
  5
3A
100
AcDbEntity
  8
LAYER3
 62
         4
100
AcDbLine
 10
76.3963270142
 20
26.2427452575
 30
0.0
 11
91.6311308538
 21
26.2427452575
 31
0.0
  0
MTEXT
  5
3B
100
AcDbEntity
  8
LAYER3
100
AcDbMText
 10
58.9963270142
 20
43.4766369098
 30
0.0
 40
2.1473683357
 41
2.5646459961
 71
         1
 72
         1
  1
\W0.8;30
  0
LINE
  5
3C
100
AcDbEntity
  8
LAYER3
 62
         4
100
AcDbLine
 10
76.3963270142
 20
39.6889782184
 30
0.0
 11
73.461884212
 21
39.065243146
 31
0.0
  0
LINE
  5
3D
100
AcDbEntity
  8
LAYER3
 62
         4
100
AcDbLine
 10
76.3963270142
 20
39.6889782184
 30
0.0
 11
73.461884212
 21
40.3127132909
 31
0.0
  0
LINE
  5
3F
100
AcDbEntity
  8
LAYER5
 62
         6
100
AcDbLine
 10
6.8463270142
 20
-9.1852695064
 30
0.0
 11
6.8463270142
 21
-10.1852695064
 31
0.0
  0
LINE
  5
40
100
AcDbEntity
  8
LAYER5
 62
         6
100
AcDbLine
 10
5.5463270142
 20
-9.1852695064
 30
0.0
 11
6.8463270142
 21
-9.1852695064
 31
0.0
  0
LINE
  5
41
100
AcDbEntity
  8
LAYER5
 62
         6
100
AcDbLine
 10
6.8463270142
 20
-8.1852695064
 30
0.0
 11
5.5463270142
 21
-8.1852695064
 31
0.0
  0
LINE
  5
43
100
AcDbEntity
  8
LAYER4
 62
         4
100
AcDbLine
 10
6.8463270142
 20
-9.1852695064
 30
0.0
 11
6.8463270142
 21
-13.1852695064
 31
0.0
  0
LINE
  5
44
100
AcDbEntity
  8
LAYER0
 62
         3
100
AcDbLine
 10
72.8963270142
 20
3.2427452575
 30
0.0
 11
72.8963270142
 21
1.6427452575
 31
0.0
  0
LINE
  5
45
100
AcDbEntity
  8
LAYER0
 62
         3
100
AcDbLine
 10
61.3963270142
 20
-1.7945130427
 30
0.0
 11
61.3963270142
 21
1.6427452575
 31
0.0
  0
LINE
  5
46
100
AcDbEntity
  8
LAYER0
 62
         3
100
AcDbLine
 10
72.8963270142
 20
0.0427452575
 30
0.0
 11
74.3963270142
 21
0.0427452575
 31
0.0
  0
ARC
  5
47
100
AcDbEntity
  8
LAYER0
 62
         3
100
AcDbCircle
 10
74.3963270142
 20
-1.9572547425
 30
0.0
 40
2.0
210
0.0
220
-0.0
230
1.0
100
AcDbArc
 50
0.0
 51
90.0000015352
  0
ARC
  5
48
100
AcDbEntity
  8
LAYER0
 62
         3
100
AcDbCircle
 10
75.3963270142
 20
-21.9572547425
 30
0.0
 40
1.0
210
-0.0
220
0.0
230
1.0
100
AcDbArc
 50
269.9999984648
 51
0.0
  0
LINE
  5
49
100
AcDbEntity
  8
LAYER0
 62
         3
100
AcDbLine
 10
72.8963270142
 20
0.0427452575
 30
0.0
 11
72.8963270142
 21
1.6427452575
 31
0.0
  0
LINE
  5
4A
100
AcDbEntity
  8
LAYER0
 62
         3
100
AcDbLine
 10
76.3963270142
 20
-1.9572547425
 30
0.0
 11
76.3963270142
 21
-21.9572547425
 31
0.0
  0
LINE
  5
4B
100
AcDbEntity
  8
LAYER0
 62
         3
100
AcDbLine
 10
63.1463270142
 20
2.1113744076
 30
0.0
 11
61.3963270142
 21
1.6427452575
 31
0.0
  0
LINE
  5
4C
100
AcDbEntity
  8
LAYER0
 62
         3
100
AcDbLine
 10
61.3963270142
 20
1.6427452575
 30
0.0
 11
59.6463270142
 21
2.1113744076
 31
0.0
  0
LINE
  5
4D
100
AcDbEntity
  8
LAYER0
 62
         3
100
AcDbLine
 10
63.1463270142
 20
2.1113744076
 30
0.0
 11
61.3963270142
 21
5.0800035577
 31
0.0
  0
LINE
  5
4E
100
AcDbEntity
  8
LAYER0
 62
         3
100
AcDbLine
 10
59.6463270142
 20
2.1113744076
 30
0.0
 11
61.3963270142
 21
5.0800035577
 31
0.0
  0
LINE
  5
4F
100
AcDbEntity
  8
LAYER0
 62
         3
100
AcDbLine
 10
61.3963270142
 20
5.0800035577
 30
0.0
 11
61.3963270142
 21
1.6427452575
 31
0.0
  0
LINE
  5
50
100
AcDbEntity
  8
LAYER0
 62
         3
100
AcDbLine
 10
72.8963270142
 20
3.2427452575
 30
0.0
 11
74.3963270142
 21
3.2427452575
 31
0.0
  0
ARC
  5
51
100
AcDbEntity
  8
LAYER0
 62
         3
100
AcDbCircle
 10
74.3963270142
 20
5.2427452575
 30
0.0
 40
2.0
210
-0.0
220
0.0
230
1.0
100
AcDbArc
 50
269.9999984648
 51
0.0
  0
LINE
  5
52
100
AcDbEntity
  8
LAYER0
 62
         3
100
AcDbLine
 10
63.1463270142
 20
1.1741161074
 30
0.0
 11
61.3963270142
 21
1.6427452575
 31
0.0
  0
LINE
  5
53
100
AcDbEntity
  8
LAYER0
 62
         3
100
AcDbLine
 10
61.3963270142
 20
1.6427452575
 30
0.0
 11
59.6463270142
 21
1.1741161074
 31
0.0
  0
LINE
  5
54
100
AcDbEntity
  8
LAYER0
 62
         3
100
AcDbLine
 10
63.1463270142
 20
1.1741161074
 30
0.0
 11
61.3963270142
 21
-1.7945130427
 31
0.0
  0
LINE
  5
55
100
AcDbEntity
  8
LAYER0
 62
         3
100
AcDbLine
 10
59.6463270142
 20
1.1741161074
 30
0.0
 11
61.3963270142
 21
-1.7945130427
 31
0.0
  0
MTEXT
  5
56
100
AcDbEntity
  8
LAYER3
100
AcDbMText
 10
86.8434721624
 20
-3.1572548172
 30
0.0
 40
2.1473683357
 41
5.1292919922
 71
         1
 72
         1
  1
\W0.8;49.2
 11
-0.0000000268
 21
1.0
 31
0.0
  0
LINE
  5
57
100
AcDbEntity
  8
LAYER3
 62
         4
100
AcDbLine
 10
90.6311308538
 20
-22.9572547425
 30
0.0
 11
90.0073957814
 21
-20.0228119403
 31
0.0
  0
LINE
  5
58
100
AcDbEntity
  8
LAYER3
 62
         4
100
AcDbLine
 10
90.6311308538
 20
-22.9572547425
 30
0.0
 11
91.2548659263
 21
-20.0228119403
 31
0.0
  0
LINE
  5
59
100
AcDbEntity
  8
LAYER3
 62
         4
100
AcDbLine
 10
-15.9536729858
 20
57.1147304936
 30
0.0
 11
-15.9536729858
 21
57.6147304936
 31
0.0
  0
LINE
  5
5A
100
AcDbEntity
  8
LAYER0
 62
         4
100
AcDbLine
 10
-4.1536729858
 20
17.0427452575
 30
0.0
 11
-3.1536729858
 21
18.0427452575
 31
0.0
  0
ARC
  5
5B
100
AcDbEntity
  8
LAYER0
 62
         3
100
AcDbCircle
 10
4.1463270142
 20
-9.1852695064
 30
0.0
 40
1.4
210
-0.0
220
0.0
230
1.0
100
AcDbArc
 50
269.9999984648
 51
0.0
  0
LINE
  5
5C
100
AcDbEntity
  8
LAYER0
 62
         3
100
AcDbLine
 10
5.5463270142
 20
-5.1852695064
 30
0.0
 11
5.5463270142
 21
-9.0852695064
 31
0.0
  0
LINE
  5
5D
100
AcDbEntity
  8
LAYER0
 62
         3
100
AcDbLine
 10
9.4463270142
 20
-22.9572547425
 30
0.0
 11
7.8463270142
 21
-22.9572547425
 31
0.0
  0
LINE
  5
5E
100
AcDbEntity
  8
LAYER0
 62
         3
100
AcDbLine
 10
9.4463270142
 20
0.0427452575
 30
0.0
 11
9.4463270142
 21
-22.9572547425
 31
0.0
  0
LINE
  5
5F
100
AcDbEntity
  8
LAYER0
 62
         3
100
AcDbLine
 10
7.8463270142
 20
-22.9572547425
 30
0.0
 11
7.8463270142
 21
0.0427452575
 31
0.0
  0
LINE
  5
60
100
AcDbEntity
  8
LAYER0
 62
         3
100
AcDbLine
 10
5.3463270142
 20
0.0427452575
 30
0.0
 11
7.8463270142
 21
-2.4572547425
 31
0.0
  0
ARC
  5
61
100
AcDbEntity
  8
LAYER0
 62
         3
100
AcDbCircle
 10
7.8463270142
 20
0.0427452575
 30
0.0
 40
1.6
210
0.0
220
-0.0
230
1.0
100
AcDbArc
 50
0.0
 51
90.0000015352
  0
LINE
  5
62
100
AcDbEntity
  8
LAYER0
 62
         3
100
AcDbLine
 10
5.3463270142
 20
3.2427452575
 30
0.0
 11
7.8463270142
 21
5.7427452575
 31
0.0
  0
ARC
  5
63
100
AcDbEntity
  8
LAYER0
 62
         3
100
AcDbCircle
 10
7.8463270142
 20
3.2427452575
 30
0.0
 40
1.6
210
-0.0
220
0.0
230
1.0
100
AcDbArc
 50
269.9999984648
 51
0.0
  0
ARC
  5
64
100
AcDbEntity
  8
LAYER0
 62
         3
100
AcDbCircle
 10
47.3963270142
 20
-21.9572547425
 30
0.0
 40
1.0
210
0.0
220
0.0
230
1.0
100
AcDbArc
 50
179.9999969295
 51
269.9999984648
  0
LINE
  5
65
100
AcDbEntity
  8
LAYER0
 62
         3
100
AcDbLine
 10
46.3963270142
 20
-21.9572547425
 30
0.0
 11
46.3963270142
 21
-1.9572547425
 31
0.0
  0
ARC
  5
67
100
AcDbEntity
  8
LAYER2
 62
         4
100
AcDbCircle
 10
4.8943917853
 20
-15.2852695064
 30
0.0
 40
0.5
210
0.0
220
0.0
230
1.0
100
AcDbArc
 50
269.9999984648
 51
358.9999999829
  0
LINE
  5
68
100
AcDbEntity
  8
LAYER2
 62
         4
100
AcDbLine
 10
5.4943467845
 20
-9.5632148714
 30
0.0
 11
5.3943156329
 21
-15.2939957096
 31
0.0
  0
LINE
  5
69
100
AcDbEntity
  8
LAYER0
 62
         4
100
AcDbLine
 10
4.6198297061
 20
0.0427452575
 30
0.0
 11
4.6198297061
 21
-3.4529377282
 31
0.0
  0
ARC
  5
6A
100
AcDbEntity
  8
LAYER5
 62
         6
100
AcDbCircle
 10
6.8463270142
 20
-13.1852695064
 30
0.0
 40
1.0
210
-0.0
220
0.0
230
1.0
100
AcDbArc
 50
269.9999984648
 51
0.0
  0
LINE
  5
6B
100
AcDbEntity
  8
LAYER5
 62
         6
100
AcDbLine
 10
7.8463270142
 20
-12.1852695064
 30
0.0
 11
7.8463270142
 21
-13.1852695064
 31
0.0
  0
LINE
  5
6C
100
AcDbEntity
  8
LAYER5
 62
         6
100
AcDbLine
 10
6.8463270142
 20
-12.1852695064
 30
0.0
 11
7.8463270142
 21
-12.1852695064
 31
0.0
  0
LINE
  5
6D
100
AcDbEntity
  8
LAYER5
 62
         6
100
AcDbLine
 10
6.8463270142
 20
-13.1852695064
 30
0.0
 11
6.8463270142
 21
-12.1852695064
 31
0.0
  0
LINE
  5
6E
100
AcDbEntity
  8
LAYER5
 62
         6
100
AcDbLine
 10
5.4311235857
 20
-13.1852695064
 30
0.0
 11
6.8463270142
 21
-13.1852695064
 31
0.0
  0
LINE
  5
6F
100
AcDbEntity
  8
LAYER5
 62
         6
100
AcDbLine
 10
6.8463270142
 20
-14.1852695064
 30
0.0
 11
5.4136685208
 21
-14.1852695064
 31
0.0
  0
ARC
  5
70
100
AcDbEntity
  8
LAYER5
 62
         6
100
AcDbCircle
 10
6.8463270142
 20
-9.1852695064
 30
0.0
 40
1.0
210
0.0
220
-0.0
230
1.0
100
AcDbArc
 50
0.0
 51
90.0000015352
  0
LINE
  5
71
100
AcDbEntity
  8
LAYER5
 62
         6
100
AcDbLine
 10
7.8463270142
 20
-10.1852695064
 30
0.0
 11
7.8463270142
 21
-9.1852695064
 31
0.0
  0
LINE
  5
72
100
AcDbEntity
  8
LAYER5
 62
         6
100
AcDbLine
 10
6.8463270142
 20
-10.1852695064
 30
0.0
 11
7.8463270142
 21
-10.1852695064
 31
0.0
  0
LINE
  5
73
100
AcDbEntity
  8
LAYER0
 62
         3
100
AcDbLine
 10
-62.5536729858
 20
56.1147304936
 30
0.0
 11
-66.5536729858
 21
56.1147304936
 31
0.0
  0
LINE
  5
74
100
AcDbEntity
  8
LAYER0
 62
         3
100
AcDbLine
 10
-63.9536729858
 20
57.0147304936
 30
0.0
 11
-63.9536729858
 21
57.5147304936
 31
0.0
  0
LINE
  5
75
100
AcDbEntity
  8
LAYER0
 62
         3
100
AcDbLine
 10
-63.9536729858
 20
56.1147304936
 30
0.0
 11
-63.9536729858
 21
56.5147304936
 31
0.0
  0
LINE
  5
76
100
AcDbEntity
  8
LAYER0
 62
         3
100
AcDbLine
 10
-63.9536729858
 20
60.0147304936
 30
0.0
 11
-63.9536729858
 21
60.5147304936
 31
0.0
  0
LINE
  5
77
100
AcDbEntity
  8
LAYER0
 62
         3
100
AcDbLine
 10
-63.9536729858
 20
59.0147304936
 30
0.0
 11
-63.9536729858
 21
59.5147304936
 31
0.0
  0
LINE
  5
78
100
AcDbEntity
  8
LAYER0
 62
         3
100
AcDbLine
 10
-63.9536729858
 20
58.0147304936
 30
0.0
 11
-63.9536729858
 21
58.5147304936
 31
0.0
  0
LINE
  5
79
100
AcDbEntity
  8
LAYER3
 62
         4
100
AcDbLine
 10
-61.9536729858
 20
57.1147304936
 30
0.0
 11
-62.4536729858
 21
57.1147304936
 31
0.0
  0
LINE
  5
7A
100
AcDbEntity
  8
LAYER3
 62
         4
100
AcDbLine
 10
-62.4536729858
 20
57.1147304936
 30
0.0
 11
-62.4536729858
 21
56.1147304936
 31
0.0
  0
LINE
  5
7B
100
AcDbEntity
  8
LAYER3
 62
         4
100
AcDbLine
 10
-62.4536729858
 20
57.1147304936
 30
0.0
 11
-62.4536729858
 21
56.1147304936
 31
0.0
  0
ARC
  5
7C
100
AcDbEntity
  8
LAYER3
 62
         4
100
AcDbCircle
 10
-62.4536729858
 20
57.6147304936
 30
0.0
 40
0.5
210
0.0
220
-0.0
230
1.0
100
AcDbArc
 50
0.0
 51
90.0000015352
  0
LINE
  5
7D
100
AcDbEntity
  8
LAYER3
 62
         4
100
AcDbLine
 10
-61.9536729858
 20
57.1147304936
 30
0.0
 11
-61.9536729858
 21
57.6147304936
 31
0.0
  0
MTEXT
  5
7E
100
AcDbEntity
  8
LAYER3
100
AcDbMText
 10
-81.9039978867
 20
12.3427451828
 30
0.0
 40
2.1473683357
 41
2.5646459961
 71
         1
 72
         1
  1
\W0.8;23
 11
-0.0000000268
 21
1.0
 31
0.0
  0
LINE
  5
7F
100
AcDbEntity
  8
LAYER3
 62
         4
100
AcDbLine
 10
-78.1163391953
 20
26.2427452575
 30
0.0
 11
-77.4926041228
 21
23.3083024553
 31
0.0
  0
LINE
  5
80
100
AcDbEntity
  8
LAYER3
 62
         4
100
AcDbLine
 10
-78.1163391953
 20
26.2427452575
 30
0.0
 11
-78.7400742677
 21
23.3083024553
 31
0.0
  0
LINE
  5
81
100
AcDbEntity
  8
LAYER3
 62
         4
100
AcDbLine
 10
-71.6482404194
 20
26.2427452575
 30
0.0
 11
-79.1163391953
 21
26.2427452575
 31
0.0
  0
LINE
  5
82
100
AcDbEntity
  8
LAYER0
 62
         3
100
AcDbLine
 10
-13.9536729858
 20
57.5147304936
 30
0.0
 11
-15.3536729858
 21
57.5147304936
 31
0.0
  0
LINE
  5
83
100
AcDbEntity
  8
LAYER0
 62
         3
100
AcDbLine
 10
-13.9536729858
 20
57.5147304936
 30
0.0
 11
-13.9536729858
 21
56.1147304936
 31
0.0
  0
ARC
  5
84
100
AcDbEntity
  8
LAYER0
 62
         3
100
AcDbCircle
 10
-27.8536729858
 20
57.5147304936
 30
0.0
 40
1.4
210
-0.0
220
0.0
230
1.0
100
AcDbArc
 50
269.9999984648
 51
0.0
  0
LINE
  5
85
100
AcDbEntity
  8
LAYER0
 62
         3
100
AcDbLine
 10
-13.9536729858
 20
60.0147304936
 30
0.0
 11
-13.9536729858
 21
60.5147304936
 31
0.0
  0
LINE
  5
86
100
AcDbEntity
  8
LAYER0
 62
         3
100
AcDbLine
 10
-13.9536729858
 20
59.0147304936
 30
0.0
 11
-13.9536729858
 21
59.5147304936
 31
0.0
  0
LINE
  5
87
100
AcDbEntity
  8
LAYER0
 62
         3
100
AcDbLine
 10
-13.9536729858
 20
58.0147304936
 30
0.0
 11
-13.9536729858
 21
58.5147304936
 31
0.0
  0
ARC
  5
88
100
AcDbEntity
  8
LAYER0
 62
         3
100
AcDbCircle
 10
-8.0536729858
 20
60.3147304936
 30
0.0
 40
2.0
210
0.0
220
0.0
230
1.0
100
AcDbArc
 50
179.9999969295
 51
269.9999984648
  0
LINE
  5
89
100
AcDbEntity
  8
LAYER3
 62
         4
100
AcDbLine
 10
-15.4536729858
 20
57.1147304936
 30
0.0
 11
-15.9536729858
 21
57.1147304936
 31
0.0
  0
LINE
  5
8A
100
AcDbEntity
  8
LAYER3
 62
         4
100
AcDbLine
 10
-15.4536729858
 20
57.1147304936
 30
0.0
 11
-15.4536729858
 21
56.1147304936
 31
0.0
  0
ARC
  5
8B
100
AcDbEntity
  8
LAYER3
 62
         4
100
AcDbCircle
 10
-15.4536729858
 20
57.6147304936
 30
0.0
 40
0.5
210
0.0
220
0.0
230
1.0
100
AcDbArc
 50
90.0000015352
 51
179.9999969295
  0
LINE
  5
8C
100
AcDbEntity
  8
LAYER0
 62
         3
100
AcDbLine
 10
-15.3536729858
 20
-6.5852695064
 30
0.0
 11
-15.3536729858
 21
-10.5852695064
 31
0.0
  0
LINE
  5
8D
100
AcDbEntity
  8
LAYER0
 62
         3
100
AcDbLine
 10
-19.4536729858
 20
-5.1852695064
 30
0.0
 11
-19.4536729858
 21
-6.5852695064
 31
0.0
  0
LINE
  5
8E
100
AcDbEntity
  8
LAYER0
 62
         3
100
AcDbLine
 10
-26.4536729858
 20
-6.5852695064
 30
0.0
 11
-26.4536729858
 21
-5.1852695064
 31
0.0
  0
LINE
  5
8F
100
AcDbEntity
  8
LAYER0
 62
         3
100
AcDbLine
 10
-10.0536729858
 20
0.0427452575
 30
0.0
 11
-10.0536729858
 21
1.6427452575
 31
0.0
  0
LINE
  5
90
100
AcDbEntity
  8
LAYER0
 62
         3
100
AcDbLine
 10
-10.0536729858
 20
3.2427452575
 30
0.0
 11
-10.0536729858
 21
1.6427452575
 31
0.0
  0
LINE
  5
91
100
AcDbEntity
  8
LAYER0
 62
         3
100
AcDbLine
 10
-7.5536729858
 20
6.7427452575
 30
0.0
 11
-10.0536729858
 21
6.7427452575
 31
0.0
  0
LINE
  5
92
100
AcDbEntity
  8
LAYER0
 62
         3
100
AcDbLine
 10
-7.5536729858
 20
4.2427452575
 30
0.0
 11
-10.0536729858
 21
4.2427452575
 31
0.0
  0
LINE
  5
93
100
AcDbEntity
  8
LAYER0
 62
         3
100
AcDbLine
 10
-10.0536729858
 20
8.2427452575
 30
0.0
 11
-10.0536729858
 21
4.2427452575
 31
0.0
  0
LINE
  5
94
100
AcDbEntity
  8
LAYER2
 62
         4
100
AcDbLine
 10
-5.0336199615
 20
-14.9631026614
 30
0.0
 11
-5.0278442019
 21
-15.2939957096
 31
0.0
  0
LINE
  5
95
100
AcDbEntity
  8
LAYER3
 62
         4
100
AcDbLine
 10
-15.4536729858
 20
-8.5852695064
 30
0.0
 11
-15.4536729858
 21
-10.0852695064
 31
0.0
  0
LINE
  5
96
100
AcDbEntity
  8
LAYER3
 62
         4
100
AcDbLine
 10
-15.4536729858
 20
-6.5852695064
 30
0.0
 11
-15.4536729858
 21
-7.5852695064
 31
0.0
  0
ARC
  5
97
100
AcDbEntity
  8
LAYER3
 62
         4
100
AcDbCircle
 10
-15.4536729858
 20
-8.0852695064
 30
0.0
 40
0.5
210
0.0
220
0.0
230
1.0
100
AcDbArc
 50
179.9999969295
 51
269.9999984648
  0
LINE
  5
98
100
AcDbEntity
  8
LAYER3
 62
         4
100
AcDbLine
 10
-15.9536729858
 20
-7.5852695064
 30
0.0
 11
-15.4536729858
 21
-7.5852695064
 31
0.0
  0
ARC
  5
99
100
AcDbEntity
  8
LAYER3
 62
         4
100
AcDbCircle
 10
-15.9536729858
 20
-10.0852695064
 30
0.0
 40
0.5
210
-0.0
220
0.0
230
1.0
100
AcDbArc
 50
269.9999984648
 51
0.0
  0
LINE
  5
9A
100
AcDbEntity
  8
LAYER3
 62
         4
100
AcDbLine
 10
-15.9536729858
 20
-6.5852695064
 30
0.0
 11
-15.9536729858
 21
-8.0852695064
 31
0.0
  0
LINE
  5
9B
100
AcDbEntity
  8
LAYER0
 62
         4
100
AcDbLine
 10
-6.9271756777
 20
0.0427452575
 30
0.0
 11
-6.9271756777
 21
-3.4529377282
 31
0.0
  0
LINE
  5
9C
100
AcDbEntity
  8
LAYER0
 62
         4
100
AcDbLine
 10
-3.6121729858
 20
3.2427452575
 30
0.0
 11
-3.6121729858
 21
8.2427452575
 31
0.0
  0
LINE
  5
9D
100
AcDbEntity
  8
LAYER0
 62
         5
100
AcDbLine
 10
-13.9566167109
 20
-7.1852695064
 30
0.0
 11
-13.9536729858
 21
-7.1823257813
 31
0.0
  0
ARC
  5
9E
100
AcDbEntity
  8
LAYER2
 62
         4
100
AcDbCircle
 10
-4.5279203543
 20
-15.2852695064
 30
0.0
 40
0.5
210
0.0
220
0.0
230
1.0
100
AcDbArc
 50
180.9999969466
 51
269.9999984648
  0
ARC
  5
9F
100
AcDbEntity
  8
LAYER2
 62
         4
100
AcDbCircle
 10
-12.0325538276
 20
-15.0852695064
 30
0.0
 40
7.0
210
0.0
220
0.0
230
1.0
100
AcDbArc
 50
1.0000000171
 51
40.0052015673
  0
LINE
  5
A0
100
AcDbEntity
  8
LAYER0
 62
         4
100
AcDbLine
 10
-4.1536729858
 20
3.2427452575
 30
0.0
 11
-4.1536729858
 21
8.2427452575
 31
0.0
  0
ARC
  5
A1
100
AcDbEntity
  8
LAYER0
 62
         4
100
AcDbCircle
 10
-5.4838000047
 20
-1.639596486
 30
0.0
 40
2.3176582566
210
0.0
220
0.0
230
1.0
100
AcDbArc
 50
231.4810584745
 51
308.518938455
  0
LINE
  5
A2
100
AcDbEntity
  8
LAYER0
 62
         4
100
AcDbLine
 10
-4.0404243317
 20
0.0427452575
 30
0.0
 11
-4.0404243317
 21
-3.4529377282
 31
0.0
  0
ARC
  5
A3
100
AcDbEntity
  8
LAYER0
 62
         3
100
AcDbCircle
 10
-50.0536729858
 20
57.5147304936
 30
0.0
 40
1.4
210
0.0
220
0.0
230
1.0
100
AcDbArc
 50
179.9999969295
 51
269.9999984648
  0
ARC
  5
A4
100
AcDbEntity
  8
LAYER0
 62
         3
100
AcDbCircle
 10
-66.5536729858
 20
57.5147304936
 30
0.0
 40
1.4
210
0.0
220
0.0
230
1.0
100
AcDbArc
 50
179.9999969295
 51
269.9999984648
  0
ARC
  5
A6
100
AcDbEntity
  8
LAYER6
 62
         4
100
AcDbCircle
 10
-10.8536729858
 20
-5.1852695064
 30
0.0
 40
0.5
210
0.0
220
0.0
230
1.0
100
AcDbArc
 50
90.0000015352
 51
179.9999969295
  0
LINE
  5
A7
100
AcDbEntity
  8
LAYER6
 62
         4
100
AcDbLine
 10
-10.8536729858
 20
-4.6852695064
 30
0.0
 11
-7.4778219569
 21
-4.6852695064
 31
0.0
  0
LINE
  5
A9
100
AcDbEntity
  8
LAYER8
 62
         3
100
AcDbLine
 10
-22.1536729858
 20
-5.1852695064
 30
0.0
 11
-22.1536729858
 21
-6.5852695064
 31
0.0
  0
LINE
  5
AA
100
AcDbEntity
  8
LAYER8
 62
         3
100
AcDbLine
 10
-22.1536729858
 20
-2.2572547425
 30
0.0
 11
-22.1536729858
 21
-3.1852695064
 31
0.0
  0
LINE
  5
AB
100
AcDbEntity
  8
LAYER8
 62
         3
100
AcDbLine
 10
-23.7536729858
 20
-3.1852695064
 30
0.0
 11
-23.7536729858
 21
-2.2572547425
 31
0.0
  0
LINE
  5
AC
100
AcDbEntity
  8
LAYER8
 62
         3
100
AcDbLine
 10
-23.7536729858
 20
-6.5852695064
 30
0.0
 11
-23.7536729858
 21
-5.1852695064
 31
0.0
  0
ARC
  5
AD
100
AcDbEntity
  8
LAYER8
 62
         3
100
AcDbCircle
 10
-22.9536729858
 20
-11.676438331
 30
0.0
 40
6.6
210
0.0
220
0.0
230
1.0
100
AcDbArc
 50
100.4193585619
 51
122.0259337317
  0
ARC
  5
AE
100
AcDbEntity
  8
LAYER8
 62
         3
100
AcDbCircle
 10
-22.9536729858
 20
-11.676438331
 30
0.0
 40
6.6
210
0.0
220
0.0
230
1.0
100
AcDbArc
 50
57.9740693388
 51
79.5806445086
  0
ARC
  5
AF
100
AcDbEntity
  8
LAYER8
 62
         3
100
AcDbCircle
 10
-22.9536729858
 20
-11.676438331
 30
0.0
 40
4.0
210
0.0
220
0.0
230
1.0
100
AcDbArc
 50
164.1695156286
 51
179.9999969295
  0
ARC
  5
B0
100
AcDbEntity
  8
LAYER8
 62
         3
100
AcDbCircle
 10
-22.9536729858
 20
-11.676438331
 30
0.0
 40
4.0
210
0.0
220
0.0
230
1.0
100
AcDbArc
 50
0.0
 51
15.8304874419
  0
ARC
  5
B1
100
AcDbEntity
  8
LAYER8
 62
         3
100
AcDbCircle
 10
-22.9536729858
 20
-11.676438331
 30
0.0
 40
6.6
210
0.0
220
0.0
230
1.0
100
AcDbArc
 50
0.0
 51
9.5163247671
  0
ARC
  5
B2
100
AcDbEntity
  8
LAYER8
 62
         3
100
AcDbCircle
 10
-22.9536729858
 20
-11.676438331
 30
0.0
 40
6.6
210
0.0
220
0.0
230
1.0
100
AcDbArc
 50
170.4836783034
 51
179.9999969295
  0
LINE
  5
B3
100
AcDbEntity
  8
LAYER8
 62
         3
100
AcDbLine
 10
-17.1334496224
 20
-3.1852695064
 30
0.0
 11
-17.1334496224
 21
-5.1852695064
 31
0.0
  0
LINE
  5
B4
100
AcDbEntity
  8
LAYER8
 62
         3
100
AcDbLine
 10
-17.6503721269
 20
-3.1852695064
 30
0.0
 11
-17.6503721269
 21
-5.1852695064
 31
0.0
  0
LINE
  5
B5
100
AcDbEntity
  8
LAYER8
 62
         3
100
AcDbLine
 10
-19.0645856893
 20
-3.1852695064
 30
0.0
 11
-19.0645856893
 21
-5.1852695064
 31
0.0
  0
LINE
  5
B6
100
AcDbEntity
  8
LAYER8
 62
         3
100
AcDbLine
 10
-15.9536729858
 20
-3.1852695064
 30
0.0
 11
-15.9536729858
 21
-5.1852695064
 31
0.0
  0
LINE
  5
B7
100
AcDbEntity
  8
LAYER8
 62
         3
100
AcDbLine
 10
-29.9536729858
 20
-3.1852695064
 30
0.0
 11
-15.9536729858
 21
-3.1852695064
 31
0.0
  0
LINE
  5
B8
100
AcDbEntity
  8
LAYER8
 62
         3
100
AcDbLine
 10
-29.9536729858
 20
-5.1852695064
 30
0.0
 11
-15.9536729858
 21
-5.1852695064
 31
0.0
  0
LINE
  5
B9
100
AcDbEntity
  8
LAYER8
 62
         3
100
AcDbLine
 10
-29.9536729858
 20
-3.1852695064
 30
0.0
 11
-29.9536729858
 21
-5.1852695064
 31
0.0
  0
LINE
  5
BA
100
AcDbEntity
  8
LAYER0
 62
         3
100
AcDbLine
 10
-17.9536729858
 20
-5.1852695064
 30
0.0
 11
-17.9536729858
 21
-6.5852695064
 31
0.0
  0
LINE
  5
BB
100
AcDbEntity
  8
LAYER0
 62
         3
100
AcDbLine
 10
-19.4536729858
 20
-5.1852695064
 30
0.0
 11
-19.4536729858
 21
-6.5852695064
 31
0.0
  0
LINE
  5
BC
100
AcDbEntity
  8
LAYER0
 62
         3
100
AcDbLine
 10
-13.9536729858
 20
-7.1852695064
 30
0.0
 11
-15.3536729858
 21
-7.1852695064
 31
0.0
  0
ARC
  5
BD
100
AcDbEntity
  8
LAYER0
 62
         3
100
AcDbCircle
 10
-12.5536729858
 20
-9.1852695064
 30
0.0
 40
1.4
210
0.0
220
0.0
230
1.0
100
AcDbArc
 50
179.9999969295
 51
269.9999984648
  0
ARC
  5
BE
100
AcDbEntity
  8
LAYER0
 62
         3
100
AcDbCircle
 10
-13.9536729858
 20
-6.5852695064
 30
0.0
 40
1.4
210
0.0
220
0.0
230
1.0
100
AcDbArc
 50
90.0000015352
 51
179.9999969295
  0
LINE
  5
BF
100
AcDbEntity
  8
LAYER0
 62
         3
100
AcDbLine
 10
-13.9536729858
 20
-10.5852695064
 30
0.0
 11
-13.9536729858
 21
-5.1852695064
 31
0.0
  0
LINE
  5
C0
100
AcDbEntity
  8
LAYER8
 62
         3
100
AcDbLine
 10
-23.7536729858
 20
1.7427452575
 30
0.0
 11
-23.7536729858
 21
4.2427452575
 31
0.0
  0
LINE
  5
C1
100
AcDbEntity
  8
LAYER8
 62
         3
100
AcDbLine
 10
-22.1536729858
 20
4.2427452575
 30
0.0
 11
-22.1536729858
 21
1.7427452575
 31
0.0
  0
LINE
  5
C2
100
AcDbEntity
  8
LAYER8
 62
         3
100
AcDbLine
 10
-17.9536729858
 20
1.7427452575
 30
0.0
 11
-17.9536729858
 21
0.7427452575
 31
0.0
  0
LINE
  5
C3
100
AcDbEntity
  8
LAYER8
 62
         3
100
AcDbLine
 10
-27.9536729858
 20
1.7427452575
 30
0.0
 11
-17.9536729858
 21
1.7427452575
 31
0.0
  0
LINE
  5
C4
100
AcDbEntity
  8
LAYER8
 62
         3
100
AcDbLine
 10
-27.9536729858
 20
0.7427452575
 30
0.0
 11
-27.9536729858
 21
1.7427452575
 31
0.0
  0
ARC
  5
C5
100
AcDbEntity
  8
LAYER8
 62
         3
100
AcDbCircle
 10
-22.9536729858
 20
-13.676438331
 30
0.0
 40
6.6
210
-0.0
220
-0.0
230
1.0
100
AcDbArc
 50
179.9999969295
 51
360.0
  0
LINE
  5
C6
100
AcDbEntity
  8
LAYER8
 62
         3
100
AcDbLine
 10
-16.3536729858
 20
-11.676438331
 30
0.0
 11
-16.3536729858
 21
-13.676438331
 31
0.0
  0
LINE
  5
C7
100
AcDbEntity
  8
LAYER8
 62
         3
100
AcDbLine
 10
-29.5536729858
 20
-11.676438331
 30
0.0
 11
-29.5536729858
 21
-13.676438331
 31
0.0
  0
ARC
  5
C8
100
AcDbEntity
  8
LAYER8
 62
         3
100
AcDbCircle
 10
-22.9536729858
 20
-13.676438331
 30
0.0
 40
4.0
210
0.0
220
-0.0
230
1.0
100
AcDbArc
 50
179.9999969295
 51
0.0
  0
LINE
  5
C9
100
AcDbEntity
  8
LAYER8
 62
         3
100
AcDbLine
 10
-18.9536729858
 20
-11.676438331
 30
0.0
 11
-18.9536729858
 21
-13.676438331
 31
0.0
  0
LINE
  5
CA
100
AcDbEntity
  8
LAYER8
 62
         3
100
AcDbLine
 10
-26.9536729858
 20
-11.676438331
 30
0.0
 11
-26.9536729858
 21
-13.676438331
 31
0.0
  0
LINE
  5
CB
100
AcDbEntity
  8
LAYER8
 62
         3
100
AcDbLine
 10
-23.7536729858
 20
1.7427452575
 30
0.0
 11
-22.1536729858
 21
1.7427452575
 31
0.0
  0
LINE
  5
CC
100
AcDbEntity
  8
LAYER8
 62
         3
100
AcDbLine
 10
-23.7536729858
 20
4.2427452575
 30
0.0
 11
-22.1536729858
 21
4.2427452575
 31
0.0
  0
LINE
  5
CD
100
AcDbEntity
  8
LAYER8
 62
         3
100
AcDbLine
 10
-17.042877777
 20
0.7427452575
 30
0.0
 11
-17.042877777
 21
-2.2572547425
 31
0.0
  0
LINE
  5
CE
100
AcDbEntity
  8
LAYER8
 62
         3
100
AcDbLine
 10
-28.8644681946
 20
0.7427452575
 30
0.0
 11
-28.8644681946
 21
-2.2572547425
 31
0.0
  0
ARC
  5
CF
100
AcDbEntity
  8
LAYER8
 62
         3
100
AcDbCircle
 10
-15.9536729858
 20
-1.2572547425
 30
0.0
 40
1.0
210
-0.0
220
0.0
230
1.0
100
AcDbArc
 50
269.9999984648
 51
0.0
  0
ARC
  5
D0
100
AcDbEntity
  8
LAYER8
 62
         3
100
AcDbCircle
 10
-29.9536729858
 20
-1.2572547425
 30
0.0
 40
1.0
210
0.0
220
0.0
230
1.0
100
AcDbArc
 50
179.9999969295
 51
269.9999984648
  0
ARC
  5
D1
100
AcDbEntity
  8
LAYER8
 62
         3
100
AcDbCircle
 10
-15.3045623451
 20
9.3918558982
 30
0.0
 40
0.3508893593
210
0.0
220
-0.0
230
1.0
100
AcDbArc
 50
0.0
 51
156.3429457416
  0
ARC
  5
D2
100
AcDbEntity
  8
LAYER8
 62
         3
100
AcDbCircle
 10
-30.6027836265
 20
9.3918558982
 30
0.0
 40
0.3508893593
210
0.0
220
-0.0
230
1.0
100
AcDbArc
 50
23.6570573288
 51
179.9999969295
  0
ARC
  5
D3
100
AcDbEntity
  8
LAYER8
 62
         3
100
AcDbCircle
 10
-17.9536729858
 20
5.868881715
 30
0.0
 40
0.5
210
0.0
220
0.0
230
1.0
100
AcDbArc
 50
126.0318812223
 51
179.9999969295
  0
ARC
  5
D4
100
AcDbEntity
  8
LAYER8
 62
         3
100
AcDbCircle
 10
-27.9536729858
 20
5.868881715
 30
0.0
 40
0.5
210
0.0
220
0.0
230
1.0
100
AcDbArc
 50
0.0
 51
53.9681218481
  0
ARC
  5
D5
100
AcDbEntity
  8
LAYER6
 62
         4
100
AcDbCircle
 10
-37.2536729858
 20
-5.1852695064
 30
0.0
 40
0.5
210
0.0
220
-0.0
230
1.0
100
AcDbArc
 50
0.0
 51
90.0000015352
  0
ARC
  5
D6
100
AcDbEntity
  8
LAYER6
 62
         4
100
AcDbCircle
 10
-40.6536729858
 20
-5.1852695064
 30
0.0
 40
0.5
210
0.0
220
0.0
230
1.0
100
AcDbArc
 50
90.0000015352
 51
179.9999969295
  0
LINE
  5
D7
100
AcDbEntity
  8
LAYER6
 62
         4
100
AcDbLine
 10
-40.6536729858
 20
-4.6852695064
 30
0.0
 11
-37.2778219569
 21
-4.6852695064
 31
0.0
  0
ARC
  5
D8
100
AcDbEntity
  8
LAYER6
 62
         4
100
AcDbCircle
 10
-7.4536729858
 20
-5.1852695064
 30
0.0
 40
0.5
210
0.0
220
-0.0
230
1.0
100
AcDbArc
 50
0.0
 51
90.0000015352
  0
LINE
  5
D9
100
AcDbEntity
  8
LAYER3
 62
         4
100
AcDbLine
 10
-62.4536729858
 20
-6.5852695064
 30
0.0
 11
-62.4536729858
 21
-7.5852695064
 31
0.0
  0
ARC
  5
DA
100
AcDbEntity
  8
LAYER3
 62
         4
100
AcDbCircle
 10
-62.4536729858
 20
-8.0852695064
 30
0.0
 40
0.5
210
-0.0
220
0.0
230
1.0
100
AcDbArc
 50
269.9999984648
 51
0.0
  0
LINE
  5
DB
100
AcDbEntity
  8
LAYER3
 62
         4
100
AcDbLine
 10
-61.9536729858
 20
-7.5852695064
 30
0.0
 11
-62.4536729858
 21
-7.5852695064
 31
0.0
  0
LINE
  5
DC
100
AcDbEntity
  8
LAYER3
 62
         4
100
AcDbLine
 10
-61.9536729858
 20
-6.5852695064
 30
0.0
 11
-61.9536729858
 21
-8.0852695064
 31
0.0
  0
ARC
  5
DD
100
AcDbEntity
  8
LAYER3
 62
         4
100
AcDbCircle
 10
-61.9536729858
 20
-10.0852695064
 30
0.0
 40
0.5
210
0.0
220
0.0
230
1.0
100
AcDbArc
 50
179.9999969295
 51
269.9999984648
  0
MTEXT
  5
DE
100
AcDbEntity
  8
LAYER3
100
AcDbMText
 10
-81.9039978867
 20
-9.6168466114
 30
0.0
 40
2.1473683357
 41
2.5646459961
 71
         1
 72
         1
  1
\W0.8;21
 11
-0.0000000268
 21
1.0
 31
0.0
  0
LINE
  5
DF
100
AcDbEntity
  8
LAYER3
 62
         4
100
AcDbLine
 10
-78.1163391953
 20
-17.676438331
 30
0.0
 11
-78.7400742677
 21
-14.7419955288
 31
0.0
  0
LINE
  5
E0
100
AcDbEntity
  8
LAYER3
 62
         4
100
AcDbLine
 10
-78.1163391953
 20
-17.676438331
 30
0.0
 11
-77.4926041228
 21
-14.7419955288
 31
0.0
  0
LINE
  5
E1
100
AcDbEntity
  8
LAYER3
 62
         4
100
AcDbLine
 10
-78.1163391953
 20
3.2427452575
 30
0.0
 11
-77.4926041228
 21
0.3083024553
 31
0.0
  0
LINE
  5
E2
100
AcDbEntity
  8
LAYER3
 62
         4
100
AcDbLine
 10
-78.1163391953
 20
3.2427452575
 30
0.0
 11
-78.7400742677
 21
0.3083024553
 31
0.0
  0
LINE
  5
E3
100
AcDbEntity
  8
LAYER3
 62
         4
100
AcDbLine
 10
-78.1163391953
 20
3.2427452575
 30
0.0
 11
-78.1163391953
 21
-17.676438331
 31
0.0
  0
LINE
  5
E4
100
AcDbEntity
  8
LAYER3
 62
         4
100
AcDbLine
 10
-55.9536729858
 20
-17.676438331
 30
0.0
 11
-79.1163391953
 21
-17.676438331
 31
0.0
  0
LINE
  5
E5
100
AcDbEntity
  8
LAYER3
 62
         4
100
AcDbLine
 10
-71.6482404194
 20
3.2427452575
 30
0.0
 11
-79.1163391953
 21
3.2427452575
 31
0.0
  0
LINE
  5
E6
100
AcDbEntity
  8
LAYER3
 62
         4
100
AcDbLine
 10
-78.1163391953
 20
3.2427452575
 30
0.0
 11
-78.7400742677
 21
6.1771880597
 31
0.0
  0
LINE
  5
E7
100
AcDbEntity
  8
LAYER3
 62
         4
100
AcDbLine
 10
-78.1163391953
 20
3.2427452575
 30
0.0
 11
-77.4926041228
 21
6.1771880597
 31
0.0
  0
LINE
  5
E8
100
AcDbEntity
  8
LAYER3
 62
         4
100
AcDbLine
 10
-71.6482404194
 20
3.2427452575
 30
0.0
 11
-79.1163391953
 21
3.2427452575
 31
0.0
  0
LINE
  5
E9
100
AcDbEntity
  8
LAYER8
 62
         3
100
AcDbLine
 10
-28.4536729858
 20
4.7427452575
 30
0.0
 11
-17.4536729858
 21
4.7427452575
 31
0.0
  0
LINE
  5
EA
100
AcDbEntity
  8
LAYER8
 62
         3
100
AcDbLine
 10
-28.8644681946
 20
0.7427452575
 30
0.0
 11
-17.042877777
 21
0.7427452575
 31
0.0
  0
LINE
  5
EB
100
AcDbEntity
  8
LAYER8
 62
         3
100
AcDbLine
 10
-28.4536729858
 20
0.7427452575
 30
0.0
 11
-28.4536729858
 21
4.7427452575
 31
0.0
  0
LINE
  5
EC
100
AcDbEntity
  8
LAYER8
 62
         3
100
AcDbLine
 10
-17.4536729858
 20
4.7427452575
 30
0.0
 11
-17.4536729858
 21
0.7427452575
 31
0.0
  0
LINE
  5
ED
100
AcDbEntity
  8
LAYER8
 62
         3
100
AcDbLine
 10
-27.4536729858
 20
5.868881715
 30
0.0
 11
-27.4536729858
 21
4.7427452575
 31
0.0
  0
LINE
  5
EE
100
AcDbEntity
  8
LAYER8
 62
         3
100
AcDbLine
 10
-18.4536729858
 20
5.868881715
 30
0.0
 11
-18.4536729858
 21
4.7427452575
 31
0.0
  0
LINE
  5
EF
100
AcDbEntity
  8
LAYER8
 62
         3
100
AcDbLine
 10
-30.9536729858
 20
9.3918558982
 30
0.0
 11
-30.9536729858
 21
-1.2572547425
 31
0.0
  0
LINE
  5
F0
100
AcDbEntity
  8
LAYER8
 62
         3
100
AcDbLine
 10
-29.9536729858
 20
-2.2572547425
 30
0.0
 11
-15.9536729858
 21
-2.2572547425
 31
0.0
  0
LINE
  5
F1
100
AcDbEntity
  8
LAYER8
 62
         3
100
AcDbLine
 10
-14.9536729858
 20
-1.2572547425
 30
0.0
 11
-14.9536729858
 21
9.3918558982
 31
0.0
  0
LINE
  5
F2
100
AcDbEntity
  8
LAYER8
 62
         3
100
AcDbLine
 10
-55.7536729858
 20
-3.1852695064
 30
0.0
 11
-55.7536729858
 21
-2.2572547425
 31
0.0
  0
LINE
  5
F3
100
AcDbEntity
  8
LAYER8
 62
         3
100
AcDbLine
 10
-55.7536729858
 20
-6.5852695064
 30
0.0
 11
-55.7536729858
 21
-5.1852695064
 31
0.0
  0
ARC
  5
F4
100
AcDbEntity
  8
LAYER8
 62
         3
100
AcDbCircle
 10
-54.9536729858
 20
-11.676438331
 30
0.0
 40
6.6
210
0.0
220
0.0
230
1.0
100
AcDbArc
 50
100.4193585619
 51
122.0259337317
  0
ARC
  5
F5
100
AcDbEntity
  8
LAYER8
 62
         3
100
AcDbCircle
 10
-54.9536729858
 20
-11.676438331
 30
0.0
 40
6.6
210
0.0
220
0.0
230
1.0
100
AcDbArc
 50
57.9740693388
 51
79.5806445086
  0
ARC
  5
F6
100
AcDbEntity
  8
LAYER8
 62
         3
100
AcDbCircle
 10
-54.9536729858
 20
-11.676438331
 30
0.0
 40
4.0
210
0.0
220
0.0
230
1.0
100
AcDbArc
 50
164.1695156286
 51
179.9999969295
  0
ARC
  5
F7
100
AcDbEntity
  8
LAYER8
 62
         3
100
AcDbCircle
 10
-54.9536729858
 20
-11.676438331
 30
0.0
 40
4.0
210
0.0
220
0.0
230
1.0
100
AcDbArc
 50
0.0
 51
15.8304874419
  0
ARC
  5
F8
100
AcDbEntity
  8
LAYER8
 62
         3
100
AcDbCircle
 10
-54.9536729858
 20
-11.676438331
 30
0.0
 40
6.6
210
0.0
220
0.0
230
1.0
100
AcDbArc
 50
0.0
 51
9.5163247671
  0
ARC
  5
F9
100
AcDbEntity
  8
LAYER8
 62
         3
100
AcDbCircle
 10
-54.9536729858
 20
-11.676438331
 30
0.0
 40
6.6
210
0.0
220
0.0
230
1.0
100
AcDbArc
 50
170.4836783034
 51
179.9999969295
  0
LINE
  5
FA
100
AcDbEntity
  8
LAYER8
 62
         3
100
AcDbLine
 10
-49.1334496224
 20
-3.1852695064
 30
0.0
 11
-49.1334496224
 21
-5.1852695064
 31
0.0
  0
LINE
  5
FB
100
AcDbEntity
  8
LAYER8
 62
         3
100
AcDbLine
 10
-49.6503721269
 20
-3.1852695064
 30
0.0
 11
-49.6503721269
 21
-5.1852695064
 31
0.0
  0
LINE
  5
FC
100
AcDbEntity
  8
LAYER8
 62
         3
100
AcDbLine
 10
-51.0645856893
 20
-3.1852695064
 30
0.0
 11
-51.0645856893
 21
-5.1852695064
 31
0.0
  0
LINE
  5
FD
100
AcDbEntity
  8
LAYER8
 62
         3
100
AcDbLine
 10
-47.9536729858
 20
-3.1852695064
 30
0.0
 11
-47.9536729858
 21
-5.1852695064
 31
0.0
  0
LINE
  5
FE
100
AcDbEntity
  8
LAYER8
 62
         3
100
AcDbLine
 10
-61.9536729858
 20
-3.1852695064
 30
0.0
 11
-47.9536729858
 21
-3.1852695064
 31
0.0
  0
LINE
  5
FF
100
AcDbEntity
  8
LAYER0
 62
         3
100
AcDbLine
 10
-67.9536729858
 20
-9.1852695064
 30
0.0
 11
-67.9536729858
 21
-5.1852695064
 31
0.0
  0
LINE
  5
100
100
AcDbEntity
  8
LAYER0
 62
         3
100
AcDbLine
 10
-67.9536729858
 20
-5.1852695064
 30
0.0
 11
-57.9536730119
 21
-5.1852695064
 31
0.0
  0
LINE
  5
101
100
AcDbEntity
  8
LAYER0
 62
         3
100
AcDbLine
 10
-59.9536729858
 20
-5.1852695064
 30
0.0
 11
-59.9536729858
 21
-6.5852695064
 31
0.0
  0
ARC
  5
102
100
AcDbEntity
  8
LAYER0
 62
         3
100
AcDbCircle
 10
-63.9536729858
 20
-6.5852695064
 30
0.0
 40
1.4
210
0.0
220
-0.0
230
1.0
100
AcDbArc
 50
0.0
 51
90.0000015352
  0
LINE
  5
103
100
AcDbEntity
  8
LAYER0
 62
         3
100
AcDbLine
 10
-67.9536729858
 20
-6.5852695064
 30
0.0
 11
-63.9536729858
 21
-6.5852695064
 31
0.0
  0
LINE
  5
104
100
AcDbEntity
  8
LAYER0
 62
         3
100
AcDbLine
 10
-63.9536729858
 20
-6.5852695064
 30
0.0
 11
-63.9536729858
 21
-10.5852695064
 31
0.0
  0
LINE
  5
105
100
AcDbEntity
  8
LAYER0
 62
         3
100
AcDbLine
 10
-62.5536729858
 20
-10.5852695064
 30
0.0
 11
-62.5536729858
 21
-6.5852695064
 31
0.0
  0
ARC
  5
106
100
AcDbEntity
  8
LAYER0
 62
         3
100
AcDbCircle
 10
-66.5536729858
 20
-9.1852695064
 30
0.0
 40
1.4
210
0.0
220
0.0
230
1.0
100
AcDbArc
 50
179.9999969295
 51
269.9999984648
  0
LINE
  5
107
100
AcDbEntity
  8
LAYER0
 62
         3
100
AcDbLine
 10
-58.4536729858
 20
-5.1852695064
 30
0.0
 11
-58.4536729858
 21
-6.5852695064
 31
0.0
  0
LINE
  5
108
100
AcDbEntity
  8
LAYER0
 62
         3
100
AcDbLine
 10
-51.4536729858
 20
-6.5852695064
 30
0.0
 11
-51.4536729858
 21
-5.1852695064
 31
0.0
  0
LINE
  5
109
100
AcDbEntity
  8
LAYER3
 62
         4
100
AcDbLine
 10
-62.4536729858
 20
-8.5852695064
 30
0.0
 11
-62.4536729858
 21
-10.0852695064
 31
0.0
  0
LINE
  5
10A
100
AcDbEntity
  8
LAYER3
 62
         4
100
AcDbLine
 10
-62.4536729858
 20
-6.5852695064
 30
0.0
 11
-62.4536729858
 21
-7.5852695064
 31
0.0
  0
LINE
  5
10B
100
AcDbEntity
  8
LAYER8
 62
         3
100
AcDbLine
 10
-59.4536729858
 20
5.868881715
 30
0.0
 11
-59.4536729858
 21
4.7427452575
 31
0.0
  0
LINE
  5
10C
100
AcDbEntity
  8
LAYER8
 62
         3
100
AcDbLine
 10
-50.4536729858
 20
5.868881715
 30
0.0
 11
-50.4536729858
 21
4.7427452575
 31
0.0
  0
LINE
  5
10D
100
AcDbEntity
  8
LAYER8
 62
         3
100
AcDbLine
 10
-62.9536729858
 20
9.3918558982
 30
0.0
 11
-62.9536729858
 21
-1.2572547425
 31
0.0
  0
LINE
  5
10E
100
AcDbEntity
  8
LAYER8
 62
         3
100
AcDbLine
 10
-61.9536729858
 20
-2.2572547425
 30
0.0
 11
-47.9536729858
 21
-2.2572547425
 31
0.0
  0
LINE
  5
10F
100
AcDbEntity
  8
LAYER8
 62
         3
100
AcDbLine
 10
-61.9536729858
 20
-5.1852695064
 30
0.0
 11
-47.9536729858
 21
-5.1852695064
 31
0.0
  0
LINE
  5
110
100
AcDbEntity
  8
LAYER8
 62
         3
100
AcDbLine
 10
-61.9536729858
 20
-3.1852695064
 30
0.0
 11
-61.9536729858
 21
-5.1852695064
 31
0.0
  0
LINE
  5
111
100
AcDbEntity
  8
LAYER8
 62
         3
100
AcDbLine
 10
-55.7536729858
 20
1.7427452575
 30
0.0
 11
-55.7536729858
 21
4.2427452575
 31
0.0
  0
LINE
  5
112
100
AcDbEntity
  8
LAYER8
 62
         3
100
AcDbLine
 10
-54.1536729858
 20
4.2427452575
 30
0.0
 11
-54.1536729858
 21
1.7427452575
 31
0.0
  0
LINE
  5
113
100
AcDbEntity
  8
LAYER8
 62
         3
100
AcDbLine
 10
-49.9536729858
 20
1.7427452575
 30
0.0
 11
-49.9536729858
 21
0.7427452575
 31
0.0
  0
LINE
  5
114
100
AcDbEntity
  8
LAYER8
 62
         3
100
AcDbLine
 10
-59.9536729858
 20
1.7427452575
 30
0.0
 11
-49.9536729858
 21
1.7427452575
 31
0.0
  0
LINE
  5
115
100
AcDbEntity
  8
LAYER8
 62
         3
100
AcDbLine
 10
-59.9536729858
 20
0.7427452575
 30
0.0
 11
-59.9536729858
 21
1.7427452575
 31
0.0
  0
ARC
  5
116
100
AcDbEntity
  8
LAYER8
 62
         3
100
AcDbCircle
 10
-54.9536729858
 20
-13.676438331
 30
0.0
 40
6.6
210
-0.0
220
-0.0
230
1.0
100
AcDbArc
 50
179.9999969295
 51
360.0
  0
LINE
  5
117
100
AcDbEntity
  8
LAYER8
 62
         3
100
AcDbLine
 10
-48.3536729858
 20
-11.676438331
 30
0.0
 11
-48.3536729858
 21
-13.676438331
 31
0.0
  0
LINE
  5
118
100
AcDbEntity
  8
LAYER8
 62
         3
100
AcDbLine
 10
-61.5536729858
 20
-11.676438331
 30
0.0
 11
-61.5536729858
 21
-13.676438331
 31
0.0
  0
ARC
  5
119
100
AcDbEntity
  8
LAYER8
 62
         3
100
AcDbCircle
 10
-54.9536729858
 20
-13.676438331
 30
0.0
 40
4.0
210
0.0
220
-0.0
230
1.0
100
AcDbArc
 50
179.9999969295
 51
0.0
  0
LINE
  5
11A
100
AcDbEntity
  8
LAYER8
 62
         3
100
AcDbLine
 10
-50.9536729858
 20
-11.676438331
 30
0.0
 11
-50.9536729858
 21
-13.676438331
 31
0.0
  0
LINE
  5
11B
100
AcDbEntity
  8
LAYER8
 62
         3
100
AcDbLine
 10
-58.9536729858
 20
-11.676438331
 30
0.0
 11
-58.9536729858
 21
-13.676438331
 31
0.0
  0
LINE
  5
11C
100
AcDbEntity
  8
LAYER8
 62
         3
100
AcDbLine
 10
-55.7536729858
 20
1.7427452575
 30
0.0
 11
-54.1536729858
 21
1.7427452575
 31
0.0
  0
LINE
  5
11D
100
AcDbEntity
  8
LAYER8
 62
         3
100
AcDbLine
 10
-55.7536729858
 20
4.2427452575
 30
0.0
 11
-54.1536729858
 21
4.2427452575
 31
0.0
  0
LINE
  5
11E
100
AcDbEntity
  8
LAYER8
 62
         3
100
AcDbLine
 10
-49.042877777
 20
0.7427452575
 30
0.0
 11
-49.042877777
 21
-2.2572547425
 31
0.0
  0
LINE
  5
11F
100
AcDbEntity
  8
LAYER8
 62
         3
100
AcDbLine
 10
-60.8644681946
 20
0.7427452575
 30
0.0
 11
-60.8644681946
 21
-2.2572547425
 31
0.0
  0
ARC
  5
120
100
AcDbEntity
  8
LAYER8
 62
         3
100
AcDbCircle
 10
-61.9536729858
 20
-1.2572547425
 30
0.0
 40
1.0
210
0.0
220
0.0
230
1.0
100
AcDbArc
 50
179.9999969295
 51
269.9999984648
  0
ARC
  5
121
100
AcDbEntity
  8
LAYER8
 62
         3
100
AcDbCircle
 10
-62.6027836265
 20
9.3918558982
 30
0.0
 40
0.3508893593
210
0.0
220
-0.0
230
1.0
100
AcDbArc
 50
23.6570573288
 51
179.9999969295
  0
LINE
  5
122
100
AcDbEntity
  8
LAYER8
 62
         3
100
AcDbLine
 10
-54.1536729858
 20
-5.1852695064
 30
0.0
 11
-54.1536729858
 21
-6.5852695064
 31
0.0
  0
LINE
  5
123
100
AcDbEntity
  8
LAYER8
 62
         3
100
AcDbLine
 10
-54.1536729858
 20
-2.2572547425
 30
0.0
 11
-54.1536729858
 21
-3.1852695064
 31
0.0
  0
LINE
  5
124
100
AcDbEntity
  8
LAYER0
 62
         3
100
AcDbLine
 10
75.3963270142
 20
-22.9572547425
 30
0.0
 11
47.3963270142
 21
-22.9572547425
 31
0.0
  0
LINE
  5
125
100
AcDbEntity
  8
LAYER0
 62
         3
100
AcDbLine
 10
48.3963270142
 20
3.2427452575
 30
0.0
 11
49.8963270142
 21
3.2427452575
 31
0.0
  0
ARC
  5
126
100
AcDbEntity
  8
LAYER0
 62
         3
100
AcDbCircle
 10
48.3963270142
 20
5.2427452575
 30
0.0
 40
2.0
210
0.0
220
0.0
230
1.0
100
AcDbArc
 50
179.9999969295
 51
269.9999984648
  0
LINE
  5
127
100
AcDbEntity
  8
LAYER0
 62
         3
100
AcDbLine
 10
49.8963270142
 20
1.6427452575
 30
0.0
 11
49.8963270142
 21
3.2427452575
 31
0.0
  0
LINE
  5
128
100
AcDbEntity
  8
LAYER0
 62
         3
100
AcDbLine
 10
75.3963270142
 20
26.2427452575
 30
0.0
 11
47.3963270142
 21
26.2427452575
 31
0.0
  0
LINE
  5
129
100
AcDbEntity
  8
LAYER3
 62
         4
100
AcDbLine
 10
46.3963270142
 20
39.6889782184
 30
0.0
 11
76.3963270142
 21
39.6889782184
 31
0.0
  0
LINE
  5
12A
100
AcDbEntity
  8
LAYER3
 62
         4
100
AcDbLine
 10
46.3963270142
 20
39.6889782184
 30
0.0
 11
49.3307698164
 21
40.3127132909
 31
0.0
  0
LINE
  5
12B
100
AcDbEntity
  8
LAYER3
 62
         4
100
AcDbLine
 10
46.3963270142
 20
39.6889782184
 30
0.0
 11
49.3307698164
 21
39.065243146
 31
0.0
  0
MTEXT
  5
12C
100
AcDbEntity
  8
LAYER0
100
AcDbMText
 10
-15.6501737419
 20
-132.5157576176
 30
0.0
 40
3.0922104359
 41
9.2327256828
 71
         1
 72
         1
  1
\W0.8;S-1MK
  0
MTEXT
  5
12D
100
AcDbEntity
  8
LAYER0
100
AcDbMText
 10
-35.7051459079
 20
-126.6461242782
 30
0.0
 40
2.1473683357
 41
6.4116149902
 71
         1
 72
         1
  1
\W0.8;Ｎｏ.
  0
LINE
  5
12E
100
AcDbEntity
  8
LAYER0
 62
         3
100
AcDbLine
 10
-25.0
 20
-125.5
 30
0.0
 11
-25.0
 21
-138.5
 31
0.0
  0
MTEXT
  5
12F
100
AcDbEntity
  8
LAYER0
100
AcDbMText
 10
-10.6564309049
 20
-126.7970201517
 30
0.0
 40
2.1473683357
 41
7.6538653946
 71
         1
 72
         1
  1
\W0.8;品　番
  0
LINE
  5
130
100
AcDbEntity
  8
LAYER0
 62
         3
100
AcDbLine
 10
-40.0
 20
-138.5
 30
0.0
 11
-40.0
 21
-125.5
 31
0.0
  0
MTEXT
  5
131
100
AcDbEntity
  8
LAYER0
100
AcDbMText
 10
32.0542682872
 20
-126.7970201517
 30
0.0
 40
2.1473683357
 41
7.6538653946
 71
         1
 72
         1
  1
\W0.8;品　名
  0
LINE
  5
132
100
AcDbEntity
  8
LAYER0
 62
         3
100
AcDbLine
 10
10.0
 20
-138.5
 30
0.0
 11
10.0
 21
-125.5
 31
0.0
  0
MTEXT
  5
133
100
AcDbEntity
  8
LAYER0
100
AcDbMText
 10
70.6744019132
 20
-133.1354167344
 30
0.0
 40
2.4737683892
 41
7.3861806672
 71
         1
 72
         1
  1
\W0.8;55976
  0
LINE
  5
134
100
AcDbEntity
  8
LAYER0
 62
         3
100
AcDbLine
 10
60.0
 20
-125.5
 30
0.0
 11
60.0
 21
-138.5
 31
0.0
  0
MTEXT
  5
135
100
AcDbEntity
  8
LAYER0
100
AcDbMText
 10
72.5158633528
 20
-126.7970201517
 30
0.0
 40
2.1473683357
 41
10.2585839844
 71
         1
 72
         1
  1
\W0.8;管理図番
  0
LINE
  5
136
100
AcDbEntity
  8
LAYER0
 62
         3
100
AcDbLine
 10
95.0
 20
-138.5
 30
0.0
 11
95.0
 21
-125.5
 31
0.0
  0
ARC
  5
137
100
AcDbEntity
  8
LAYER8
 62
         3
100
AcDbCircle
 10
-49.9536729858
 20
5.868881715
 30
0.0
 40
0.5
210
0.0
220
0.0
230
1.0
100
AcDbArc
 50
126.0318812223
 51
179.9999969295
  0
ARC
  5
138
100
AcDbEntity
  8
LAYER8
 62
         3
100
AcDbCircle
 10
-59.9536729858
 20
5.868881715
 30
0.0
 40
0.5
210
0.0
220
0.0
230
1.0
100
AcDbArc
 50
0.0
 51
53.9681218481
  0
LINE
  5
139
100
AcDbEntity
  8
LAYER8
 62
         3
100
AcDbLine
 10
-60.4536729858
 20
4.7427452575
 30
0.0
 11
-49.4536729858
 21
4.7427452575
 31
0.0
  0
LINE
  5
13A
100
AcDbEntity
  8
LAYER8
 62
         3
100
AcDbLine
 10
-60.8644681946
 20
0.7427452575
 30
0.0
 11
-49.042877777
 21
0.7427452575
 31
0.0
  0
LINE
  5
13B
100
AcDbEntity
  8
LAYER8
 62
         3
100
AcDbLine
 10
-60.4536729858
 20
0.7427452575
 30
0.0
 11
-60.4536729858
 21
4.7427452575
 31
0.0
  0
LINE
  5
13C
100
AcDbEntity
  8
LAYER8
 62
         3
100
AcDbLine
 10
-49.4536729858
 20
4.7427452575
 30
0.0
 11
-49.4536729858
 21
0.7427452575
 31
0.0
  0
LINE
  5
13D
100
AcDbEntity
  8
LAYER0
 62
         4
100
AcDbLine
 10
-3.6121729858
 20
10.7427452575
 30
0.0
 11
-3.6121729858
 21
17.5842452575
 31
0.0
  0
LINE
  5
13E
100
AcDbEntity
  8
LAYER0
 62
         4
100
AcDbLine
 10
-4.1536729858
 20
10.7427452575
 30
0.0
 11
-4.1536729858
 21
17.0427452575
 31
0.0
  0
LINE
  5
13F
100
AcDbEntity
  8
LAYER3
 62
         4
100
AcDbLine
 10
-78.1163391953
 20
26.2427452575
 30
0.0
 11
-78.1163391953
 21
3.2427452575
 31
0.0
  0
LINE
  5
140
100
AcDbEntity
  8
LAYER0
 62
         3
100
AcDbLine
 10
7.6463270142
 20
10.7427452575
 30
0.0
 11
7.6463270142
 21
8.2427452575
 31
0.0
  0
LINE
  5
141
100
AcDbEntity
  8
LAYER0
 62
         3
100
AcDbLine
 10
46.3963270142
 20
25.2427452575
 30
0.0
 11
46.3963270142
 21
5.2427452575
 31
0.0
  0
LINE
  5
142
100
AcDbEntity
  8
LAYER0
 62
         3
100
AcDbLine
 10
76.3963270142
 20
5.2427452575
 30
0.0
 11
76.3963270142
 21
25.2427452575
 31
0.0
  0
LINE
  5
143
100
AcDbEntity
  8
LAYER0
 62
         3
100
AcDbLine
 10
7.8463270142
 20
26.2427452575
 30
0.0
 11
7.8463270142
 21
3.2427452575
 31
0.0
  0
LINE
  5
144
100
AcDbEntity
  8
LAYER0
 62
         3
100
AcDbLine
 10
9.4463270142
 20
3.2427452575
 30
0.0
 11
9.4463270142
 21
26.2427452575
 31
0.0
  0
LINE
  5
145
100
AcDbEntity
  8
LAYER3
 62
         4
100
AcDbLine
 10
90.6311308538
 20
26.2427452575
 30
0.0
 11
90.6311308538
 21
-22.9572547425
 31
0.0
  0
MTEXT
  5
146
100
AcDbEntity
  8
LAYER0
100
AcDbMText
 10
16.3216602544
 20
-132.8866032766
 30
0.0
 40
2.4737683892
 41
39.885375603
 71
         1
 72
         1
  1
\W0.8;3０用片開マグネットランナー
  0
LINE
  5
147
100
AcDbEntity
  8
LAYER8
 62
         3
100
AcDbLine
 10
-46.9536729858
 20
-1.2572547425
 30
0.0
 11
-46.9536729858
 21
9.3918558982
 31
0.0
  0
ARC
  5
148
100
AcDbEntity
  8
LAYER8
 62
         3
100
AcDbCircle
 10
-47.9536729858
 20
-1.2572547425
 30
0.0
 40
1.0
210
-0.0
220
0.0
230
1.0
100
AcDbArc
 50
269.9999984648
 51
0.0
  0
ARC
  5
149
100
AcDbEntity
  8
LAYER8
 62
         3
100
AcDbCircle
 10
-47.3045623451
 20
9.3918558982
 30
0.0
 40
0.3508893593
210
0.0
220
-0.0
230
1.0
100
AcDbArc
 50
0.0
 51
156.3429457416
  0
LINE
  5
14A
100
AcDbEntity
  8
LAYER0
 62
         3
100
AcDbLine
 10
-62.5536729858
 20
-6.5852695064
 30
0.0
 11
-15.3536729858
 21
-6.5852695064
 31
0.0
  0
LINE
  5
14B
100
AcDbEntity
  8
LAYER3
 62
         4
100
AcDbLine
 10
-61.9536729858
 20
-10.5852695064
 30
0.0
 11
-15.9536729858
 21
-10.5852695064
 31
0.0
  0
LINE
  5
14C
100
AcDbEntity
  8
LAYER3
 62
         4
100
AcDbLine
 10
-62.4536729858
 20
-6.5852695064
 30
0.0
 11
-15.4536729858
 21
-6.5852695064
 31
0.0
  0
LINE
  5
14D
100
AcDbEntity
  8
LAYER0
 62
         3
100
AcDbLine
 10
-51.9536729597
 20
-5.1852695064
 30
0.0
 11
-25.9536730119
 21
-5.1852695064
 31
0.0
  0
LINE
  5
14E
100
AcDbEntity
  8
LAYER2
 62
         5
100
AcDbLine
 10
-10.0536729858
 20
3.2427452575
 30
0.0
 11
-70.6482404194
 21
3.2427452575
 31
0.0
  0
LINE
  5
14F
100
AcDbEntity
  8
LAYER0
 62
         3
100
AcDbLine
 10
-50.0536729858
 20
56.1147304936
 30
0.0
 11
-27.8536729858
 21
56.1147304936
 31
0.0
  0
LINE
  5
150
100
AcDbEntity
  8
LAYER3
 62
         4
100
AcDbLine
 10
-15.4536729858
 20
56.1147304936
 30
0.0
 11
-62.4536729858
 21
56.1147304936
 31
0.0
  0
LINE
  5
151
100
AcDbEntity
  8
LAYER0
 62
         3
100
AcDbLine
 10
72.8963270142
 20
1.6427452575
 30
0.0
 11
49.8963270142
 21
1.6427452575
 31
0.0
  0
LINE
  5
152
100
AcDbEntity
  8
LAYER0
 62
         3
100
AcDbLine
 10
48.3963270142
 20
0.0427452575
 30
0.0
 11
49.8963270142
 21
0.0427452575
 31
0.0
  0
ARC
  5
153
100
AcDbEntity
  8
LAYER0
 62
         3
100
AcDbCircle
 10
48.3963270142
 20
-1.9572547425
 30
0.0
 40
2.0
210
0.0
220
0.0
230
1.0
100
AcDbArc
 50
90.0000015352
 51
179.9999969295
  0
LINE
  5
154
100
AcDbEntity
  8
LAYER0
 62
         3
100
AcDbLine
 10
49.8963270142
 20
1.6427452575
 30
0.0
 11
49.8963270142
 21
0.0427452575
 31
0.0
  0
LINE
  5
155
100
AcDbEntity
  8
LAYER0
 62
         3
100
AcDbLine
 10
72.8963270142
 20
1.6427452575
 30
0.0
 11
49.8963270142
 21
1.6427452575
 31
0.0
  0
LINE
  5
156
100
AcDbEntity
  8
LAYER0
 62
         4
100
AcDbLine
 10
3.1764540331
 20
-3.9572547425
 30
0.0
 11
-5.4838000047
 21
-3.9572547425
 31
0.0
  0
LINE
  5
157
100
AcDbEntity
  8
LAYER0
 62
         4
100
AcDbLine
 10
4.6198297061
 20
0.0427452575
 30
0.0
 11
-6.9271756777
 21
0.0427452575
 31
0.0
  0
LINE
  5
158
100
AcDbEntity
  8
LAYER0
 62
         4
100
AcDbLine
 10
1.7330783602
 20
0.0427452575
 30
0.0
 11
1.7330783602
 21
-3.4529377282
 31
0.0
  0
LINE
  5
159
100
AcDbEntity
  8
LAYER0
 62
         4
100
AcDbLine
 10
1.3048270142
 20
10.7427452575
 30
0.0
 11
1.3048270142
 21
17.5842452575
 31
0.0
  0
LINE
  5
15A
100
AcDbEntity
  8
LAYER0
 62
         4
100
AcDbLine
 10
1.3048270142
 20
3.2427452575
 30
0.0
 11
1.3048270142
 21
8.2427452575
 31
0.0
  0
LINE
  5
15B
100
AcDbEntity
  8
LAYER2
 62
         5
100
AcDbLine
 10
7.8463270142
 20
26.2427452575
 30
0.0
 11
-70.6482404194
 21
26.2427452575
 31
0.0
  0
LINE
  5
15C
100
AcDbEntity
  8
LAYER0
 62
         4
100
AcDbLine
 10
1.8463270142
 20
10.7427452575
 30
0.0
 11
1.8463270142
 21
17.0427452575
 31
0.0
  0
LINE
  5
15D
100
AcDbEntity
  8
LAYER0
 62
         4
100
AcDbLine
 10
1.8463270142
 20
3.2427452575
 30
0.0
 11
1.8463270142
 21
8.2427452575
 31
0.0
  0
LINE
  5
15E
100
AcDbEntity
  8
LAYER0
 62
         4
100
AcDbLine
 10
1.8463270142
 20
17.0427452575
 30
0.0
 11
0.8463270142
 21
18.0427452575
 31
0.0
  0
LINE
  5
15F
100
AcDbEntity
  8
LAYER0
 62
         4
100
AcDbLine
 10
0.8463270142
 20
18.0427452575
 30
0.0
 11
-3.1536729858
 21
18.0427452575
 31
0.0
  0
LINE
  5
160
100
AcDbEntity
  8
LAYER0
 62
         4
100
AcDbLine
 10
1.8463270142
 20
17.0427452575
 30
0.0
 11
-4.1536729858
 21
17.0427452575
 31
0.0
  0
ARC
  5
161
100
AcDbEntity
  8
LAYER0
 62
         4
100
AcDbCircle
 10
-1.1536729858
 20
4.5569027623
 30
0.0
 40
8.5141575048
210
0.0
220
0.0
230
1.0
100
AcDbArc
 50
250.1808048871
 51
289.8191920424
  0
ARC
  5
162
100
AcDbEntity
  8
LAYER0
 62
         4
100
AcDbCircle
 10
3.1764540331
 20
-1.639596486
 30
0.0
 40
2.3176582566
210
0.0
220
0.0
230
1.0
100
AcDbArc
 50
231.4810584745
 51
308.518938455
  0
ARC
  5
163
100
AcDbEntity
  8
LAYER8
 62
         3
100
AcDbCircle
 10
-54.9536729858
 20
12.7427452575
 30
0.0
 40
8.0
210
0.0
220
0.0
230
1.0
100
AcDbArc
 50
306.0318781519
 51
233.9681187777
  0
CIRCLE
  5
164
100
AcDbEntity
  8
LAYER8
 62
         3
100
AcDbCircle
 10
-54.9536729858
 20
12.7427452575
 30
0.0
 40
6.6
210
0.0
220
0.0
230
1.0
  0
CIRCLE
  5
165
100
AcDbEntity
  8
LAYER8
 62
         3
100
AcDbCircle
 10
-54.9536729858
 20
12.7427452575
 30
0.0
 40
2.7
210
0.0
220
0.0
230
1.0
  0
CIRCLE
  5
166
100
AcDbEntity
  8
LAYER8
 62
         3
100
AcDbCircle
 10
-54.9536729858
 20
12.7427452575
 30
0.0
 40
3.0
210
0.0
220
0.0
230
1.0
  0
CIRCLE
  5
167
100
AcDbEntity
  8
LAYER8
 62
         3
100
AcDbCircle
 10
-54.9536729858
 20
12.7427452575
 30
0.0
 40
4.5
210
0.0
220
0.0
230
1.0
  0
ARC
  5
168
100
AcDbEntity
  8
LAYER8
 62
         3
100
AcDbCircle
 10
-22.9536729858
 20
12.7427452575
 30
0.0
 40
8.0
210
0.0
220
0.0
230
1.0
100
AcDbArc
 50
306.0318781519
 51
233.9681187777
  0
CIRCLE
  5
169
100
AcDbEntity
  8
LAYER8
 62
         3
100
AcDbCircle
 10
-22.9536729858
 20
12.7427452575
 30
0.0
 40
6.6
210
0.0
220
0.0
230
1.0
  0
CIRCLE
  5
16A
100
AcDbEntity
  8
LAYER8
 62
         3
100
AcDbCircle
 10
-22.9536729858
 20
12.7427452575
 30
0.0
 40
2.7
210
0.0
220
0.0
230
1.0
  0
CIRCLE
  5
16B
100
AcDbEntity
  8
LAYER8
 62
         3
100
AcDbCircle
 10
-22.9536729858
 20
12.7427452575
 30
0.0
 40
3.0
210
0.0
220
0.0
230
1.0
  0
CIRCLE
  5
16C
100
AcDbEntity
  8
LAYER8
 62
         3
100
AcDbCircle
 10
-22.9536729858
 20
12.7427452575
 30
0.0
 40
4.5
210
0.0
220
0.0
230
1.0
  0
LINE
  5
16D
100
AcDbEntity
  8
LAYER0
 62
         3
100
AcDbLine
 10
-7.5536729858
 20
10.7427452575
 30
0.0
 11
-7.5536729858
 21
4.2427452575
 31
0.0
  0
ARC
  5
16E
100
AcDbEntity
  8
LAYER0
 62
         3
100
AcDbCircle
 10
-7.5536729858
 20
8.2427452575
 30
0.0
 40
2.5
210
0.0
220
0.0
230
1.0
100
AcDbArc
 50
90.0000015352
 51
179.9999969295
  0
LINE
  5
16F
100
AcDbEntity
  8
LAYER3
 62
         4
100
AcDbLine
 10
9.4463270142
 20
97.6309959781
 30
0.0
 11
12.3807698164
 21
97.0072609056
 31
0.0
  0
LINE
  5
170
100
AcDbEntity
  8
LAYER3
 62
         4
100
AcDbLine
 10
21.6463270142
 20
97.6309959781
 30
0.0
 11
9.4463270142
 21
97.6309959781
 31
0.0
  0
MTEXT
  5
171
100
AcDbEntity
  8
LAYER3
100
AcDbMText
 10
13.4463270142
 20
101.4186546695
 30
0.0
 40
2.1473683357
 41
3.8469689941
 71
         1
 72
         1
  1
\W0.8;1.6
  0
LINE
  5
172
100
AcDbEntity
  8
LAYER3
 62
         4
100
AcDbLine
 10
7.8463270142
 20
97.6309959781
 30
0.0
 11
9.4463270142
 21
97.6309959781
 31
0.0
  0
LINE
  5
173
100
AcDbEntity
  8
LAYER3
 62
         4
100
AcDbLine
 10
9.4463270142
 20
85.8147304936
 30
0.0
 11
9.4463270142
 21
98.6309959781
 31
0.0
  0
LINE
  5
174
100
AcDbEntity
  8
LAYER3
 62
         4
100
AcDbLine
 10
7.8463270142
 20
85.8147304936
 30
0.0
 11
7.8463270142
 21
98.6309959781
 31
0.0
  0
MTEXT
  5
175
100
AcDbEntity
  8
LAYER3
100
AcDbMText
 10
-34.8536729858
 20
101.4186546695
 30
0.0
 40
2.1473683357
 41
5.1292919922
 71
         1
 72
         1
  1
\W0.8;75.8
  0
LINE
  5
176
100
AcDbEntity
  8
LAYER3
 62
         4
100
AcDbLine
 10
-67.9536729858
 20
97.6309959781
 30
0.0
 11
-65.0192301836
 21
98.2547310506
 31
0.0
  0
LINE
  5
177
100
AcDbEntity
  8
LAYER3
 62
         4
100
AcDbLine
 10
-67.9536729858
 20
97.6309959781
 30
0.0
 11
-65.0192301836
 21
97.0072609056
 31
0.0
  0
LINE
  5
178
100
AcDbEntity
  8
LAYER3
 62
         4
100
AcDbLine
 10
7.8463270142
 20
97.6309959781
 30
0.0
 11
4.911884212
 21
97.0072609056
 31
0.0
  0
LINE
  5
179
100
AcDbEntity
  8
LAYER0
 62
         3
100
AcDbLine
 10
95.0
 20
-125.5
 30
0.0
 11
-40.0
 21
-125.5
 31
0.0
  0
LINE
  5
17A
100
AcDbEntity
  8
LAYER0
 62
         3
100
AcDbLine
 10
95.0
 20
-130.5
 30
0.0
 11
-40.0
 21
-130.5
 31
0.0
  0
LINE
  5
17B
100
AcDbEntity
  8
LAYER0
 62
         3
100
AcDbLine
 10
95.0
 20
-138.5
 30
0.0
 11
-40.0
 21
-138.5
 31
0.0
  0
LINE
  5
17C
100
AcDbEntity
  8
LAYER0
 62
         3
100
AcDbLine
 10
5.5463270142
 20
56.1147304936
 30
0.0
 11
-15.3536729858
 21
56.1147304936
 31
0.0
  0
LINE
  5
17D
100
AcDbEntity
  8
LAYER0
 62
         3
100
AcDbLine
 10
7.6463270142
 20
60.3147304936
 30
0.0
 11
-7.5536729858
 21
60.3147304936
 31
0.0
  0
LINE
  5
17E
100
AcDbEntity
  8
LAYER0
 62
         3
100
AcDbLine
 10
7.8463270142
 20
58.3147304936
 30
0.0
 11
-8.0536729858
 21
58.3147304936
 31
0.0
  0
LINE
  5
17F
100
AcDbEntity
  8
LAYER0
 62
         3
100
AcDbLine
 10
4.1463270142
 20
-10.5852695064
 30
0.0
 11
-66.5536729858
 21
-10.5852695064
 31
0.0
  0
LINE
  5
180
100
AcDbEntity
  8
LAYER0
 62
         3
100
AcDbLine
 10
7.6463270142
 20
10.7427452575
 30
0.0
 11
-7.5536729858
 21
10.7427452575
 31
0.0
  0
LINE
  5
181
100
AcDbEntity
  8
LAYER0
 62
         3
100
AcDbLine
 10
7.6463270142
 20
8.2427452575
 30
0.0
 11
-7.5536729858
 21
8.2427452575
 31
0.0
  0
LINE
  5
182
100
AcDbEntity
  8
LAYER0
 62
         3
100
AcDbLine
 10
7.8463270142
 20
0.0427452575
 30
0.0
 11
-10.0536729858
 21
0.0427452575
 31
0.0
  0
LINE
  5
183
100
AcDbEntity
  8
LAYER0
 62
         3
100
AcDbLine
 10
-10.0536729858
 20
1.6427452575
 30
0.0
 11
7.8463270142
 21
1.6427452575
 31
0.0
  0
LINE
  5
184
100
AcDbEntity
  8
LAYER0
 62
         3
100
AcDbLine
 10
7.8463270142
 20
3.2427452575
 30
0.0
 11
-10.0536729858
 21
3.2427452575
 31
0.0
  0
LINE
  5
185
100
AcDbEntity
  8
LAYER0
 62
         3
100
AcDbLine
 10
-10.0536729858
 20
1.6427452575
 30
0.0
 11
7.8463270142
 21
1.6427452575
 31
0.0
  0
LINE
  5
186
100
AcDbEntity
  8
LAYER2
 62
         4
100
AcDbLine
 10
-4.5279203543
 20
-15.7852695064
 30
0.0
 11
4.8943917853
 21
-15.7852695064
 31
0.0
  0
LINE
  5
187
100
AcDbEntity
  8
LAYER0
 62
         3
100
AcDbLine
 10
-19.9536729597
 20
-5.1852695064
 30
0.0
 11
5.5463270142
 21
-5.1852695064
 31
0.0
  0
LINE
  5
188
100
AcDbEntity
  8
LAYER0
 62
         3
100
AcDbLine
 10
-26.4536729858
 20
61.7647304936
 30
0.0
 11
-26.4536729858
 21
57.5147304936
 31
0.0
  0
LINE
  5
189
100
AcDbEntity
  8
LAYER0
 62
         3
100
AcDbLine
 10
-13.9536729858
 20
61.0147304936
 30
0.0
 11
-13.9536729858
 21
61.5147304936
 31
0.0
  0
LINE
  5
18A
100
AcDbEntity
  8
LAYER0
 62
         3
100
AcDbLine
 10
-63.9536729858
 20
61.0147304936
 30
0.0
 11
-63.9536729858
 21
61.5147304936
 31
0.0
  0
CIRCLE
  5
18B
100
AcDbEntity
  8
LAYER0
 62
         3
100
AcDbCircle
 10
-31.4536729858
 20
60.0147304936
 30
0.0
 40
1.35
210
0.0
220
0.0
230
1.0
  0
CIRCLE
  5
18C
100
AcDbEntity
  8
LAYER0
 62
         3
100
AcDbCircle
 10
-46.4536729858
 20
60.0147304936
 30
0.0
 40
1.35
210
0.0
220
0.0
230
1.0
  0
LINE
  5
18D
100
AcDbEntity
  8
LAYER0
 62
         3
100
AcDbLine
 10
-18.4536729858
 20
62.1147304936
 30
0.0
 11
-17.9536729858
 21
61.6147304936
 31
0.0
  0
LINE
  5
18E
100
AcDbEntity
  8
LAYER0
 62
         3
100
AcDbLine
 10
-59.9536729858
 20
61.6147304936
 30
0.0
 11
-59.4536729858
 21
62.1147304936
 31
0.0
  0
LINE
  5
18F
100
AcDbEntity
  8
LAYER0
 62
         3
100
AcDbLine
 10
5.5463270142
 20
81.3147304936
 30
0.0
 11
5.5463270142
 21
83.5147304936
 31
0.0
  0
LINE
  5
190
100
AcDbEntity
  8
LAYER0
 62
         3
100
AcDbLine
 10
7.8463270142
 20
71.2884746963
 30
0.0
 11
7.6463270142
 21
71.1705751601
 31
0.0
  0
LINE
  5
191
100
AcDbEntity
  8
LAYER0
 62
         3
100
AcDbLine
 10
7.8463270142
 20
68.3409862908
 30
0.0
 11
7.6463270142
 21
68.4588858271
 31
0.0
  0
ARC
  5
192
100
AcDbEntity
  8
LAYER0
 62
         3
100
AcDbCircle
 10
-8.0536729858
 20
79.3147304936
 30
0.0
 40
2.0
210
0.0
220
0.0
230
1.0
100
AcDbArc
 50
90.0000015352
 51
179.9999969295
  0
LINE
  5
193
100
AcDbEntity
  8
LAYER0
 62
         3
100
AcDbLine
 10
-10.0536729858
 20
60.3147304936
 30
0.0
 11
-10.0536729858
 21
79.3147304936
 31
0.0
  0
LINE
  5
194
100
AcDbEntity
  8
LAYER0
 62
         3
100
AcDbLine
 10
-8.0536729858
 20
81.3147304936
 30
0.0
 11
7.8463270142
 21
81.3147304936
 31
0.0
  0
INSERT
  5
196
100
AcDbEntity
  8
0
100
AcDbBlockReference
  2
CLUMP0
 10
0.0
 20
0.0
 30
0.0
  0
LINE
  5
19F
100
AcDbEntity
  8
LAYER5
 62
         6
100
AcDbLine
 10
7.8463270142
 20
79.8147304936
 30
0.0
 11
7.8463270142
 21
59.8147304936
 31
0.0
  0
LINE
  5
1A0
100
AcDbEntity
  8
LAYER3
 62
         4
100
AcDbLine
 10
-62.4536729858
 20
61.6147304936
 30
0.0
 11
-62.4536729858
 21
58.1147304936
 31
0.0
  0
LINE
  5
1A1
100
AcDbEntity
  8
LAYER3
 62
         4
100
AcDbLine
 10
-15.4536729858
 20
61.6147304936
 30
0.0
 11
-15.4536729858
 21
58.1147304936
 31
0.0
  0
LINE
  5
1A2
100
AcDbEntity
  8
LAYER3
 62
         4
100
AcDbLine
 10
7.8463270142
 20
97.6309959781
 30
0.0
 11
4.911884212
 21
98.2547310506
 31
0.0
  0
LINE
  5
1A3
100
AcDbEntity
  8
LAYER3
 62
         4
100
AcDbLine
 10
7.8463270142
 20
97.6309959781
 30
0.0
 11
-67.9536729858
 21
97.6309959781
 31
0.0
  0
LINE
  5
1A4
100
AcDbEntity
  8
LAYER3
 62
         4
100
AcDbLine
 10
7.8463270142
 20
85.8147304936
 30
0.0
 11
7.8463270142
 21
98.6309959781
 31
0.0
  0
LINE
  5
1A5
100
AcDbEntity
  8
LAYER3
 62
         4
100
AcDbLine
 10
-67.9536729858
 20
84.5147304936
 30
0.0
 11
-67.9536729858
 21
98.6309959781
 31
0.0
  0
LINE
  5
1A6
100
AcDbEntity
  8
LAYER3
 62
         4
100
AcDbLine
 10
7.8463270142
 20
97.6309959781
 30
0.0
 11
4.911884212
 21
97.0072609056
 31
0.0
  0
LINE
  5
1A7
100
AcDbEntity
  8
LAYER3
 62
         4
100
AcDbLine
 10
7.8463270142
 20
97.6309959781
 30
0.0
 11
4.911884212
 21
98.2547310506
 31
0.0
  0
LINE
  5
1A8
100
AcDbEntity
  8
LAYER3
 62
         4
100
AcDbLine
 10
2.8463270142
 20
97.6309959781
 30
0.0
 11
7.8463270142
 21
97.6309959781
 31
0.0
  0
LINE
  5
1A9
100
AcDbEntity
  8
LAYER3
 62
         4
100
AcDbLine
 10
9.4463270142
 20
97.6309959781
 30
0.0
 11
12.3807698164
 21
98.2547310506
 31
0.0
  0
LINE
  5
1AA
100
AcDbEntity
  8
LAYER8
 62
         3
100
AcDbLine
 10
-27.4536729858
 20
66.2647304936
 30
0.0
 11
-27.4536729858
 21
61.7647304936
 31
0.0
  0
LINE
  5
1AB
100
AcDbEntity
  8
LAYER8
 62
         3
100
AcDbLine
 10
-16.3536729858
 20
66.2647304936
 30
0.0
 11
-16.3536729858
 21
67.3647304936
 31
0.0
  0
LINE
  5
1AC
100
AcDbEntity
  8
LAYER8
 62
         3
100
AcDbLine
 10
-29.5536729858
 20
66.2647304936
 30
0.0
 11
-16.3536729858
 21
66.2647304936
 31
0.0
  0
LINE
  5
1AD
100
AcDbEntity
  8
LAYER8
 62
         3
100
AcDbLine
 10
-29.5536729858
 20
67.3647304936
 30
0.0
 11
-29.5536729858
 21
66.2647304936
 31
0.0
  0
LINE
  5
1AE
100
AcDbEntity
  8
LAYER8
 62
         3
100
AcDbLine
 10
-16.3536729858
 20
67.3647304936
 30
0.0
 11
-29.5536729858
 21
67.3647304936
 31
0.0
  0
LINE
  5
1AF
100
AcDbEntity
  8
LAYER8
 62
         3
100
AcDbLine
 10
-18.4536729858
 20
77.8647304936
 30
0.0
 11
-18.4536729858
 21
73.5147304936
 31
0.0
  0
LINE
  5
1B0
100
AcDbEntity
  8
LAYER8
 62
         3
100
AcDbLine
 10
-27.4536729858
 20
77.8647304936
 30
0.0
 11
-18.4536729858
 21
77.8647304936
 31
0.0
  0
LINE
  5
1B1
100
AcDbEntity
  8
LAYER8
 62
         3
100
AcDbLine
 10
-27.4536729858
 20
73.3647304936
 30
0.0
 11
-27.4536729858
 21
77.8647304936
 31
0.0
  0
LINE
  5
1B2
100
AcDbEntity
  8
LAYER8
 62
         3
100
AcDbLine
 10
-29.5536729858
 20
73.3647304936
 30
0.0
 11
-29.5536729858
 21
72.2647304936
 31
0.0
  0
LINE
  5
1B3
100
AcDbEntity
  8
LAYER0
 62
         3
100
AcDbLine
 10
7.8463270142
 20
84.8147304936
 30
0.0
 11
7.8463270142
 21
54.8147304936
 31
0.0
  0
LINE
  5
1B4
100
AcDbEntity
  8
LAYER0
 62
         3
100
AcDbLine
 10
9.4463270142
 20
84.8147304936
 30
0.0
 11
7.8463270142
 21
84.8147304936
 31
0.0
  0
LINE
  5
1B5
100
AcDbEntity
  8
LAYER0
 62
         3
100
AcDbLine
 10
9.4463270142
 20
54.8147304936
 30
0.0
 11
9.4463270142
 21
84.8147304936
 31
0.0
  0
LINE
  5
1B6
100
AcDbEntity
  8
LAYER0
 62
         3
100
AcDbLine
 10
-7.5536729858
 20
73.0687304936
 30
0.0
 11
-10.0536729858
 21
73.0687304936
 31
0.0
  0
LINE
  5
1B7
100
AcDbEntity
  8
LAYER0
 62
         3
100
AcDbLine
 10
-7.5536729858
 20
66.5687304936
 30
0.0
 11
-10.0536729858
 21
66.5687304936
 31
0.0
  0
LINE
  5
1B8
100
AcDbEntity
  8
LAYER0
 62
         3
100
AcDbLine
 10
-7.5536729858
 20
66.5687304936
 30
0.0
 11
-7.5536729858
 21
60.3147304936
 31
0.0
  0
LINE
  5
1B9
100
AcDbEntity
  8
LAYER0
 62
         3
100
AcDbLine
 10
-7.5536729858
 20
79.3147304936
 30
0.0
 11
-7.5536729858
 21
73.0687304936
 31
0.0
  0
LINE
  5
1BA
100
AcDbEntity
  8
LAYER0
 62
         3
100
AcDbLine
 10
-10.0536729858
 20
65.5687304936
 30
0.0
 11
-7.5536729858
 21
65.5687304936
 31
0.0
  0
LINE
  5
1BB
100
AcDbEntity
  8
LAYER0
 62
         3
100
AcDbLine
 10
-10.0536729858
 20
74.0687304936
 30
0.0
 11
-10.0536729858
 21
65.5687304936
 31
0.0
  0
LINE
  5
1BC
100
AcDbEntity
  8
LAYER0
 62
         3
100
AcDbLine
 10
-7.5536729858
 20
74.0687304936
 30
0.0
 11
-10.0536729858
 21
74.0687304936
 31
0.0
  0
LINE
  5
1BD
100
AcDbEntity
  8
LAYER0
 62
         3
100
AcDbLine
 10
7.6463270142
 20
79.3147304936
 30
0.0
 11
-7.5536729858
 21
79.3147304936
 31
0.0
  0
LINE
  5
1BE
100
AcDbEntity
  8
LAYER0
 62
         3
100
AcDbLine
 10
7.6463270142
 20
60.3147304936
 30
0.0
 11
7.6463270142
 21
79.3147304936
 31
0.0
  0
LINE
  5
1BF
100
AcDbEntity
  8
LAYER0
 62
         3
100
AcDbLine
 10
-17.9536729858
 20
61.6147304936
 30
0.0
 11
-13.9536729858
 21
61.6147304936
 31
0.0
  0
LINE
  5
1C0
100
AcDbEntity
  8
LAYER0
 62
         3
100
AcDbLine
 10
-15.3536729858
 20
56.1147304936
 30
0.0
 11
-15.3536729858
 21
61.6147304936
 31
0.0
  0
LINE
  5
1C1
100
AcDbEntity
  8
LAYER0
 62
         3
100
AcDbLine
 10
-63.9536729858
 20
61.6147304936
 30
0.0
 11
-59.9536729858
 21
61.6147304936
 31
0.0
  0
LINE
  5
1C2
100
AcDbEntity
  8
LAYER0
 62
         3
100
AcDbLine
 10
-62.5536729858
 20
56.1147304936
 30
0.0
 11
-62.5536729858
 21
61.6147304936
 31
0.0
  0
LINE
  5
1C3
100
AcDbEntity
  8
LAYER8
 62
         3
100
AcDbLine
 10
-50.4536729858
 20
61.7647304936
 30
0.0
 11
-50.4536729858
 21
66.0647304936
 31
0.0
  0
LINE
  5
1C4
100
AcDbEntity
  8
LAYER8
 62
         3
100
AcDbLine
 10
-59.4536729858
 20
61.7647304936
 30
0.0
 11
-50.4536729858
 21
61.7647304936
 31
0.0
  0
LINE
  5
1C5
100
AcDbEntity
  8
LAYER8
 62
         3
100
AcDbLine
 10
-59.4536729858
 20
66.2647304936
 30
0.0
 11
-59.4536729858
 21
61.7647304936
 31
0.0
  0
LINE
  5
1C6
100
AcDbEntity
  8
LAYER8
 62
         3
100
AcDbLine
 10
-48.3536729858
 20
66.2647304936
 30
0.0
 11
-48.3536729858
 21
67.3647304936
 31
0.0
  0
LINE
  5
1C7
100
AcDbEntity
  8
LAYER8
 62
         3
100
AcDbLine
 10
-61.5536729858
 20
66.2647304936
 30
0.0
 11
-48.3536729858
 21
66.2647304936
 31
0.0
  0
LINE
  5
1C8
100
AcDbEntity
  8
LAYER8
 62
         3
100
AcDbLine
 10
-61.5536729858
 20
67.3647304936
 30
0.0
 11
-61.5536729858
 21
66.2647304936
 31
0.0
  0
LINE
  5
1C9
100
AcDbEntity
  8
LAYER8
 62
         3
100
AcDbLine
 10
-48.3536729858
 20
67.3647304936
 30
0.0
 11
-61.5536729858
 21
67.3647304936
 31
0.0
  0
LINE
  5
1CA
100
AcDbEntity
  8
LAYER8
 62
         3
100
AcDbLine
 10
-50.4536729858
 20
77.8647304936
 30
0.0
 11
-50.4536729858
 21
73.5147304936
 31
0.0
  0
LINE
  5
1CB
100
AcDbEntity
  8
LAYER8
 62
         3
100
AcDbLine
 10
-59.4536729858
 20
77.8647304936
 30
0.0
 11
-50.4536729858
 21
77.8647304936
 31
0.0
  0
LINE
  5
1CC
100
AcDbEntity
  8
LAYER8
 62
         3
100
AcDbLine
 10
-59.4536729858
 20
73.3647304936
 30
0.0
 11
-59.4536729858
 21
77.8647304936
 31
0.0
  0
LINE
  5
1CD
100
AcDbEntity
  8
LAYER0
 62
         3
100
AcDbLine
 10
-67.9536729858
 20
83.5147304936
 30
0.0
 11
5.5463270142
 21
83.5147304936
 31
0.0
  0
LINE
  5
1CE
100
AcDbEntity
  8
LAYER0
 62
         3
100
AcDbLine
 10
-51.4536729858
 20
61.7647304936
 30
0.0
 11
-51.4536729858
 21
57.5147304936
 31
0.0
  0
LINE
  5
1CF
100
AcDbEntity
  8
LAYER0
 62
         3
100
AcDbLine
 10
-67.9536729858
 20
57.5147304936
 30
0.0
 11
-67.9536729858
 21
83.5147304936
 31
0.0
  0
ARC
  5
1D0
100
AcDbEntity
  8
LAYER6
 62
         4
100
AcDbCircle
 10
-9.1536729858
 20
64.3147304936
 30
0.0
 40
2.2
210
0.0
220
0.0
230
1.0
100
AcDbArc
 50
114.1477418642
 51
245.8522581358
  0
ARC
  5
1D1
100
AcDbEntity
  8
LAYER6
 62
         4
100
AcDbCircle
 10
-9.1536729858
 20
75.3147304936
 30
0.0
 40
2.2
210
0.0
220
0.0
230
1.0
100
AcDbArc
 50
114.1477418642
 51
245.8522581358
  0
CIRCLE
  5
1D2
100
AcDbEntity
  8
LAYER6
 62
         4
100
AcDbCircle
 10
-38.9536729858
 20
77.7147304936
 30
0.0
 40
2.2
210
0.0
220
0.0
230
1.0
  0
CIRCLE
  5
1D3
100
AcDbEntity
  8
LAYER6
 62
         4
100
AcDbCircle
 10
-38.9536729858
 20
77.7147304936
 30
0.0
 40
1.05
210
0.0
220
0.0
230
1.0
  0
LINE
  5
1D4
100
AcDbEntity
  8
LAYER8
 62
         3
100
AcDbLine
 10
-14.9536729858
 20
67.5647304936
 30
0.0
 11
-30.9536729858
 21
67.5647304936
 31
0.0
  0
LINE
  5
1D5
100
AcDbEntity
  8
LAYER8
 62
         3
100
AcDbLine
 10
-30.9536729858
 20
72.0647304936
 30
0.0
 11
-14.9536729858
 21
72.0647304936
 31
0.0
  0
ARC
  5
1D6
100
AcDbEntity
  8
LAYER8
 62
         3
100
AcDbCircle
 10
-22.9536729858
 20
69.8147304936
 30
0.0
 40
7.0
210
0.0
220
0.0
230
1.0
100
AcDbArc
 50
130.0052031025
 51
147.6076370321
  0
ARC
  5
1D7
100
AcDbEntity
  8
LAYER8
 62
         3
100
AcDbCircle
 10
-22.9536729858
 20
69.8147304936
 30
0.0
 40
7.0
210
0.0
220
0.0
230
1.0
100
AcDbArc
 50
32.3923660384
 51
49.994799968
  0
ARC
  5
1D8
100
AcDbEntity
  8
LAYER8
 62
         3
100
AcDbCircle
 10
-22.9536729858
 20
69.8147304936
 30
0.0
 40
7.0
210
0.0
220
0.0
230
1.0
100
AcDbArc
 50
310.005200032
 51
327.6076339616
  0
ARC
  5
1D9
100
AcDbEntity
  8
LAYER8
 62
         3
100
AcDbCircle
 10
-22.9536729858
 20
69.8147304936
 30
0.0
 40
7.0
210
0.0
220
0.0
230
1.0
100
AcDbArc
 50
212.3923629679
 51
229.9947968975
  0
LINE
  5
1DA
100
AcDbEntity
  8
LAYER8
 62
         3
100
AcDbLine
 10
-18.4536729858
 20
61.7647304936
 30
0.0
 11
-18.4536729858
 21
66.0647304936
 31
0.0
  0
LINE
  5
1DB
100
AcDbEntity
  8
LAYER8
 62
         3
100
AcDbLine
 10
-27.4536729858
 20
61.7647304936
 30
0.0
 11
-18.4536729858
 21
61.7647304936
 31
0.0
  0
LINE
  5
1DC
100
AcDbEntity
  8
LAYER8
 62
         3
100
AcDbLine
 10
-61.5536729858
 20
73.3647304936
 30
0.0
 11
-61.5536729858
 21
72.2647304936
 31
0.0
  0
LINE
  5
1DD
100
AcDbEntity
  8
LAYER8
 62
         3
100
AcDbLine
 10
-48.3536729858
 20
73.3647304936
 30
0.0
 11
-61.5536729858
 21
73.3647304936
 31
0.0
  0
LINE
  5
1DE
100
AcDbEntity
  8
LAYER8
 62
         3
100
AcDbLine
 10
-48.3536729858
 20
72.2647304936
 30
0.0
 11
-48.3536729858
 21
73.3647304936
 31
0.0
  0
LINE
  5
1DF
100
AcDbEntity
  8
LAYER8
 62
         3
100
AcDbLine
 10
-61.5536729858
 20
72.2647304936
 30
0.0
 11
-48.3536729858
 21
72.2647304936
 31
0.0
  0
LINE
  5
1E0
100
AcDbEntity
  8
LAYER8
 62
         3
100
AcDbLine
 10
-60.8644681946
 20
73.5647304936
 30
0.0
 11
-62.9536729858
 21
73.5647304936
 31
0.0
  0
LINE
  5
1E1
100
AcDbEntity
  8
LAYER8
 62
         3
100
AcDbLine
 10
-46.9536729858
 20
73.5647304936
 30
0.0
 11
-49.042877777
 21
73.5647304936
 31
0.0
  0
LINE
  5
1E2
100
AcDbEntity
  8
LAYER8
 62
         3
100
AcDbLine
 10
-49.042877777
 20
66.0647304936
 30
0.0
 11
-46.9536729858
 21
66.0647304936
 31
0.0
  0
LINE
  5
1E3
100
AcDbEntity
  8
LAYER8
 62
         3
100
AcDbLine
 10
-62.9536729858
 20
66.0647304936
 30
0.0
 11
-60.8644681946
 21
66.0647304936
 31
0.0
  0
LINE
  5
1E4
100
AcDbEntity
  8
LAYER8
 62
         3
100
AcDbLine
 10
-46.9536729858
 20
66.0647304936
 30
0.0
 11
-46.9536729858
 21
73.5647304936
 31
0.0
  0
LINE
  5
1E5
100
AcDbEntity
  8
LAYER8
 62
         3
100
AcDbLine
 10
-62.9536729858
 20
66.0647304936
 30
0.0
 11
-62.9536729858
 21
73.5647304936
 31
0.0
  0
LINE
  5
1E6
100
AcDbEntity
  8
LAYER8
 62
         3
100
AcDbLine
 10
-16.3536729858
 20
73.3647304936
 30
0.0
 11
-29.5536729858
 21
73.3647304936
 31
0.0
  0
LINE
  5
1E7
100
AcDbEntity
  8
LAYER8
 62
         3
100
AcDbLine
 10
-16.3536729858
 20
72.2647304936
 30
0.0
 11
-16.3536729858
 21
73.3647304936
 31
0.0
  0
LINE
  5
1E8
100
AcDbEntity
  8
LAYER8
 62
         3
100
AcDbLine
 10
-29.5536729858
 20
72.2647304936
 30
0.0
 11
-16.3536729858
 21
72.2647304936
 31
0.0
  0
LINE
  5
1E9
100
AcDbEntity
  8
LAYER8
 62
         3
100
AcDbLine
 10
-28.8644681946
 20
73.5647304936
 30
0.0
 11
-30.9536729858
 21
73.5647304936
 31
0.0
  0
LINE
  5
1EA
100
AcDbEntity
  8
LAYER8
 62
         3
100
AcDbLine
 10
-14.9536729858
 20
73.5647304936
 30
0.0
 11
-17.042877777
 21
73.5647304936
 31
0.0
  0
LINE
  5
1EB
100
AcDbEntity
  8
LAYER8
 62
         3
100
AcDbLine
 10
-17.042877777
 20
66.0647304936
 30
0.0
 11
-14.9536729858
 21
66.0647304936
 31
0.0
  0
LINE
  5
1EC
100
AcDbEntity
  8
LAYER8
 62
         3
100
AcDbLine
 10
-30.9536729858
 20
66.0647304936
 30
0.0
 11
-28.8644681946
 21
66.0647304936
 31
0.0
  0
LINE
  5
1ED
100
AcDbEntity
  8
LAYER8
 62
         3
100
AcDbLine
 10
-14.9536729858
 20
66.0647304936
 30
0.0
 11
-14.9536729858
 21
73.5647304936
 31
0.0
  0
LINE
  5
1EE
100
AcDbEntity
  8
LAYER8
 62
         3
100
AcDbLine
 10
-30.9536729858
 20
66.0647304936
 30
0.0
 11
-30.9536729858
 21
73.5647304936
 31
0.0
  0
LINE
  5
1EF
100
AcDbEntity
  8
LAYER8
 62
         3
100
AcDbLine
 10
-46.9536729858
 20
67.5647304936
 30
0.0
 11
-62.9536729858
 21
67.5647304936
 31
0.0
  0
LINE
  5
1F0
100
AcDbEntity
  8
LAYER8
 62
         3
100
AcDbLine
 10
-62.9536729858
 20
72.0647304936
 30
0.0
 11
-46.9536729858
 21
72.0647304936
 31
0.0
  0
ARC
  5
1F1
100
AcDbEntity
  8
LAYER8
 62
         3
100
AcDbCircle
 10
-54.9536729858
 20
69.8147304936
 30
0.0
 40
7.0
210
0.0
220
0.0
230
1.0
100
AcDbArc
 50
130.0052031025
 51
147.6076370321
  0
ARC
  5
1F2
100
AcDbEntity
  8
LAYER8
 62
         3
100
AcDbCircle
 10
-54.9536729858
 20
69.8147304936
 30
0.0
 40
7.0
210
0.0
220
0.0
230
1.0
100
AcDbArc
 50
32.3923660384
 51
49.994799968
  0
ARC
  5
1F3
100
AcDbEntity
  8
LAYER8
 62
         3
100
AcDbCircle
 10
-54.9536729858
 20
69.8147304936
 30
0.0
 40
7.0
210
0.0
220
0.0
230
1.0
100
AcDbArc
 50
310.005200032
 51
327.6076339616
  0
ARC
  5
1F4
100
AcDbEntity
  8
LAYER8
 62
         3
100
AcDbCircle
 10
-54.9536729858
 20
69.8147304936
 30
0.0
 40
7.0
210
0.0
220
0.0
230
1.0
100
AcDbArc
 50
212.3923629679
 51
229.9947968975
  0
ENDSEC
  0
SECTION
  2
OBJECTS
  0
DICTIONARY
  5
19
100
AcDbDictionary
280
         0
281
         1
  3
ACAD_GROUP
350
1A
  3
ACAD_MLINESTYLE
350
1B
  3
ACAD_LAYOUT
350
1E
  3
ACAD_PLOTSETTINGS
350
22
  3
ACAD_PLOTSTYLENAME
350
1F
  3
ACAD_WIPEOUT_VARS
350
23
  0
DICTIONARY
  5
1A
102
{ACAD_REACTORS
330
19
102
}
100
AcDbDictionary
280
         0
281
         1
  0
DICTIONARY
  5
1B
102
{ACAD_REACTORS
330
19
102
}
100
AcDbDictionary
280
         0
281
         1
  3
Standard
350
1C
  0
MLINESTYLE
  5
1C
102
{ACAD_REACTORS
330
1B
102
}
100
AcDbMlineStyle
  2
Standard
 70
         0
  3

 62
         0
 51
90.0
 52
90.0
 71
         2
 49
0.5
 62
       256
  6
BYLAYER
 49
-0.5
 62
       256
  6
BYLAYER
  0
ACDBDICTIONARYWDFLT
  5
1F
102
{ACAD_REACTORS
330
19
102
}
100
AcDbDictionary
281
         1
  3
Normal
350
1D
100
AcDbDictionaryWithDefault
340
1D
  0
ACDBPLACEHOLDER
  5
1D
102
{ACAD_REACTORS
330
1F
102
}
  0
LAYOUT
  5
20
102
{ACAD_REACTORS
330
1E
102
}
100
AcDbPlotSettings
  1

  2

  4

  6

 40
0.0
 41
0.0
 42
0.0
 43
0.0
 44
0.0
 45
0.0
 46
0.0
 47
0.0
 48
0.0
 49
0.0
140
0.0
141
0.0
142
1.0
143
1.0
 70
         0
 72
         0
 73
         0
 74
         0
  7

 75
         0
147
1.0
148
0.0
149
0.0
100
AcDbLayout
  1
Model
 70
         0
 71
         0
 10
0.0
 20
0.0
 11
0.0
 21
0.0
 12
0.0
 22
0.0
 32
0.0
 14
0.0
 24
0.0
 34
0.0
 15
0.0
 25
0.0
 35
0.0
146
0.0
 13
0.0
 23
0.0
 33
0.0
 16
0.0
 26
0.0
 36
0.0
 17
0.0
 27
0.0
 37
0.0
 76
         0
330
A
331
0
345
0
346
0
  0
LAYOUT
  5
21
102
{ACAD_REACTORS
330
1E
102
}
100
AcDbPlotSettings
  1

  2

  4

  6

 40
0.0
 41
0.0
 42
0.0
 43
0.0
 44
0.0
 45
0.0
 46
0.0
 47
0.0
 48
0.0
 49
0.0
140
0.0
141
0.0
142
1.0
143
1.0
 70
         0
 72
         0
 73
         0
 74
         0
  7

 75
         0
147
1.0
148
0.0
149
0.0
100
AcDbLayout
  1
Layout1
 70
         0
 71
         0
 10
0.0
 20
0.0
 11
0.0
 21
0.0
 12
0.0
 22
0.0
 32
0.0
 14
0.0
 24
0.0
 34
0.0
 15
0.0
 25
0.0
 35
0.0
146
0.0
 13
0.0
 23
0.0
 33
0.0
 16
0.0
 26
0.0
 36
0.0
 17
0.0
 27
0.0
 37
0.0
 76
         0
330
B
331
0
345
0
346
0
  0
DICTIONARY
  5
1E
102
{ACAD_REACTORS
330
19
102
}
100
AcDbDictionary
280
         0
281
         1
  3
Layout1
350
21
  3
Model
350
20
  0
DICTIONARY
  5
22
102
{ACAD_REACTORS
330
19
102
}
100
AcDbDictionary
280
         0
281
         1
  0
WIPEOUTVARIABLES
  5
23
100
AcDbWipeoutVariables
 70
         1
  0
ENDSEC
  0
EOF
