  0
SECTION
  2
HEADER
  9
$ACADVER
  1
AC1015
  9
$ACADMAINTVER
 70
         6
  9
$DWGCODEPAGE
  3
ANSI_932
  9
$INSBASE
 10
0.0
 20
0.0
 30
0.0
  9
$EXTMIN
 10
1.0000000000E+20
 20
1.0000000000E+20
 30
1.0000000000E+20
  9
$EXTMAX
 10
-1.0000000000E+20
 20
-1.0000000000E+20
 30
-1.0000000000E+20
  9
$LIMMIN
 10
0.0
 20
0.0
  9
$LIMMAX
 10
0.0
 20
0.0
  9
$ORTHOMODE
 70
         0
  9
$REGENMODE
 70
         1
  9
$FILLMODE
 70
         1
  9
$QTEXTMODE
 70
         0
  9
$MIRRTEXT
 70
         1
  9
$LTSCALE
 40
1.0
  9
$ATTMODE
 70
         1
  9
$TEXTSIZE
 40
0.2
  9
$TRACEWID
 40
0.05
  9
$TEXTSTYLE
  7
Standard
  9
$CLAYER
  8
0
  9
$CELTYPE
  6
Continuous
  9
$CECOLOR
 62
       256
  9
$CELTSCALE
 40
1.0
  9
$DISPSILH
 70
         0
  9
$DIMSCALE
 40
1.0
  9
$DIMASZ
 40
0.18
  9
$DIMEXO
 40
0.0625
  9
$DIMDLI
 40
0.38
  9
$DIMRND
 40
0.0
  9
$DIMDLE
 40
0.0
  9
$DIMEXE
 40
0.18
  9
$DIMTP
 40
0.0
  9
$DIMTM
 40
0.0
  9
$DIMTXT
 40
0.18
  9
$DIMCEN
 40
0.09
  9
$DIMTSZ
 40
0.0
  9
$DIMTOL
 70
         0
  9
$DIMLIM
 70
         0
  9
$DIMTIH
 70
         1
  9
$DIMTOH
 70
         1
  9
$DIMSE1
 70
         0
  9
$DIMSE2
 70
         0
  9
$DIMTAD
 70
         0
  9
$DIMZIN
 70
         0
  9
$DIMBLK
  1

  9
$DIMASO
 70
         1
  9
$DIMSHO
 70
         1
  9
$DIMPOST
  1

  9
$DIMAPOST
  1

  9
$DIMALT
 70
         0
  9
$DIMALTD
 70
         2
  9
$DIMALTF
 40
25.4
  9
$DIMLFAC
 40
1.0
  9
$DIMTOFL
 70
         0
  9
$DIMTVP
 40
0.0
  9
$DIMTIX
 70
         0
  9
$DIMSOXD
 70
         0
  9
$DIMSAH
 70
         0
  9
$DIMBLK1
  1

  9
$DIMBLK2
  1

  9
$DIMSTYLE
  2
Standard
  9
$DIMCLRD
 70
         0
  9
$DIMCLRE
 70
         0
  9
$DIMCLRT
 70
         0
  9
$DIMTFAC
 40
1.0
  9
$DIMGAP
 40
0.09
  9
$DIMJUST
 70
         0
  9
$DIMSD1
 70
         0
  9
$DIMSD2
 70
         0
  9
$DIMTOLJ
 70
         1
  9
$DIMTZIN
 70
         0
  9
$DIMALTZ
 70
         0
  9
$DIMALTTZ
 70
         0
  9
$DIMUPT
 70
         0
  9
$DIMDEC
 70
         4
  9
$DIMTDEC
 70
         4
  9
$DIMALTU
 70
         2
  9
$DIMALTTD
 70
         2
  9
$DIMTXSTY
  7
Standard
  9
$DIMAUNIT
 70
         0
  9
$DIMADEC
 70
         0
  9
$DIMALTRND
 40
0.0
  9
$DIMAZIN
 70
         0
  9
$DIMDSEP
 70
         0
  9
$DIMATFIT
 70
         3
  9
$DIMFRAC
 70
         0
  9
$DIMLDRBLK
  1

  9
$DIMLUNIT
 70
         2
  9
$DIMLWD
 70
         0
  9
$DIMLWE
 70
         0
  9
$DIMTMOVE
 70
         0
  9
$LUNITS
 70
         2
  9
$LUPREC
 70
         4
  9
$SKETCHINC
 40
0.1
  9
$FILLETRAD
 40
0.0
  9
$AUNITS
 70
         0
  9
$AUPREC
 70
         0
  9
$MENU
  1
acad
  9
$ELEVATION
 40
0.0
  9
$PELEVATION
 40
0.0
  9
$THICKNESS
 40
0.0
  9
$LIMCHECK
 70
         0
  9
$CHAMFERA
 40
0.0
  9
$CHAMFERB
 40
0.0
  9
$CHAMFERC
 40
0.0
  9
$CHAMFERD
 40
0.0
  9
$SKPOLY
 70
         0
  9
$TDCREATE
 40
0.000000000
  9
$TDUCREATE
 40
0.000000000
  9
$TDUPDATE
 40
0.000000000
  9
$TDUUPDATE
 40
0.000000000
  9
$TDINDWG
 40
0.0000000000
  9
$TDUSRTIMER
 40
0.0000000000
  9
$USRTIMER
 70
         1
  9
$ANGBASE
 50
0.0
  9
$ANGDIR
 70
         0
  9
$PDMODE
 70
         3
  9
$PDSIZE
 40
-1.0
  9
$PLINEWID
 40
0.0
  9
$SPLFRAME
 70
         0
  9
$SPLINETYPE
 70
         6
  9
$SPLINESEGS
 70
         8
  9
$HANDSEED
  5
2D4
  9
$SURFTAB1
 70
         6
  9
$SURFTAB2
 70
         6
  9
$SURFTYPE
 70
         6
  9
$SURFU
 70
         6
  9
$SURFV
 70
         6
  9
$UCSBASE
  2

  9
$UCSNAME
  2

  9
$UCSORG
 10
0.0
 20
0.0
 30
0.0
  9
$UCSXDIR
 10
1.0
 20
0.0
 30
0.0
  9
$UCSYDIR
 10
0.0
 20
1.0
 30
0.0
  9
$UCSORTHOREF
  2

  9
$UCSORTHOVIEW
 70
         0
  9
$UCSORGTOP
 10
0.0
 20
0.0
 30
0.0
  9
$UCSORGBOTTOM
 10
0.0
 20
0.0
 30
0.0
  9
$UCSORGLEFT
 10
0.0
 20
0.0
 30
0.0
  9
$UCSORGRIGHT
 10
0.0
 20
0.0
 30
0.0
  9
$UCSORGFRONT
 10
0.0
 20
0.0
 30
0.0
  9
$UCSORGBACK
 10
0.0
 20
0.0
 30
0.0
  9
$PUCSBASE
  2

  9
$PUCSNAME
  2

  9
$PUCSORG
 10
0.0
 20
0.0
 30
0.0
  9
$PUCSXDIR
 10
1.0
 20
0.0
 30
0.0
  9
$PUCSYDIR
 10
0.0
 20
1.0
 30
0.0
  9
$PUCSORTHOREF
  2

  9
$PUCSORTHOVIEW
 70
         0
  9
$PUCSORGTOP
 10
0.0
 20
0.0
 30
0.0
  9
$PUCSORGBOTTOM
 10
0.0
 20
0.0
 30
0.0
  9
$PUCSORGLEFT
 10
0.0
 20
0.0
 30
0.0
  9
$PUCSORGRIGHT
 10
0.0
 20
0.0
 30
0.0
  9
$PUCSORGFRONT
 10
0.0
 20
0.0
 30
0.0
  9
$PUCSORGBACK
 10
0.0
 20
0.0
 30
0.0
  9
$USERI1
 70
         0
  9
$USERI2
 70
         0
  9
$USERI3
 70
         0
  9
$USERI4
 70
         0
  9
$USERI5
 70
         0
  9
$USERR1
 40
0.0
  9
$USERR2
 40
0.0
  9
$USERR3
 40
0.0
  9
$USERR4
 40
0.0
  9
$USERR5
 40
0.0
  9
$WORLDVIEW
 70
         1
  9
$SHADEDGE
 70
         3
  9
$SHADEDIF
 70
        70
  9
$TILEMODE
 70
         1
  9
$MAXACTVP
 70
        16
  9
$PINSBASE
 10
0.0
 20
0.0
 30
0.0
  9
$PLIMCHECK
 70
         0
  9
$PEXTMIN
 10
1.0000000000E+20
 20
1.0000000000E+20
 30
1.0000000000E+20
  9
$PEXTMAX
 10
-1.0000000000E+20
 20
-1.0000000000E+20
 30
-1.0000000000E+20
  9
$PLIMMIN
 10
0.0
 20
0.0
  9
$PLIMMAX
 10
12.0
 20
9.0
  9
$UNITMODE
 70
         0
  9
$VISRETAIN
 70
         0
  9
$PLINEGEN
 70
         1
  9
$PSLTSCALE
 70
         0
  9
$TREEDEPTH
 70
      3020
  9
$CMLSTYLE
  2
Standard
  9
$CMLJUST
 70
         0
  9
$CMLSCALE
 40
1.0
  9
$PROXYGRAPHICS
 70
         0
  9
$MEASUREMENT
 70
         0
  9
$CELWEIGHT
370
         0
  9
$ENDCAPS
280
         0
  9
$JOINSTYLE
280
         0
  9
$LWDISPLAY
290
         0
  9
$INSUNITS
 70
         0
  9
$HYPERLINKBASE
  1

  9
$XEDIT
290
         1
  9
$CEPSNTYPE
380
         0
  9
$PSTYLEMODE
290
         0
  9
$FINGERPRINTGUID
  2

  9
$VERSIONGUID
  2

  9
$EXTNAMES
290
         1
  9
$PSVPSCALE
 40
0.0
  0
ENDSEC
  0
SECTION
  2
CLASSES
  0
CLASS
  1
LWPOLYLINE
  2
AcDbPolyline
  3
"AutoCAD"
 90
        0
280
         0
281
         1
  0
CLASS
  1
IMAGE
  2
AcDbRasterImage
  3
ISM
 90
      127
280
         0
281
         1
  0
CLASS
  1
OLE2FRAME
  2
AcDbOle2Frame
  3
""
 90
        0
280
         0
281
         1
  0
CLASS
  1
HATCH
  2
AcDbHatch
  3
"ACAD_SEDONA"
 90
        0
280
         0
281
         1
  0
CLASS
  1
DICTIONARYVAR
  2
AcDbDictionaryVar
  3
"AutoCAD"
 90
        0
280
         0
281
         0
  0
CLASS
  1
RASTERVARIABLES
  2
AcDbRasterVariables
  3
ISM
 90
        0
280
         0
281
         0
  0
CLASS
  1
IMAGEDEF
  2
AcDbRasterImageDef
  3
ISM
 90
        0
280
         0
281
         0
  0
CLASS
  1
IMAGEDEF_REACTOR
  2
AcDbRasterImageDefReactor
  3
ISM
 90
        1
280
         0
281
         0
  0
CLASS
  1
IDBUFFER
  2
AcDbIdBuffer
  3
"Acad"
 90
        0
280
         0
281
         0
  0
CLASS
  1
SPATIAL_FILTER
  2
AcDbSpatialFilter
  3
"Acad"
 90
        0
280
         0
281
         0
  0
CLASS
  1
XRECORD
  2
AcDbXrecord
  3
"<Built In>"
 90
        0
280
         0
281
         0
  0
CLASS
  1
SORTENTSTABLE
  2
AcDbSortentsTable
  3
"AutoCAD"
 90
        0
280
         0
281
         0
  0
CLASS
  1
LAYER_INDEX
  2
AcDbLayerIndex
  3
"Acad"
 90
        0
280
         0
281
         0
  0
CLASS
  1
SPATIAL_INDEX
  2
AcDbSpatialIndex
  3
"Acad"
 90
        0
280
         0
281
         0
  0
CLASS
  1
OBJECT_PTR
  2
CAseDLPNTableRecord
  3
"ASE-LPNTableRecord"
 90
        1
280
         0
281
         0
  0
CLASS
  1
LAYOUT
  2
AcDbLayout
  3
"AutoCAD 2000"
 90
        1
280
         0
281
         0
  0
CLASS
  1
PLOTSETTINGS
  2
AcDbPlotSettings
  3
"AutoCAD 2000"
 90
        1
280
         0
281
         0
  0
CLASS
  1
ACDBDICTIONARYWDFLT
  2
AcDbDictionaryWithDefault
  3
"AutoCAD 2000"
 90
        1
280
         0
281
         0
  0
CLASS
  1
ACDBPLACEHOLDER
  2
AcDbPlaceHolder
  3
"AutoCAD 2000"
 90
        1
280
         0
281
         0
  0
CLASS
  1
VBA_PROJECT
  2
AcDbVbaProject
  3
"acadvba"
 90
        1
280
         0
281
         0
  0
CLASS
  1
WIPEOUT
  2
AcDbWipeout
  3
WipeOut|AutoCAD Express Tool|expresstools@autodesk.com
 90
      127
280
         0
281
         1
  0
CLASS
  1
WIPEOUTVARIABLES
  2
AcDbWipeoutVariables
  3
WipeOut|AutoCAD Express Tool|expresstools@autodesk.com
 90
        0
280
         0
281
         0
  0
CLASS
  1
RTEXT
  2
RText
  3
RText|AutoCAD Express Tool|expresstools@autodesk.com
 90
        0
280
         0
281
         1
  0
CLASS
  1
ARCALIGNEDTEXT
  2
AcDbArcAlignedText
  3
ATEXT|AutoCAD Express Tool|expresstools@autodesk.com
 90
        0
280
         0
281
         1
  0
ENDSEC
  0
SECTION
  2
TABLES
  0
TABLE
  2
VPORT
  5
7
100
AcDbSymbolTable
 70
         1
  0
VPORT
  5
15
100
AcDbSymbolTableRecord
100
AcDbViewportTableRecord
  2
*ACTIVE
 70
         0
 10
0.0
 20
0.0
 11
1.0
 21
1.0
 12
6.591288
 22
4.579184
 13
0.0
 23
0.0
 14
1.0
 24
1.0
 15
0.0
 25
0.0
 16
0.0
 26
0.0
 36
1.0
 17
0.0
 27
0.0
 37
0.0
 40
9.158369
 41
0.688564
 42
50.0
 43
0.0
 44
0.0
 50
0.0
 51
0.0
 71
         0
 72
       100
 73
         1
 74
         1
 75
         0
 76
         0
 77
         0
 78
         0
281
         0
 65
         0
110
0.0
120
0.0
130
0.0
111
1.0
121
0.0
131
0.0
112
0.0
122
1.0
132
0.0
345
0
346
0
 79
         0
146
0.0
  0
ENDTAB
  0
TABLE
  2
LTYPE
  5
4
100
AcDbSymbolTable
 70
        13
  0
LTYPE
  5
11
100
AcDbSymbolTableRecord
100
AcDbLinetypeTableRecord
  2
ByBlock
 70
        64
  3

 72
        65
 73
         0
 40
0.0
  0
LTYPE
  5
12
100
AcDbSymbolTableRecord
100
AcDbLinetypeTableRecord
  2
ByLayer
 70
        64
  3

 72
        65
 73
         0
 40
0.0
  0
LTYPE
  5
13
100
AcDbSymbolTableRecord
100
AcDbLinetypeTableRecord
  2
Continuous
 70
        64
  3
Solid line
 72
        65
 73
         0
 40
0.0
  0
LTYPE
  5
24
100
AcDbSymbolTableRecord
100
AcDbLinetypeTableRecord
  2
DOT
 70
        64
  3
. . . . . . . . 
 72
        65
 73
         2
 40
1.0
 49
0.0
 74
         0
 49
-1.0
 74
         0
  0
LTYPE
  5
25
100
AcDbSymbolTableRecord
100
AcDbLinetypeTableRecord
  2
DASHED
 70
        64
  3
___  ___  ___  ___  
 72
        65
 73
         2
 40
4.0
 49
3.0
 74
         0
 49
-1.0
 74
         0
  0
LTYPE
  5
26
100
AcDbSymbolTableRecord
100
AcDbLinetypeTableRecord
  2
HIDDEN
 70
        64
  3
__ __ __ __ 
 72
        65
 73
         2
 40
3.0
 49
2.0
 74
         0
 49
-1.0
 74
         0
  0
LTYPE
  5
27
100
AcDbSymbolTableRecord
100
AcDbLinetypeTableRecord
  2
STITCH
 70
        64
  3
_ _ _ _ 
 72
        65
 73
         2
 40
2.0
 49
1.0
 74
         0
 49
-1.0
 74
         0
  0
LTYPE
  5
28
100
AcDbSymbolTableRecord
100
AcDbLinetypeTableRecord
  2
CENTER
 70
        64
  3
______  __  ______  __  
 72
        65
 73
         4
 40
43.0
 49
40.0
 74
         0
 49
-1.0
 74
         0
 49
1.0
 74
         0
 49
-1.0
 74
         0
  0
LTYPE
  5
29
100
AcDbSymbolTableRecord
100
AcDbLinetypeTableRecord
  2
DASHDOT
 70
        64
  3
____ . ____ . 
 72
        65
 73
         4
 40
32.0
 49
30.0
 74
         0
 49
-1.0
 74
         0
 49
0.0
 74
         0
 49
-1.0
 74
         0
  0
LTYPE
  5
2A
100
AcDbSymbolTableRecord
100
AcDbLinetypeTableRecord
  2
BORDER
 70
        64
  3
__ . __ . 
 72
        65
 73
         4
 40
22.0
 49
20.0
 74
         0
 49
-1.0
 74
         0
 49
0.0
 74
         0
 49
-1.0
 74
         0
  0
LTYPE
  5
2B
100
AcDbSymbolTableRecord
100
AcDbLinetypeTableRecord
  2
CUTTING
 70
        64
  3
________   ___   ___   
 72
        65
 73
         6
 40
45.0
 49
40.0
 74
         0
 49
-1.0
 74
         0
 49
1.0
 74
         0
 49
-1.0
 74
         0
 49
1.0
 74
         0
 49
-1.0
 74
         0
  0
LTYPE
  5
2C
100
AcDbSymbolTableRecord
100
AcDbLinetypeTableRecord
  2
PHANTOM
 70
        64
  3
______  __  __  
 72
        65
 73
         6
 40
35.0
 49
30.0
 74
         0
 49
-1.0
 74
         0
 49
1.0
 74
         0
 49
-1.0
 74
         0
 49
1.0
 74
         0
 49
-1.0
 74
         0
  0
LTYPE
  5
2D
100
AcDbSymbolTableRecord
100
AcDbLinetypeTableRecord
  2
DIVIDE
 70
        64
  3
____ . . ____ . . 
 72
        65
 73
         6
 40
23.0
 49
20.0
 74
         0
 49
-1.0
 74
         0
 49
0.0
 74
         0
 49
-1.0
 74
         0
 49
0.0
 74
         0
 49
-1.0
 74
         0
  0
ENDTAB
  0
TABLE
  2
LAYER
  5
2
100
AcDbSymbolTable
 70
         9
  0
LAYER
  5
14
100
AcDbSymbolTableRecord
100
AcDbLayerTableRecord
  2
0
 70
         0
 62
         7
  6
Continuous
290
         1
370
        -3
390
1D
  0
LAYER
  5
2E
100
AcDbSymbolTableRecord
100
AcDbLayerTableRecord
  2
LAYER8
 70
         0
 62
         7
  6
Continuous
290
         1
370
        -3
390
1F
  0
LAYER
  5
3D
100
AcDbSymbolTableRecord
100
AcDbLayerTableRecord
  2
LAYER3
 70
         0
 62
         7
  6
Continuous
290
         1
370
        -3
390
1F
  0
LAYER
  5
44
100
AcDbSymbolTableRecord
100
AcDbLayerTableRecord
  2
LAYER0
 70
         0
 62
         7
  6
Continuous
290
         1
370
        -3
390
1F
  0
LAYER
  5
47
100
AcDbSymbolTableRecord
100
AcDbLayerTableRecord
  2
LAYER6
 70
         0
 62
         7
  6
Continuous
290
         1
370
        -3
390
1F
  0
LAYER
  5
C9
100
AcDbSymbolTableRecord
100
AcDbLayerTableRecord
  2
LAYER7
 70
         0
 62
         7
  6
Continuous
290
         1
370
        -3
390
1F
  0
LAYER
  5
185
100
AcDbSymbolTableRecord
100
AcDbLayerTableRecord
  2
LAYER5
 70
         0
 62
         7
  6
Continuous
290
         1
370
        -3
390
1F
  0
LAYER
  5
216
100
AcDbSymbolTableRecord
100
AcDbLayerTableRecord
  2
LAYER2
 70
         0
 62
         7
  6
Continuous
290
         1
370
        -3
390
1F
  0
LAYER
  5
21D
100
AcDbSymbolTableRecord
100
AcDbLayerTableRecord
  2
LAYER4
 70
         0
 62
         7
  6
Continuous
290
         1
370
        -3
390
1F
  0
ENDTAB
  0
TABLE
  2
STYLE
  5
3
100
AcDbSymbolTable
 70
         1
  0
STYLE
  5
17
100
AcDbSymbolTableRecord
100
AcDbTextStyleTableRecord
  2
Standard
 70
         0
 40
0.0
 41
1.0
 50
0.0
 71
         0
 42
0.0
  3
txt
  4
extfont
  0
ENDTAB
  0
TABLE
  2
VIEW
  5
5
100
AcDbSymbolTable
 70
         0
  0
ENDTAB
  0
TABLE
  2
UCS
  5
6
100
AcDbSymbolTable
 70
         0
  0
ENDTAB
  0
TABLE
  2
APPID
  5
8
100
AcDbSymbolTable
 70
         1
  0
APPID
  5
16
100
AcDbSymbolTableRecord
100
AcDbRegAppTableRecord
  2
ACAD
 70
         0
  0
ENDTAB
  0
TABLE
  2
DIMSTYLE
  5
9
100
AcDbSymbolTable
 70
         1
100
AcDbDimStyleTable
 71
         0
  0
DIMSTYLE
105
18
100
AcDbSymbolTableRecord
100
AcDbDimStyleTableRecord
  2
Standard
 70
         0
  3

  4

 40
1.0
 41
0.18
 42
0.0625
 43
0.38
 44
0.18
 45
0.0
 46
0.0
 47
0.0
 48
0.0
 71
         0
 72
         0
 73
         1
 74
         1
 75
         0
 76
         0
 77
         0
 78
         0
 79
         0
140
0.18
141
0.09
142
0.0
143
25.4
144
1.0
145
0.0
146
1.0
147
0.09
148
0.0
170
         0
171
         2
172
         0
173
         0
174
         0
175
         0
176
         0
177
         0
178
         0
179
         0
271
         4
272
         4
273
         2
274
         2
275
         0
276
         0
277
         2
278
        46
279
         0
280
         0
281
         0
282
         0
283
         1
284
         0
285
         0
286
         0
288
         0
340
17
341
0
342
0
343
0
344
0
371
        -2
372
        -2
  0
ENDTAB
  0
TABLE
  2
BLOCK_RECORD
  5
1
100
AcDbSymbolTable
 70
         0
  0
BLOCK_RECORD
  5
A
100
AcDbSymbolTableRecord
100
AcDbBlockTableRecord
  2
*MODEL_SPACE
340
20
  0
BLOCK_RECORD
  5
B
100
AcDbSymbolTableRecord
100
AcDbBlockTableRecord
  2
*PAPER_SPACE
340
21
  0
ENDTAB
  0
ENDSEC
  0
SECTION
  2
BLOCKS
  0
BLOCK
  5
D
100
AcDbEntity
  8
0
100
AcDbBlockBegin
  2
*MODEL_SPACE
 70
         0
 10
0.0
 20
0.0
 30
0.0
  3
*MODEL_SPACE
  1

  0
ENDBLK
  5
E
100
AcDbEntity
  8
0
100
AcDbBlockEnd
  0
BLOCK
  5
F
100
AcDbEntity
 67
         1
  8
0
100
AcDbBlockBegin
  2
*PAPER_SPACE
 70
         0
 10
0.0
 20
0.0
 30
0.0
  3
*PAPER_SPACE
  1

  0
ENDBLK
  5
10
100
AcDbEntity
 67
         1
  8
0
100
AcDbBlockEnd
  0
ENDSEC
  0
SECTION
  2
ENTITIES
  0
LINE
  5
2F
100
AcDbEntity
  8
LAYER8
 62
         3
100
AcDbLine
 10
25.9704976303
 20
50.7279620853
 30
0.0
 11
25.9704976303
 21
49.6279620853
 31
0.0
  0
LINE
  5
30
100
AcDbEntity
  8
LAYER8
 62
         3
100
AcDbLine
 10
28.0704976303
 20
50.7279620853
 30
0.0
 11
28.0704976303
 21
55.2279620853
 31
0.0
  0
LINE
  5
31
100
AcDbEntity
  8
LAYER8
 62
         3
100
AcDbLine
 10
28.0704976303
 20
55.2279620853
 30
0.0
 11
37.0704976303
 21
55.2279620853
 31
0.0
  0
LINE
  5
32
100
AcDbEntity
  8
LAYER8
 62
         3
100
AcDbLine
 10
37.0704976303
 20
55.2279620853
 30
0.0
 11
37.0704976303
 21
50.7279620853
 31
0.0
  0
LINE
  5
33
100
AcDbEntity
  8
LAYER8
 62
         3
100
AcDbLine
 10
39.1704976303
 20
44.7279620853
 30
0.0
 11
25.9704976303
 21
44.7279620853
 31
0.0
  0
LINE
  5
34
100
AcDbEntity
  8
LAYER8
 62
         3
100
AcDbLine
 10
25.9704976303
 20
44.7279620853
 30
0.0
 11
25.9704976303
 21
43.6279620853
 31
0.0
  0
LINE
  5
35
100
AcDbEntity
  8
LAYER8
 62
         3
100
AcDbLine
 10
25.9704976303
 20
43.6279620853
 30
0.0
 11
39.1704976303
 21
43.6279620853
 31
0.0
  0
LINE
  5
36
100
AcDbEntity
  8
LAYER8
 62
         3
100
AcDbLine
 10
39.1704976303
 20
43.6279620853
 30
0.0
 11
39.1704976303
 21
44.7279620853
 31
0.0
  0
LINE
  5
37
100
AcDbEntity
  8
LAYER8
 62
         3
100
AcDbLine
 10
8.5704976303
 20
43.4279620853
 30
0.0
 11
8.5704976303
 21
50.9279620853
 31
0.0
  0
LINE
  5
38
100
AcDbEntity
  8
LAYER8
 62
         3
100
AcDbLine
 10
6.4812928391
 20
43.4279620853
 30
0.0
 11
8.5704976303
 21
43.4279620853
 31
0.0
  0
LINE
  5
39
100
AcDbEntity
  8
LAYER8
 62
         3
100
AcDbLine
 10
8.5704976303
 20
50.9279620853
 30
0.0
 11
6.4812928391
 21
50.9279620853
 31
0.0
  0
LINE
  5
3A
100
AcDbEntity
  8
LAYER8
 62
         3
100
AcDbLine
 10
7.1704976303
 20
49.6279620853
 30
0.0
 11
7.1704976303
 21
50.7279620853
 31
0.0
  0
LINE
  5
3B
100
AcDbEntity
  8
LAYER8
 62
         3
100
AcDbLine
 10
5.0704976303
 20
55.2279620853
 30
0.0
 11
5.0704976303
 21
50.7279620853
 31
0.0
  0
LINE
  5
3C
100
AcDbEntity
  8
LAYER8
 62
         3
100
AcDbLine
 10
7.1704976303
 20
43.6279620853
 30
0.0
 11
7.1704976303
 21
44.7279620853
 31
0.0
  0
LINE
  5
3E
100
AcDbEntity
  8
LAYER3
 62
         4
100
AcDbLine
 10
69.0204976303
 20
15.0178035555
 30
0.0
 11
85.1204976303
 21
15.0178035555
 31
0.0
  0
LINE
  5
3F
100
AcDbEntity
  8
LAYER3
 62
         4
100
AcDbLine
 10
69.0204976303
 20
15.0178035555
 30
0.0
 11
71.9549404325
 21
14.3940684831
 31
0.0
  0
LINE
  5
40
100
AcDbEntity
  8
LAYER3
 62
         4
100
AcDbLine
 10
69.0204976303
 20
15.0178035555
 30
0.0
 11
71.9549404325
 21
15.641538628
 31
0.0
  0
LINE
  5
41
100
AcDbEntity
  8
LAYER3
 62
         4
100
AcDbLine
 10
85.1204976303
 20
15.0178035555
 30
0.0
 11
82.1860548281
 21
15.641538628
 31
0.0
  0
LINE
  5
42
100
AcDbEntity
  8
LAYER3
 62
         4
100
AcDbLine
 10
85.1204976303
 20
15.0178035555
 30
0.0
 11
82.1860548281
 21
14.3940684831
 31
0.0
  0
MTEXT
  5
43
100
AcDbEntity
  8
LAYER3
100
AcDbMText
 10
74.6704976303
 20
18.8054622469
 30
0.0
 40
2.1473683357
 41
2.5646459961
 71
         1
 72
         1
  1
\W0.8;16
  0
LINE
  5
45
100
AcDbEntity
  8
LAYER0
 62
         3
100
AcDbLine
 10
5.4704976303
 20
33.4779620853
 30
0.0
 11
27.6704976303
 21
33.4779620853
 31
0.0
  0
LINE
  5
46
100
AcDbEntity
  8
LAYER0
 62
         3
100
AcDbLine
 10
40.1704976303
 20
33.4779620853
 30
0.0
 11
40.1704976303
 21
38.9779620853
 31
0.0
  0
CIRCLE
  5
48
100
AcDbEntity
  8
LAYER6
 62
         4
100
AcDbCircle
 10
16.5704976303
 20
55.0779620853
 30
0.0
 40
2.2
210
0.0
220
0.0
230
1.0
  0
CIRCLE
  5
49
100
AcDbEntity
  8
LAYER6
 62
         4
100
AcDbCircle
 10
16.5704976303
 20
55.0779620853
 30
0.0
 40
1.05
210
0.0
220
0.0
230
1.0
  0
ARC
  5
4A
100
AcDbEntity
  8
LAYER8
 62
         3
100
AcDbCircle
 10
32.5704976303
 20
47.1779620853
 30
0.0
 40
7.0
210
0.0
220
0.0
230
1.0
100
AcDbArc
 50
212.3923629679
 51
229.9947968975
  0
ARC
  5
4B
100
AcDbEntity
  8
LAYER8
 62
         3
100
AcDbCircle
 10
32.5704976303
 20
47.1779620853
 30
0.0
 40
7.0
210
0.0
220
0.0
230
1.0
100
AcDbArc
 50
310.005200032
 51
327.6076339616
  0
ARC
  5
4C
100
AcDbEntity
  8
LAYER8
 62
         3
100
AcDbCircle
 10
32.5704976303
 20
47.1779620853
 30
0.0
 40
7.0
210
0.0
220
0.0
230
1.0
100
AcDbArc
 50
32.3923660384
 51
49.994799968
  0
ARC
  5
4D
100
AcDbEntity
  8
LAYER8
 62
         3
100
AcDbCircle
 10
32.5704976303
 20
47.1779620853
 30
0.0
 40
7.0
210
0.0
220
0.0
230
1.0
100
AcDbArc
 50
130.0052031025
 51
147.6076370321
  0
LINE
  5
4E
100
AcDbEntity
  8
LAYER8
 62
         3
100
AcDbLine
 10
24.5704976303
 20
49.4279620853
 30
0.0
 11
40.5704976303
 21
49.4279620853
 31
0.0
  0
LINE
  5
4F
100
AcDbEntity
  8
LAYER8
 62
         3
100
AcDbLine
 10
40.5704976303
 20
44.9279620853
 30
0.0
 11
24.5704976303
 21
44.9279620853
 31
0.0
  0
LINE
  5
50
100
AcDbEntity
  8
LAYER8
 62
         3
100
AcDbLine
 10
28.0704976303
 20
43.6279620853
 30
0.0
 11
28.0704976303
 21
39.1279620853
 31
0.0
  0
LINE
  5
51
100
AcDbEntity
  8
LAYER8
 62
         3
100
AcDbLine
 10
28.0704976303
 20
39.1279620853
 30
0.0
 11
37.0704976303
 21
39.1279620853
 31
0.0
  0
LINE
  5
52
100
AcDbEntity
  8
LAYER8
 62
         3
100
AcDbLine
 10
37.0704976303
 20
39.1279620853
 30
0.0
 11
37.0704976303
 21
43.6279620853
 31
0.0
  0
ARC
  5
53
100
AcDbEntity
  8
LAYER8
 62
         3
100
AcDbCircle
 10
0.5704976303
 20
47.1779620853
 30
0.0
 40
7.0
210
0.0
220
0.0
230
1.0
100
AcDbArc
 50
310.005200032
 51
327.6076339616
  0
ARC
  5
54
100
AcDbEntity
  8
LAYER8
 62
         3
100
AcDbCircle
 10
0.5704976303
 20
47.1779620853
 30
0.0
 40
7.0
210
0.0
220
0.0
230
1.0
100
AcDbArc
 50
32.3923660384
 51
49.994799968
  0
LINE
  5
55
100
AcDbEntity
  8
LAYER8
 62
         3
100
AcDbLine
 10
5.0704976303
 20
39.1279620853
 30
0.0
 11
5.0704976303
 21
43.6279620853
 31
0.0
  0
LINE
  5
56
100
AcDbEntity
  8
LAYER8
 62
         3
100
AcDbLine
 10
24.5704976303
 20
43.4279620853
 30
0.0
 11
24.5704976303
 21
50.9279620853
 31
0.0
  0
LINE
  5
57
100
AcDbEntity
  8
LAYER8
 62
         3
100
AcDbLine
 10
40.5704976303
 20
43.4279620853
 30
0.0
 11
40.5704976303
 21
50.9279620853
 31
0.0
  0
LINE
  5
58
100
AcDbEntity
  8
LAYER8
 62
         3
100
AcDbLine
 10
24.5704976303
 20
43.4279620853
 30
0.0
 11
26.6597024216
 21
43.4279620853
 31
0.0
  0
LINE
  5
59
100
AcDbEntity
  8
LAYER8
 62
         3
100
AcDbLine
 10
38.4812928391
 20
43.4279620853
 30
0.0
 11
40.5704976303
 21
43.4279620853
 31
0.0
  0
LINE
  5
5A
100
AcDbEntity
  8
LAYER8
 62
         3
100
AcDbLine
 10
40.5704976303
 20
50.9279620853
 30
0.0
 11
38.4812928391
 21
50.9279620853
 31
0.0
  0
LINE
  5
5B
100
AcDbEntity
  8
LAYER8
 62
         3
100
AcDbLine
 10
26.6597024216
 20
50.9279620853
 30
0.0
 11
24.5704976303
 21
50.9279620853
 31
0.0
  0
LINE
  5
5C
100
AcDbEntity
  8
LAYER8
 62
         3
100
AcDbLine
 10
25.9704976303
 20
49.6279620853
 30
0.0
 11
39.1704976303
 21
49.6279620853
 31
0.0
  0
LINE
  5
5D
100
AcDbEntity
  8
LAYER8
 62
         3
100
AcDbLine
 10
39.1704976303
 20
49.6279620853
 30
0.0
 11
39.1704976303
 21
50.7279620853
 31
0.0
  0
LINE
  5
5E
100
AcDbEntity
  8
LAYER8
 62
         3
100
AcDbLine
 10
39.1704976303
 20
50.7279620853
 30
0.0
 11
25.9704976303
 21
50.7279620853
 31
0.0
  0
LINE
  5
5F
100
AcDbEntity
  8
LAYER8
 62
         3
100
AcDbLine
 10
79.5204976303
 20
6.7059852499
 30
0.0
 11
79.5204976303
 21
-2.8940147501
 31
0.0
  0
LINE
  5
60
100
AcDbEntity
  8
LAYER8
 62
         3
100
AcDbLine
 10
80.6204976303
 20
-2.8940147501
 30
0.0
 11
80.6204976303
 21
6.7059852499
 31
0.0
  0
LINE
  5
61
100
AcDbEntity
  8
LAYER8
 62
         3
100
AcDbLine
 10
85.1204976303
 20
4.6059852499
 30
0.0
 11
85.1204976303
 21
-4.3940147501
 31
0.0
  0
LINE
  5
62
100
AcDbEntity
  8
LAYER3
 62
         4
100
AcDbLine
 10
40.0704976303
 20
34.4779620853
 30
0.0
 11
39.5704976303
 21
34.4779620853
 31
0.0
  0
LINE
  5
63
100
AcDbEntity
  8
LAYER3
 62
         4
100
AcDbLine
 10
39.5704976303
 20
34.4779620853
 30
0.0
 11
39.5704976303
 21
34.9779620853
 31
0.0
  0
ARC
  5
64
100
AcDbEntity
  8
LAYER3
 62
         4
100
AcDbCircle
 10
40.0704976303
 20
34.9779620853
 30
0.0
 40
0.5
210
0.0
220
0.0
230
1.0
100
AcDbArc
 50
90.0000015352
 51
179.9999969295
  0
LINE
  5
65
100
AcDbEntity
  8
LAYER3
 62
         4
100
AcDbLine
 10
40.0704976303
 20
38.9779620853
 30
0.0
 11
40.0704976303
 21
35.4779620853
 31
0.0
  0
LINE
  5
66
100
AcDbEntity
  8
LAYER3
 62
         4
100
AcDbLine
 10
40.0704976303
 20
34.4779620853
 30
0.0
 11
40.0704976303
 21
33.4779620853
 31
0.0
  0
LINE
  5
67
100
AcDbEntity
  8
LAYER0
 62
         3
100
AcDbLine
 10
41.5704976303
 20
35.3779620853
 30
0.0
 11
41.5704976303
 21
35.8779620853
 31
0.0
  0
LINE
  5
68
100
AcDbEntity
  8
LAYER0
 62
         3
100
AcDbLine
 10
41.5704976303
 20
36.3779620853
 30
0.0
 11
41.5704976303
 21
36.8779620853
 31
0.0
  0
LINE
  5
69
100
AcDbEntity
  8
LAYER0
 62
         3
100
AcDbLine
 10
41.5704976303
 20
37.3779620853
 30
0.0
 11
41.5704976303
 21
37.8779620853
 31
0.0
  0
LINE
  5
6A
100
AcDbEntity
  8
LAYER0
 62
         3
100
AcDbLine
 10
41.5704976303
 20
38.3779620853
 30
0.0
 11
41.5704976303
 21
38.8779620853
 31
0.0
  0
LINE
  5
6B
100
AcDbEntity
  8
LAYER0
 62
         3
100
AcDbLine
 10
41.5704976303
 20
33.4779620853
 30
0.0
 11
41.5704976303
 21
33.8779620853
 31
0.0
  0
LINE
  5
6C
100
AcDbEntity
  8
LAYER0
 62
         3
100
AcDbLine
 10
41.5704976303
 20
34.3779620853
 30
0.0
 11
41.5704976303
 21
34.8779620853
 31
0.0
  0
ARC
  5
6D
100
AcDbEntity
  8
LAYER0
 62
         3
100
AcDbCircle
 10
5.4704976303
 20
34.8779620853
 30
0.0
 40
1.4
210
0.0
220
0.0
230
1.0
100
AcDbArc
 50
179.9999969295
 51
269.9999984648
  0
LINE
  5
6E
100
AcDbEntity
  8
LAYER0
 62
         3
100
AcDbLine
 10
45.5704976303
 20
34.8779620853
 30
0.0
 11
45.5704976303
 21
60.8779620853
 31
0.0
  0
ARC
  5
6F
100
AcDbEntity
  8
LAYER0
 62
         3
100
AcDbCircle
 10
44.1704976303
 20
34.8779620853
 30
0.0
 40
1.4
210
-0.0
220
0.0
230
1.0
100
AcDbArc
 50
269.9999984648
 51
0.0
  0
LINE
  5
70
100
AcDbEntity
  8
LAYER0
 62
         3
100
AcDbLine
 10
29.0704976303
 20
39.1279620853
 30
0.0
 11
29.0704976303
 21
34.877962097
 31
0.0
  0
ARC
  5
71
100
AcDbEntity
  8
LAYER0
 62
         3
100
AcDbCircle
 10
27.6704976303
 20
34.877962097
 30
0.0
 40
1.4
210
-0.0
220
0.0
230
1.0
100
AcDbArc
 50
269.9999984648
 51
0.0
  0
LINE
  5
72
100
AcDbEntity
  8
LAYER0
 62
         3
100
AcDbLine
 10
37.5704976303
 20
38.9779620853
 30
0.0
 11
41.5704976303
 21
38.9779620853
 31
0.0
  0
LINE
  5
73
100
AcDbEntity
  8
LAYER0
 62
         3
100
AcDbLine
 10
37.0704976303
 20
39.4779620853
 30
0.0
 11
37.5704976303
 21
38.9779620853
 31
0.0
  0
CIRCLE
  5
74
100
AcDbEntity
  8
LAYER0
 62
         3
100
AcDbCircle
 10
9.0704976303
 20
37.3779620853
 30
0.0
 40
1.35
210
0.0
220
0.0
230
1.0
  0
CIRCLE
  5
75
100
AcDbEntity
  8
LAYER0
 62
         3
100
AcDbCircle
 10
24.0704976303
 20
37.3779620853
 30
0.0
 40
1.35
210
0.0
220
0.0
230
1.0
  0
LINE
  5
76
100
AcDbEntity
  8
LAYER0
 62
         3
100
AcDbLine
 10
4.0704976303
 20
39.1279620853
 30
0.0
 11
4.0704976303
 21
34.8779620853
 31
0.0
  0
LINE
  5
77
100
AcDbEntity
  8
LAYER0
 62
         3
100
AcDbLine
 10
44.1704976303
 20
33.4779620853
 30
0.0
 11
40.1704976303
 21
33.4779620853
 31
0.0
  0
LINE
  5
78
100
AcDbEntity
  8
LAYER8
 62
         3
100
AcDbLine
 10
84.0704976303
 20
-15.822029514
 30
0.0
 11
84.0704976303
 21
-17.822029514
 31
0.0
  0
LINE
  5
79
100
AcDbEntity
  8
LAYER8
 62
         3
100
AcDbLine
 10
73.2314103338
 20
-15.822029514
 30
0.0
 11
73.2314103338
 21
-17.822029514
 31
0.0
  0
LINE
  5
7A
100
AcDbEntity
  8
LAYER8
 62
         3
100
AcDbLine
 10
71.8171967714
 20
-15.822029514
 30
0.0
 11
71.8171967714
 21
-17.822029514
 31
0.0
  0
LINE
  5
7B
100
AcDbEntity
  8
LAYER8
 62
         3
100
AcDbLine
 10
71.3002742669
 20
-15.822029514
 30
0.0
 11
71.3002742669
 21
-17.822029514
 31
0.0
  0
LINE
  5
7C
100
AcDbEntity
  8
LAYER8
 62
         3
100
AcDbLine
 10
70.0704976303
 20
-15.822029514
 30
0.0
 11
70.0704976303
 21
-17.822029514
 31
0.0
  0
LINE
  5
7D
100
AcDbEntity
  8
LAYER8
 62
         3
100
AcDbLine
 10
70.0704976303
 20
-14.8940147501
 30
0.0
 11
84.0704976303
 21
-14.8940147501
 31
0.0
  0
LINE
  5
7E
100
AcDbEntity
  8
LAYER8
 62
         3
100
AcDbLine
 10
84.0704976303
 20
-14.8940147501
 30
0.0
 11
84.0704976303
 21
-11.8940147501
 31
0.0
  0
LINE
  5
7F
100
AcDbEntity
  8
LAYER8
 62
         3
100
AcDbLine
 10
70.0704976303
 20
-11.8940147501
 30
0.0
 11
70.0704976303
 21
-14.8940147501
 31
0.0
  0
LINE
  5
80
100
AcDbEntity
  8
LAYER8
 62
         3
100
AcDbLine
 10
80.8204976303
 20
-2.8940147501
 30
0.0
 11
80.8204976303
 21
-14.8940147501
 31
0.0
  0
LINE
  5
81
100
AcDbEntity
  8
LAYER8
 62
         3
100
AcDbLine
 10
73.3204976303
 20
-2.8940147501
 30
0.0
 11
73.3204976303
 21
-14.8940147501
 31
0.0
  0
LINE
  5
82
100
AcDbEntity
  8
LAYER8
 62
         3
100
AcDbLine
 10
73.3204976303
 20
-2.8940147501
 30
0.0
 11
80.8204976303
 21
-2.8940147501
 31
0.0
  0
LINE
  5
83
100
AcDbEntity
  8
LAYER8
 62
         3
100
AcDbLine
 10
84.0704976303
 20
-11.8940147501
 30
0.0
 11
80.8204976303
 21
-11.8940147501
 31
0.0
  0
LINE
  5
84
100
AcDbEntity
  8
LAYER8
 62
         3
100
AcDbLine
 10
73.3204976303
 20
-11.8940147501
 30
0.0
 11
70.0704976303
 21
-11.8940147501
 31
0.0
  0
LINE
  5
85
100
AcDbEntity
  8
LAYER8
 62
         3
100
AcDbLine
 10
70.0704976303
 20
-15.822029514
 30
0.0
 11
84.0704976303
 21
-15.822029514
 31
0.0
  0
LINE
  5
86
100
AcDbEntity
  8
LAYER8
 62
         3
100
AcDbLine
 10
84.0704976303
 20
-15.822029514
 30
0.0
 11
84.0704976303
 21
-17.822029514
 31
0.0
  0
LINE
  5
87
100
AcDbEntity
  8
LAYER8
 62
         3
100
AcDbLine
 10
73.2314103338
 20
-15.822029514
 30
0.0
 11
73.2314103338
 21
-17.822029514
 31
0.0
  0
LINE
  5
88
100
AcDbEntity
  8
LAYER8
 62
         3
100
AcDbLine
 10
71.8171967714
 20
-15.822029514
 30
0.0
 11
71.8171967714
 21
-17.822029514
 31
0.0
  0
LINE
  5
89
100
AcDbEntity
  8
LAYER8
 62
         3
100
AcDbLine
 10
71.3002742669
 20
-15.822029514
 30
0.0
 11
71.3002742669
 21
-17.822029514
 31
0.0
  0
LINE
  5
8A
100
AcDbEntity
  8
LAYER8
 62
         3
100
AcDbLine
 10
70.0704976303
 20
-15.822029514
 30
0.0
 11
70.0704976303
 21
-17.822029514
 31
0.0
  0
LINE
  5
8B
100
AcDbEntity
  8
LAYER8
 62
         3
100
AcDbLine
 10
70.0704976303
 20
-17.822029514
 30
0.0
 11
84.0704976303
 21
-17.822029514
 31
0.0
  0
LINE
  5
8C
100
AcDbEntity
  8
LAYER8
 62
         3
100
AcDbLine
 10
74.6204976303
 20
-2.8940147501
 30
0.0
 11
74.6204976303
 21
6.7059852499
 31
0.0
  0
LINE
  5
8D
100
AcDbEntity
  8
LAYER8
 62
         3
100
AcDbLine
 10
73.5204976303
 20
6.7059852499
 30
0.0
 11
73.5204976303
 21
-2.8940147501
 31
0.0
  0
LINE
  5
8E
100
AcDbEntity
  8
LAYER8
 62
         3
100
AcDbLine
 10
69.0204976303
 20
4.6059852499
 30
0.0
 11
69.0204976303
 21
-4.3940147501
 31
0.0
  0
LINE
  5
8F
100
AcDbEntity
  8
LAYER8
 62
         3
100
AcDbLine
 10
74.8204976303
 20
8.1059852499
 30
0.0
 11
74.8204976303
 21
-2.8940147501
 31
0.0
  0
LINE
  5
90
100
AcDbEntity
  8
LAYER8
 62
         3
100
AcDbLine
 10
79.3204976303
 20
8.1059852499
 30
0.0
 11
79.3204976303
 21
-2.8940147501
 31
0.0
  0
LINE
  5
91
100
AcDbEntity
  8
LAYER0
 62
         3
100
AcDbLine
 10
90.7704976303
 20
-19.222029514
 30
0.0
 11
90.7704976303
 21
-27.422029514
 31
0.0
  0
LINE
  5
92
100
AcDbEntity
  8
LAYER8
 62
         3
100
AcDbLine
 10
70.0704976303
 20
-17.822029514
 30
0.0
 11
84.0704976303
 21
-17.822029514
 31
0.0
  0
LINE
  5
93
100
AcDbEntity
  8
LAYER8
 62
         3
100
AcDbLine
 10
70.0704976303
 20
-15.822029514
 30
0.0
 11
84.0704976303
 21
-15.822029514
 31
0.0
  0
LINE
  5
94
100
AcDbEntity
  8
LAYER8
 62
         3
100
AcDbLine
 10
84.0704976303
 20
-15.822029514
 30
0.0
 11
84.0704976303
 21
-17.822029514
 31
0.0
  0
LINE
  5
95
100
AcDbEntity
  8
LAYER8
 62
         3
100
AcDbLine
 10
73.2314103338
 20
-15.822029514
 30
0.0
 11
73.2314103338
 21
-17.822029514
 31
0.0
  0
LINE
  5
96
100
AcDbEntity
  8
LAYER8
 62
         3
100
AcDbLine
 10
71.8171967714
 20
-15.822029514
 30
0.0
 11
71.8171967714
 21
-17.822029514
 31
0.0
  0
LINE
  5
97
100
AcDbEntity
  8
LAYER8
 62
         3
100
AcDbLine
 10
71.3002742669
 20
-15.822029514
 30
0.0
 11
71.3002742669
 21
-17.822029514
 31
0.0
  0
LINE
  5
98
100
AcDbEntity
  8
LAYER6
 62
         4
100
AcDbLine
 10
86.6704976303
 20
-17.322029514
 30
0.0
 11
84.0704976303
 21
-17.322029514
 31
0.0
  0
ARC
  5
99
100
AcDbEntity
  8
LAYER6
 62
         4
100
AcDbCircle
 10
86.6704976303
 20
-17.822029514
 30
0.0
 40
0.5
210
0.0
220
-0.0
230
1.0
100
AcDbArc
 50
0.0
 51
90.0000015352
  0
ARC
  5
9A
100
AcDbEntity
  8
LAYER6
 62
         4
100
AcDbCircle
 10
84.9704976303
 20
-16.3327437997
 30
0.0
 40
4.5892857143
210
0.0
220
0.0
230
1.0
100
AcDbArc
 50
224.0225640763
 51
315.9774328532
  0
LINE
  5
9B
100
AcDbEntity
  8
LAYER8
 62
         3
100
AcDbLine
 10
85.1204976303
 20
-4.3940147501
 30
0.0
 11
80.8204976303
 21
-4.3940147501
 31
0.0
  0
LINE
  5
9C
100
AcDbEntity
  8
LAYER8
 62
         3
100
AcDbLine
 10
69.0204976303
 20
-4.3940147501
 30
0.0
 11
73.3204976303
 21
-4.3940147501
 31
0.0
  0
LINE
  5
9D
100
AcDbEntity
  8
LAYER8
 62
         3
100
AcDbLine
 10
78.3704976303
 20
-31.6131983386
 30
0.0
 11
78.3704976303
 21
-19.222029514
 31
0.0
  0
LINE
  5
9E
100
AcDbEntity
  8
LAYER8
 62
         3
100
AcDbLine
 10
75.7704976303
 20
-19.222029514
 30
0.0
 11
75.7704976303
 21
-31.6131983386
 31
0.0
  0
ARC
  5
9F
100
AcDbEntity
  8
LAYER8
 62
         3
100
AcDbCircle
 10
77.0704976303
 20
-31.6131983386
 30
0.0
 40
1.3
210
0.0
220
-0.0
230
1.0
100
AcDbArc
 50
179.9999969295
 51
0.0
  0
ARC
  5
A0
100
AcDbEntity
  8
LAYER8
 62
         3
100
AcDbCircle
 10
77.0704976303
 20
-19.8940147501
 30
0.0
 40
2.5
210
0.0
220
0.0
230
1.0
100
AcDbArc
 50
187.5392795923
 51
238.6677464327
  0
ARC
  5
A1
100
AcDbEntity
  8
LAYER8
 62
         3
100
AcDbCircle
 10
77.0704976303
 20
-19.8940147501
 30
0.0
 40
2.5
210
-0.0
220
0.0
230
1.0
100
AcDbArc
 50
301.3322504968
 51
0.0
  0
LINE
  5
A2
100
AcDbEntity
  8
LAYER8
 62
         3
100
AcDbLine
 10
74.5704976303
 20
-14.8940147501
 30
0.0
 11
74.5704976303
 21
-15.822029514
 31
0.0
  0
LINE
  5
A3
100
AcDbEntity
  8
LAYER8
 62
         3
100
AcDbLine
 10
79.5704976303
 20
-19.8940147501
 30
0.0
 11
79.5704976303
 21
-19.222029514
 31
0.0
  0
LINE
  5
A4
100
AcDbEntity
  8
LAYER8
 62
         3
100
AcDbLine
 10
79.5704976303
 20
-15.822029514
 30
0.0
 11
79.5704976303
 21
-14.8940147501
 31
0.0
  0
ARC
  5
A5
100
AcDbEntity
  8
LAYER8
 62
         3
100
AcDbCircle
 10
77.0704976303
 20
-18.8940147501
 30
0.0
 40
1.5
210
0.0
220
0.0
230
1.0
100
AcDbArc
 50
330.0735646229
 51
347.3686898741
  0
ARC
  5
A6
100
AcDbEntity
  8
LAYER8
 62
         3
100
AcDbCircle
 10
77.0704976303
 20
-18.8940147501
 30
0.0
 40
1.5
210
0.0
220
0.0
230
1.0
100
AcDbArc
 50
192.6313070554
 51
209.9264323066
  0
LINE
  5
A7
100
AcDbEntity
  8
LAYER8
 62
         3
100
AcDbLine
 10
70.0704976303
 20
-15.822029514
 30
0.0
 11
70.0704976303
 21
-17.822029514
 31
0.0
  0
LINE
  5
A8
100
AcDbEntity
  8
LAYER8
 62
         3
100
AcDbLine
 10
70.0704976303
 20
-17.822029514
 30
0.0
 11
84.0704976303
 21
-17.822029514
 31
0.0
  0
LINE
  5
A9
100
AcDbEntity
  8
LAYER8
 62
         3
100
AcDbLine
 10
70.0704976303
 20
-15.822029514
 30
0.0
 11
84.0704976303
 21
-15.822029514
 31
0.0
  0
LINE
  5
AA
100
AcDbEntity
  8
LAYER3
 62
         4
100
AcDbLine
 10
64.3704976303
 20
-23.222029514
 30
0.0
 11
63.3704976303
 21
-23.222029514
 31
0.0
  0
LINE
  5
AB
100
AcDbEntity
  8
LAYER3
 62
         4
100
AcDbLine
 10
63.3704976303
 20
-20.222029514
 30
0.0
 11
63.3704976303
 21
-23.222029514
 31
0.0
  0
LINE
  5
AC
100
AcDbEntity
  8
LAYER3
 62
         4
100
AcDbLine
 10
74.8704976303
 20
-20.222029514
 30
0.0
 11
68.8704976303
 21
-20.222029514
 31
0.0
  0
LINE
  5
AD
100
AcDbEntity
  8
LAYER3
 62
         4
100
AcDbLine
 10
64.3704976303
 20
-23.222029514
 30
0.0
 11
63.3704976303
 21
-23.222029514
 31
0.0
  0
LINE
  5
AE
100
AcDbEntity
  8
LAYER3
 62
         4
100
AcDbLine
 10
63.3704976303
 20
-21.822029514
 30
0.0
 11
63.3704976303
 21
-23.222029514
 31
0.0
  0
LINE
  5
AF
100
AcDbEntity
  8
LAYER3
 62
         4
100
AcDbLine
 10
74.8704976303
 20
-19.222029514
 30
0.0
 11
74.8704976303
 21
-20.222029514
 31
0.0
  0
LINE
  5
B0
100
AcDbEntity
  8
LAYER0
 62
         3
100
AcDbLine
 10
90.7704976303
 20
-23.222029514
 30
0.0
 11
89.3704976303
 21
-23.222029514
 31
0.0
  0
LINE
  5
B1
100
AcDbEntity
  8
LAYER0
 62
         3
100
AcDbLine
 10
89.3704976303
 20
-24.322029514
 30
0.0
 11
89.3704976303
 21
-19.222029514
 31
0.0
  0
LINE
  5
B2
100
AcDbEntity
  8
LAYER0
 62
         3
100
AcDbLine
 10
83.0584231448
 20
-17.822029514
 30
0.0
 11
63.3704976303
 21
-17.822029514
 31
0.0
  0
ARC
  5
B3
100
AcDbEntity
  8
LAYER0
 62
         3
100
AcDbCircle
 10
89.3704976303
 20
-27.422029514
 30
0.0
 40
1.4
210
-0.0
220
0.0
230
1.0
100
AcDbArc
 50
269.9999984648
 51
0.0
  0
ARC
  5
B4
100
AcDbEntity
  8
LAYER0
 62
         3
100
AcDbCircle
 10
64.7704976303
 20
-27.422029514
 30
0.0
 40
1.4
210
0.0
220
0.0
230
1.0
100
AcDbArc
 50
179.9999969295
 51
269.9999984648
  0
LINE
  5
B5
100
AcDbEntity
  8
LAYER0
 62
         3
100
AcDbLine
 10
89.3704976303
 20
-24.322029514
 30
0.0
 11
90.7704976303
 21
-24.322029514
 31
0.0
  0
LINE
  5
B6
100
AcDbEntity
  8
LAYER0
 62
         3
100
AcDbLine
 10
64.7704976303
 20
-24.322029514
 30
0.0
 11
63.3704976303
 21
-24.322029514
 31
0.0
  0
LINE
  5
B7
100
AcDbEntity
  8
LAYER0
 62
         3
100
AcDbLine
 10
64.7704976303
 20
-24.322029514
 30
0.0
 11
64.7704976303
 21
-23.222029514
 31
0.0
  0
LINE
  5
B8
100
AcDbEntity
  8
LAYER0
 62
         3
100
AcDbLine
 10
89.3704976303
 20
-17.822029514
 30
0.0
 11
64.7704976303
 21
-17.822029514
 31
0.0
  0
LINE
  5
B9
100
AcDbEntity
  8
LAYER0
 62
         3
100
AcDbLine
 10
63.3704976303
 20
-17.822029514
 30
0.0
 11
63.3704976303
 21
-21.822029514
 31
0.0
  0
LINE
  5
BA
100
AcDbEntity
  8
LAYER0
 62
         3
100
AcDbLine
 10
89.3704976303
 20
-19.222029514
 30
0.0
 11
63.3704976303
 21
-19.222029514
 31
0.0
  0
ARC
  5
BB
100
AcDbEntity
  8
LAYER0
 62
         3
100
AcDbCircle
 10
89.3704976303
 20
-19.222029514
 30
0.0
 40
1.4
210
0.0
220
-0.0
230
1.0
100
AcDbArc
 50
0.0
 51
90.0000015352
  0
LINE
  5
BC
100
AcDbEntity
  8
LAYER0
 62
         3
100
AcDbLine
 10
68.8704976303
 20
-19.222029514
 30
0.0
 11
68.8704976303
 21
-21.722029514
 31
0.0
  0
LINE
  5
BD
100
AcDbEntity
  8
LAYER0
 62
         3
100
AcDbLine
 10
64.7704976303
 20
-23.222029514
 30
0.0
 11
67.3704976303
 21
-23.222029514
 31
0.0
  0
ARC
  5
BE
100
AcDbEntity
  8
LAYER0
 62
         3
100
AcDbCircle
 10
64.7704976303
 20
-21.822029514
 30
0.0
 40
1.4
210
0.0
220
0.0
230
1.0
100
AcDbArc
 50
179.9999969295
 51
269.9999984648
  0
LINE
  5
BF
100
AcDbEntity
  8
LAYER0
 62
         3
100
AcDbLine
 10
67.3704976303
 20
-23.222029514
 30
0.0
 11
68.8704976303
 21
-21.722029514
 31
0.0
  0
LINE
  5
C0
100
AcDbEntity
  8
LAYER0
 62
         3
100
AcDbLine
 10
64.7704976303
 20
-28.822029514
 30
0.0
 11
75.7704976303
 21
-28.822029514
 31
0.0
  0
LINE
  5
C1
100
AcDbEntity
  8
LAYER0
 62
         3
100
AcDbLine
 10
78.3704976303
 20
-28.822029514
 30
0.0
 11
89.3704976303
 21
-28.822029514
 31
0.0
  0
LINE
  5
C2
100
AcDbEntity
  8
LAYER0
 62
         3
100
AcDbLine
 10
63.3704976303
 20
-19.222029514
 30
0.0
 11
63.3704976303
 21
-27.422029514
 31
0.0
  0
LINE
  5
C3
100
AcDbEntity
  8
LAYER8
 62
         3
100
AcDbLine
 10
80.6204976303
 20
6.7059852499
 30
0.0
 11
79.5204976303
 21
6.7059852499
 31
0.0
  0
LINE
  5
C4
100
AcDbEntity
  8
LAYER8
 62
         3
100
AcDbLine
 10
80.6204976303
 20
4.6059852499
 30
0.0
 11
85.1204976303
 21
4.6059852499
 31
0.0
  0
LINE
  5
C5
100
AcDbEntity
  8
LAYER3
 62
         4
100
AcDbLine
 10
54.8680746704
 20
-4.3940147501
 30
0.0
 11
55.4918097429
 21
-7.3284575523
 31
0.0
  0
LINE
  5
C6
100
AcDbEntity
  8
LAYER3
 62
         4
100
AcDbLine
 10
54.8680746704
 20
-30.3132067392
 30
0.0
 11
55.4918097429
 21
-27.378763937
 31
0.0
  0
LINE
  5
C7
100
AcDbEntity
  8
LAYER3
 62
         4
100
AcDbLine
 10
54.8680746704
 20
-30.3132067392
 30
0.0
 11
54.244339598
 21
-27.378763937
 31
0.0
  0
MTEXT
  5
C8
100
AcDbEntity
  8
LAYER3
100
AcDbMText
 10
51.080415979
 20
-19.7536108194
 30
0.0
 40
2.1473683357
 41
2.5646459961
 71
         1
 72
         1
  1
\W0.8;26
 11
-0.0000000268
 21
1.0
 31
0.0
  0
LINE
  5
CA
100
AcDbEntity
  8
LAYER7
 62
         4
100
AcDbLine
 10
89.2704976303
 20
-19.222029514
 30
0.0
 11
81.3704976303
 21
-19.222029514
 31
0.0
  0
LINE
  5
CB
100
AcDbEntity
  8
LAYER7
 62
         4
100
AcDbLine
 10
89.2704976303
 20
-19.222029514
 30
0.0
 11
89.2704976303
 21
-19.522029514
 31
0.0
  0
LINE
  5
CC
100
AcDbEntity
  8
LAYER7
 62
         4
100
AcDbLine
 10
80.8704976303
 20
-20.922029514
 30
0.0
 11
80.8704976303
 21
-20.022029514
 31
0.0
  0
ARC
  5
CD
100
AcDbEntity
  8
LAYER7
 62
         4
100
AcDbCircle
 10
81.3704976303
 20
-20.022029514
 30
0.0
 40
0.5
210
0.0
220
0.0
230
1.0
100
AcDbArc
 50
90.0000015352
 51
179.9999969295
  0
ARC
  5
CE
100
AcDbEntity
  8
LAYER7
 62
         4
100
AcDbCircle
 10
81.3704976303
 20
-20.022029514
 30
0.0
 40
0.8
210
0.0
220
0.0
230
1.0
100
AcDbArc
 50
90.0000015352
 51
179.9999969295
  0
ARC
  5
CF
100
AcDbEntity
  8
LAYER7
 62
         4
100
AcDbCircle
 10
80.0704976303
 20
-20.922029514
 30
0.0
 40
0.8
210
-0.0
220
0.0
230
1.0
100
AcDbArc
 50
254.6088995586
 51
0.0
  0
ARC
  5
D0
100
AcDbEntity
  8
LAYER7
 62
         4
100
AcDbCircle
 10
80.0704976303
 20
-20.922029514
 30
0.0
 40
0.5
210
-0.0
220
0.0
230
1.0
100
AcDbArc
 50
254.6088995586
 51
0.0
  0
LINE
  5
D1
100
AcDbEntity
  8
LAYER7
 62
         4
100
AcDbLine
 10
89.2704976303
 20
-19.522029514
 30
0.0
 11
81.3704976303
 21
-19.522029514
 31
0.0
  0
LINE
  5
D2
100
AcDbEntity
  8
LAYER7
 62
         4
100
AcDbLine
 10
71.6238534952
 20
-20.3349081407
 30
0.0
 11
70.241333683
 21
-22.1044528057
 31
0.0
  0
LINE
  5
D3
100
AcDbEntity
  8
LAYER7
 62
         4
100
AcDbLine
 10
71.8602567213
 20
-20.5196065833
 30
0.0
 11
70.477736909
 21
-22.2891512483
 31
0.0
  0
ARC
  5
D4
100
AcDbEntity
  8
LAYER7
 62
         4
100
AcDbCircle
 10
71.8602567213
 20
-20.5196065833
 30
0.0
 40
0.3
210
0.0
220
-0.0
230
1.0
100
AcDbArc
 50
81.6089027485
 51
142.0000024223
  0
LINE
  5
D5
100
AcDbEntity
  8
LAYER7
 62
         4
100
AcDbLine
 10
70.241333683
 20
-22.1044528057
 30
0.0
 11
70.477736909
 21
-22.2891512483
 31
0.0
  0
LINE
  5
D6
100
AcDbEntity
  8
LAYER7
 62
         4
100
AcDbLine
 10
71.9040355219
 20
-20.2228180784
 30
0.0
 11
74.7082897541
 21
-20.6364691631
 31
0.0
  0
LINE
  5
D7
100
AcDbEntity
  8
LAYER7
 62
         4
100
AcDbLine
 10
79.1666604757
 20
-21.2941163422
 30
0.0
 11
79.9975329626
 21
-21.4166770221
 31
0.0
  0
LINE
  5
D8
100
AcDbEntity
  8
LAYER7
 62
         4
100
AcDbLine
 10
71.8602567213
 20
-20.5196065833
 30
0.0
 11
74.8332842285
 21
-20.9581531456
 31
0.0
  0
LINE
  5
D9
100
AcDbEntity
  8
LAYER7
 62
         4
100
AcDbLine
 10
78.9541083999
 20
-21.5660093694
 30
0.0
 11
79.953754162
 21
-21.713465527
 31
0.0
  0
LINE
  5
DA
100
AcDbEntity
  8
LAYER7
 62
         4
100
AcDbLine
 10
80.5704976303
 20
-20.922029514
 30
0.0
 11
80.5704976303
 21
-20.022029514
 31
0.0
  0
LINE
  5
DB
100
AcDbEntity
  8
LAYER3
 62
         4
100
AcDbLine
 10
54.8680746704
 20
-4.3940147501
 30
0.0
 11
54.8680746704
 21
-30.3132067392
 31
0.0
  0
LINE
  5
DC
100
AcDbEntity
  8
LAYER3
 62
         4
100
AcDbLine
 10
54.8680746704
 20
-4.3940147501
 30
0.0
 11
54.244339598
 21
-7.3284575523
 31
0.0
  0
LINE
  5
DD
100
AcDbEntity
  8
LAYER8
 62
         3
100
AcDbLine
 10
5.8737984892
 20
-15.8220379147
 30
0.0
 11
5.8737984892
 21
-17.8220379147
 31
0.0
  0
LINE
  5
DE
100
AcDbEntity
  8
LAYER8
 62
         3
100
AcDbLine
 10
6.3907209937
 20
-15.8220379147
 30
0.0
 11
6.3907209937
 21
-17.8220379147
 31
0.0
  0
ARC
  5
DF
100
AcDbEntity
  8
LAYER8
 62
         3
100
AcDbCircle
 10
0.5704976303
 20
-24.3132067392
 30
0.0
 40
6.6
210
0.0
220
0.0
230
1.0
100
AcDbArc
 50
0.0
 51
9.5163247671
  0
ARC
  5
E0
100
AcDbEntity
  8
LAYER8
 62
         3
100
AcDbCircle
 10
0.5704976303
 20
-24.3132067392
 30
0.0
 40
4.0
210
0.0
220
0.0
230
1.0
100
AcDbArc
 50
0.0
 51
15.8304874419
  0
LINE
  5
E1
100
AcDbEntity
  8
LAYER8
 62
         3
100
AcDbLine
 10
40.5704976303
 20
-13.8940231508
 30
0.0
 11
40.5704976303
 21
-3.2449125101
 31
0.0
  0
LINE
  5
E2
100
AcDbEntity
  8
LAYER8
 62
         3
100
AcDbLine
 10
25.5704976303
 20
-14.8940231508
 30
0.0
 11
39.5704976303
 21
-14.8940231508
 31
0.0
  0
LINE
  5
E3
100
AcDbEntity
  8
LAYER8
 62
         3
100
AcDbLine
 10
24.5704976303
 20
-3.2449125101
 30
0.0
 11
24.5704976303
 21
-13.8940231508
 31
0.0
  0
LINE
  5
E4
100
AcDbEntity
  8
LAYER8
 62
         3
100
AcDbLine
 10
37.0704976303
 20
-6.7678866932
 30
0.0
 11
37.0704976303
 21
-7.8940231508
 31
0.0
  0
ARC
  5
E5
100
AcDbEntity
  8
LAYER8
 62
         3
100
AcDbCircle
 10
5.5704976303
 20
-6.7678866932
 30
0.0
 40
0.5
210
0.0
220
0.0
230
1.0
100
AcDbArc
 50
126.0318812223
 51
179.9999969295
  0
ARC
  5
E6
100
AcDbEntity
  8
LAYER8
 62
         3
100
AcDbCircle
 10
8.219608271
 20
-3.2449125101
 30
0.0
 40
0.3508893593
210
0.0
220
-0.0
230
1.0
100
AcDbArc
 50
0.0
 51
156.3429457416
  0
ARC
  5
E7
100
AcDbEntity
  8
LAYER8
 62
         3
100
AcDbCircle
 10
7.5704976303
 20
-13.8940231508
 30
0.0
 40
1.0
210
-0.0
220
0.0
230
1.0
100
AcDbArc
 50
269.9999984648
 51
0.0
  0
LINE
  5
E8
100
AcDbEntity
  8
LAYER8
 62
         3
100
AcDbLine
 10
6.4812928391
 20
-11.8940231508
 30
0.0
 11
6.4812928391
 21
-14.8940231508
 31
0.0
  0
LINE
  5
E9
100
AcDbEntity
  8
LAYER8
 62
         3
100
AcDbLine
 10
4.5704976303
 20
-24.3132067392
 30
0.0
 11
4.5704976303
 21
-26.3132067392
 31
0.0
  0
LINE
  5
EA
100
AcDbEntity
  8
LAYER8
 62
         3
100
AcDbLine
 10
7.1704976303
 20
-24.3132067392
 30
0.0
 11
7.1704976303
 21
-26.3132067392
 31
0.0
  0
LINE
  5
EB
100
AcDbEntity
  8
LAYER8
 62
         3
100
AcDbLine
 10
8.5704976303
 20
-13.8940231508
 30
0.0
 11
8.5704976303
 21
-3.2449125101
 31
0.0
  0
LINE
  5
EC
100
AcDbEntity
  8
LAYER8
 62
         3
100
AcDbLine
 10
5.0704976303
 20
-6.7678866932
 30
0.0
 11
5.0704976303
 21
-7.8940231508
 31
0.0
  0
LINE
  5
ED
100
AcDbEntity
  8
LAYER8
 62
         3
100
AcDbLine
 10
6.0704976303
 20
-7.8940231508
 30
0.0
 11
6.0704976303
 21
-11.8940231508
 31
0.0
  0
ARC
  5
EE
100
AcDbEntity
  8
LAYER8
 62
         3
100
AcDbCircle
 10
32.5704976303
 20
0.1059768492
 30
0.0
 40
8.0
210
0.0
220
0.0
230
1.0
100
AcDbArc
 50
306.0318781519
 51
233.9681187777
  0
CIRCLE
  5
EF
100
AcDbEntity
  8
LAYER8
 62
         3
100
AcDbCircle
 10
32.5704976303
 20
0.1059768492
 30
0.0
 40
4.5
210
0.0
220
0.0
230
1.0
  0
CIRCLE
  5
F0
100
AcDbEntity
  8
LAYER8
 62
         3
100
AcDbCircle
 10
32.5704976303
 20
0.1059768492
 30
0.0
 40
3.0
210
0.0
220
0.0
230
1.0
  0
CIRCLE
  5
F1
100
AcDbEntity
  8
LAYER8
 62
         3
100
AcDbCircle
 10
32.5704976303
 20
0.1059768492
 30
0.0
 40
2.7
210
0.0
220
0.0
230
1.0
  0
CIRCLE
  5
F2
100
AcDbEntity
  8
LAYER8
 62
         3
100
AcDbCircle
 10
32.5704976303
 20
0.1059768492
 30
0.0
 40
6.6
210
0.0
220
0.0
230
1.0
  0
LINE
  5
F3
100
AcDbEntity
  8
LAYER8
 62
         3
100
AcDbLine
 10
74.6204976303
 20
6.7059852499
 30
0.0
 11
73.5204976303
 21
6.7059852499
 31
0.0
  0
LINE
  5
F4
100
AcDbEntity
  8
LAYER8
 62
         3
100
AcDbLine
 10
73.5204976303
 20
4.6059852499
 30
0.0
 11
69.0204976303
 21
4.6059852499
 31
0.0
  0
LINE
  5
F5
100
AcDbEntity
  8
LAYER8
 62
         3
100
AcDbLine
 10
79.3204976303
 20
8.1059852499
 30
0.0
 11
74.8204976303
 21
8.1059852499
 31
0.0
  0
LINE
  5
F6
100
AcDbEntity
  8
LAYER8
 62
         3
100
AcDbLine
 10
33.3704976303
 20
-14.8940231508
 30
0.0
 11
33.3704976303
 21
-15.8220379147
 31
0.0
  0
LINE
  5
F7
100
AcDbEntity
  8
LAYER8
 62
         3
100
AcDbLine
 10
33.3704976303
 20
-17.8220379147
 30
0.0
 11
33.3704976303
 21
-19.2220379147
 31
0.0
  0
LINE
  5
F8
100
AcDbEntity
  8
LAYER8
 62
         3
100
AcDbLine
 10
28.0704976303
 20
-6.7678866932
 30
0.0
 11
28.0704976303
 21
-7.8940231508
 31
0.0
  0
LINE
  5
F9
100
AcDbEntity
  8
LAYER8
 62
         3
100
AcDbLine
 10
38.0704976303
 20
-7.8940231508
 30
0.0
 11
38.0704976303
 21
-11.8940231508
 31
0.0
  0
LINE
  5
FA
100
AcDbEntity
  8
LAYER8
 62
         3
100
AcDbLine
 10
27.0704976303
 20
-11.8940231508
 30
0.0
 11
27.0704976303
 21
-7.8940231508
 31
0.0
  0
LINE
  5
FB
100
AcDbEntity
  8
LAYER8
 62
         3
100
AcDbLine
 10
26.6597024216
 20
-11.8940231508
 30
0.0
 11
38.4812928391
 21
-11.8940231508
 31
0.0
  0
LINE
  5
FC
100
AcDbEntity
  8
LAYER8
 62
         3
100
AcDbLine
 10
27.0704976303
 20
-7.8940231508
 30
0.0
 11
38.0704976303
 21
-7.8940231508
 31
0.0
  0
ARC
  5
FD
100
AcDbEntity
  8
LAYER8
 62
         3
100
AcDbCircle
 10
27.5704976303
 20
-6.7678866932
 30
0.0
 40
0.5
210
0.0
220
0.0
230
1.0
100
AcDbArc
 50
0.0
 51
53.9681218481
  0
ARC
  5
FE
100
AcDbEntity
  8
LAYER8
 62
         3
100
AcDbCircle
 10
37.5704976303
 20
-6.7678866932
 30
0.0
 40
0.5
210
0.0
220
0.0
230
1.0
100
AcDbArc
 50
126.0318812223
 51
179.9999969295
  0
ARC
  5
FF
100
AcDbEntity
  8
LAYER8
 62
         3
100
AcDbCircle
 10
24.9213869897
 20
-3.2449125101
 30
0.0
 40
0.3508893593
210
0.0
220
-0.0
230
1.0
100
AcDbArc
 50
23.6570573288
 51
179.9999969295
  0
ARC
  5
100
100
AcDbEntity
  8
LAYER8
 62
         3
100
AcDbCircle
 10
40.219608271
 20
-3.2449125101
 30
0.0
 40
0.3508893593
210
0.0
220
-0.0
230
1.0
100
AcDbArc
 50
0.0
 51
156.3429457416
  0
ARC
  5
101
100
AcDbEntity
  8
LAYER8
 62
         3
100
AcDbCircle
 10
25.5704976303
 20
-13.8940231508
 30
0.0
 40
1.0
210
0.0
220
0.0
230
1.0
100
AcDbArc
 50
179.9999969295
 51
269.9999984648
  0
ARC
  5
102
100
AcDbEntity
  8
LAYER8
 62
         3
100
AcDbCircle
 10
39.5704976303
 20
-13.8940231508
 30
0.0
 40
1.0
210
-0.0
220
0.0
230
1.0
100
AcDbArc
 50
269.9999984648
 51
0.0
  0
LINE
  5
103
100
AcDbEntity
  8
LAYER8
 62
         3
100
AcDbLine
 10
26.6597024216
 20
-11.8940231508
 30
0.0
 11
26.6597024216
 21
-14.8940231508
 31
0.0
  0
LINE
  5
104
100
AcDbEntity
  8
LAYER8
 62
         3
100
AcDbLine
 10
38.4812928391
 20
-11.8940231508
 30
0.0
 11
38.4812928391
 21
-14.8940231508
 31
0.0
  0
LINE
  5
105
100
AcDbEntity
  8
LAYER8
 62
         3
100
AcDbLine
 10
31.7704976303
 20
-8.3940231508
 30
0.0
 11
33.3704976303
 21
-8.3940231508
 31
0.0
  0
LINE
  5
106
100
AcDbEntity
  8
LAYER8
 62
         3
100
AcDbLine
 10
31.7704976303
 20
-10.8940231508
 30
0.0
 11
33.3704976303
 21
-10.8940231508
 31
0.0
  0
LINE
  5
107
100
AcDbEntity
  8
LAYER8
 62
         3
100
AcDbLine
 10
28.5704976303
 20
-24.3132067392
 30
0.0
 11
28.5704976303
 21
-26.3132067392
 31
0.0
  0
LINE
  5
108
100
AcDbEntity
  8
LAYER8
 62
         3
100
AcDbLine
 10
36.5704976303
 20
-24.3132067392
 30
0.0
 11
36.5704976303
 21
-26.3132067392
 31
0.0
  0
ARC
  5
109
100
AcDbEntity
  8
LAYER8
 62
         3
100
AcDbCircle
 10
32.5704976303
 20
-26.3132067392
 30
0.0
 40
4.0
210
0.0
220
-0.0
230
1.0
100
AcDbArc
 50
179.9999969295
 51
0.0
  0
LINE
  5
10A
100
AcDbEntity
  8
LAYER8
 62
         3
100
AcDbLine
 10
25.9704976303
 20
-24.3132067392
 30
0.0
 11
25.9704976303
 21
-26.3132067392
 31
0.0
  0
LINE
  5
10B
100
AcDbEntity
  8
LAYER8
 62
         3
100
AcDbLine
 10
39.1704976303
 20
-24.3132067392
 30
0.0
 11
39.1704976303
 21
-26.3132067392
 31
0.0
  0
LINE
  5
10C
100
AcDbEntity
  8
LAYER8
 62
         3
100
AcDbLine
 10
5.5704976303
 20
-10.8940231508
 30
0.0
 11
5.5704976303
 21
-11.8940231508
 31
0.0
  0
LINE
  5
10D
100
AcDbEntity
  8
LAYER8
 62
         3
100
AcDbLine
 10
7.5704976303
 20
-15.8220379147
 30
0.0
 11
7.5704976303
 21
-17.8220379147
 31
0.0
  0
LINE
  5
10E
100
AcDbEntity
  8
LAYER8
 62
         3
100
AcDbLine
 10
4.4595849269
 20
-15.8220379147
 30
0.0
 11
4.4595849269
 21
-17.8220379147
 31
0.0
  0
LINE
  5
10F
100
AcDbEntity
  8
LAYER0
 62
         3
100
AcDbLine
 10
45.5704976303
 20
-19.2220379147
 30
0.0
 11
41.5704976303
 21
-19.2220379147
 31
0.0
  0
LINE
  5
110
100
AcDbEntity
  8
LAYER6
 62
         4
100
AcDbLine
 10
14.8704976303
 20
-17.3220379147
 30
0.0
 11
18.2463486592
 21
-17.3220379147
 31
0.0
  0
ARC
  5
111
100
AcDbEntity
  8
LAYER6
 62
         4
100
AcDbCircle
 10
14.8704976303
 20
-17.8220379147
 30
0.0
 40
0.5
210
0.0
220
0.0
230
1.0
100
AcDbArc
 50
90.0000015352
 51
179.9999969295
  0
ARC
  5
112
100
AcDbEntity
  8
LAYER6
 62
         4
100
AcDbCircle
 10
18.2704976303
 20
-17.8220379147
 30
0.0
 40
0.5
210
0.0
220
-0.0
230
1.0
100
AcDbArc
 50
0.0
 51
90.0000015352
  0
ARC
  5
113
100
AcDbEntity
  8
LAYER8
 62
         3
100
AcDbCircle
 10
32.5704976303
 20
-26.3132067392
 30
0.0
 40
6.6
210
-0.0
220
-0.0
230
1.0
100
AcDbArc
 50
179.9999969295
 51
360.0
  0
LINE
  5
114
100
AcDbEntity
  8
LAYER8
 62
         3
100
AcDbLine
 10
27.5704976303
 20
-11.8940231508
 30
0.0
 11
27.5704976303
 21
-10.8940231508
 31
0.0
  0
LINE
  5
115
100
AcDbEntity
  8
LAYER8
 62
         3
100
AcDbLine
 10
27.5704976303
 20
-10.8940231508
 30
0.0
 11
37.5704976303
 21
-10.8940231508
 31
0.0
  0
LINE
  5
116
100
AcDbEntity
  8
LAYER8
 62
         3
100
AcDbLine
 10
37.5704976303
 20
-10.8940231508
 30
0.0
 11
37.5704976303
 21
-11.8940231508
 31
0.0
  0
LINE
  5
117
100
AcDbEntity
  8
LAYER8
 62
         3
100
AcDbLine
 10
33.3704976303
 20
-8.3940231508
 30
0.0
 11
33.3704976303
 21
-10.8940231508
 31
0.0
  0
LINE
  5
118
100
AcDbEntity
  8
LAYER8
 62
         3
100
AcDbLine
 10
31.7704976303
 20
-10.8940231508
 30
0.0
 11
31.7704976303
 21
-8.3940231508
 31
0.0
  0
LINE
  5
119
100
AcDbEntity
  8
LAYER8
 62
         3
100
AcDbLine
 10
25.5704976303
 20
-15.8220379147
 30
0.0
 11
25.5704976303
 21
-17.8220379147
 31
0.0
  0
LINE
  5
11A
100
AcDbEntity
  8
LAYER8
 62
         3
100
AcDbLine
 10
25.5704976303
 20
-17.8220379147
 30
0.0
 11
39.5704976303
 21
-17.8220379147
 31
0.0
  0
LINE
  5
11B
100
AcDbEntity
  8
LAYER8
 62
         3
100
AcDbLine
 10
25.5704976303
 20
-15.8220379147
 30
0.0
 11
39.5704976303
 21
-15.8220379147
 31
0.0
  0
LINE
  5
11C
100
AcDbEntity
  8
LAYER8
 62
         3
100
AcDbLine
 10
39.5704976303
 20
-15.8220379147
 30
0.0
 11
39.5704976303
 21
-17.8220379147
 31
0.0
  0
LINE
  5
11D
100
AcDbEntity
  8
LAYER8
 62
         3
100
AcDbLine
 10
36.4595849269
 20
-15.8220379147
 30
0.0
 11
36.4595849269
 21
-17.8220379147
 31
0.0
  0
LINE
  5
11E
100
AcDbEntity
  8
LAYER8
 62
         3
100
AcDbLine
 10
37.8737984892
 20
-15.8220379147
 30
0.0
 11
37.8737984892
 21
-17.8220379147
 31
0.0
  0
LINE
  5
11F
100
AcDbEntity
  8
LAYER8
 62
         3
100
AcDbLine
 10
38.3907209937
 20
-15.8220379147
 30
0.0
 11
38.3907209937
 21
-17.8220379147
 31
0.0
  0
ARC
  5
120
100
AcDbEntity
  8
LAYER8
 62
         3
100
AcDbCircle
 10
32.5704976303
 20
-24.3132067392
 30
0.0
 40
6.6
210
0.0
220
0.0
230
1.0
100
AcDbArc
 50
170.4836783034
 51
179.9999969295
  0
ARC
  5
121
100
AcDbEntity
  8
LAYER8
 62
         3
100
AcDbCircle
 10
32.5704976303
 20
-24.3132067392
 30
0.0
 40
6.6
210
0.0
220
0.0
230
1.0
100
AcDbArc
 50
0.0
 51
9.5163247671
  0
ARC
  5
122
100
AcDbEntity
  8
LAYER8
 62
         3
100
AcDbCircle
 10
32.5704976303
 20
-24.3132067392
 30
0.0
 40
4.0
210
0.0
220
0.0
230
1.0
100
AcDbArc
 50
0.0
 51
15.8304874419
  0
ARC
  5
123
100
AcDbEntity
  8
LAYER8
 62
         3
100
AcDbCircle
 10
32.5704976303
 20
-24.3132067392
 30
0.0
 40
4.0
210
0.0
220
0.0
230
1.0
100
AcDbArc
 50
164.1695156286
 51
179.9999969295
  0
ARC
  5
124
100
AcDbEntity
  8
LAYER8
 62
         3
100
AcDbCircle
 10
32.5704976303
 20
-24.3132067392
 30
0.0
 40
6.6
210
0.0
220
0.0
230
1.0
100
AcDbArc
 50
57.9740693388
 51
79.5806445086
  0
ARC
  5
125
100
AcDbEntity
  8
LAYER8
 62
         3
100
AcDbCircle
 10
32.5704976303
 20
-24.3132067392
 30
0.0
 40
6.6
210
0.0
220
0.0
230
1.0
100
AcDbArc
 50
100.4193585619
 51
122.0259337317
  0
LINE
  5
126
100
AcDbEntity
  8
LAYER8
 62
         3
100
AcDbLine
 10
31.7704976303
 20
-19.2220379147
 30
0.0
 11
31.7704976303
 21
-17.8220379147
 31
0.0
  0
LINE
  5
127
100
AcDbEntity
  8
LAYER8
 62
         3
100
AcDbLine
 10
31.7704976303
 20
-15.8220379147
 30
0.0
 11
31.7704976303
 21
-14.8940231508
 31
0.0
  0
LINE
  5
128
100
AcDbEntity
  8
LAYER8
 62
         3
100
AcDbLine
 10
-6.0295023697
 20
44.7279620853
 30
0.0
 11
-6.0295023697
 21
43.6279620853
 31
0.0
  0
ARC
  5
129
100
AcDbEntity
  8
LAYER8
 62
         3
100
AcDbCircle
 10
0.5704976303
 20
47.1779620853
 30
0.0
 40
7.0
210
0.0
220
0.0
230
1.0
100
AcDbArc
 50
212.3923629679
 51
229.9947968975
  0
LINE
  5
12A
100
AcDbEntity
  8
LAYER8
 62
         3
100
AcDbLine
 10
-38.7295023697
 20
43.4279620853
 30
0.0
 11
-38.7295023697
 21
50.9279620853
 31
0.0
  0
LINE
  5
12B
100
AcDbEntity
  8
LAYER8
 62
         3
100
AcDbLine
 10
-40.8187071609
 20
43.4279620853
 30
0.0
 11
-38.7295023697
 21
43.4279620853
 31
0.0
  0
LINE
  5
12C
100
AcDbEntity
  8
LAYER8
 62
         3
100
AcDbLine
 10
-38.7295023697
 20
50.9279620853
 30
0.0
 11
-40.8187071609
 21
50.9279620853
 31
0.0
  0
LINE
  5
12D
100
AcDbEntity
  8
LAYER8
 62
         3
100
AcDbLine
 10
-40.1295023697
 20
49.6279620853
 30
0.0
 11
-40.1295023697
 21
50.7279620853
 31
0.0
  0
LINE
  5
12E
100
AcDbEntity
  8
LAYER8
 62
         3
100
AcDbLine
 10
-42.2295023697
 20
55.2279620853
 30
0.0
 11
-42.2295023697
 21
50.7279620853
 31
0.0
  0
LINE
  5
12F
100
AcDbEntity
  8
LAYER8
 62
         3
100
AcDbLine
 10
-40.1295023697
 20
43.6279620853
 30
0.0
 11
-40.1295023697
 21
44.7279620853
 31
0.0
  0
LINE
  5
130
100
AcDbEntity
  8
LAYER3
 62
         4
100
AcDbLine
 10
39.5704976303
 20
-20.2220379147
 30
0.0
 11
40.0704976303
 21
-20.2220379147
 31
0.0
  0
ARC
  5
131
100
AcDbEntity
  8
LAYER3
 62
         4
100
AcDbCircle
 10
40.0704976303
 20
-20.7220379147
 30
0.0
 40
0.5
210
0.0
220
0.0
230
1.0
100
AcDbArc
 50
179.9999969295
 51
269.9999984648
  0
LINE
  5
132
100
AcDbEntity
  8
LAYER3
 62
         4
100
AcDbLine
 10
40.0704976303
 20
-19.2220379147
 30
0.0
 11
40.0704976303
 21
-20.2220379147
 31
0.0
  0
LINE
  5
133
100
AcDbEntity
  8
LAYER3
 62
         4
100
AcDbLine
 10
40.0704976303
 20
-21.2220379147
 30
0.0
 11
40.0704976303
 21
-22.7220379147
 31
0.0
  0
LINE
  5
134
100
AcDbEntity
  8
LAYER3
 62
         4
100
AcDbLine
 10
39.5704976303
 20
-19.2220379147
 30
0.0
 11
39.5704976303
 21
-20.7220379147
 31
0.0
  0
ARC
  5
135
100
AcDbEntity
  8
LAYER3
 62
         4
100
AcDbCircle
 10
39.5704976303
 20
-22.7220379147
 30
0.0
 40
0.5
210
-0.0
220
0.0
230
1.0
100
AcDbArc
 50
269.9999984648
 51
0.0
  0
LINE
  5
136
100
AcDbEntity
  8
LAYER0
 62
         3
100
AcDbLine
 10
37.5704976303
 20
-19.2220379147
 30
0.0
 11
37.5704976303
 21
-17.8220379147
 31
0.0
  0
LINE
  5
137
100
AcDbEntity
  8
LAYER0
 62
         3
100
AcDbLine
 10
45.5704976303
 20
-17.8220379147
 30
0.0
 11
35.5584231709
 21
-17.8220379147
 31
0.0
  0
LINE
  5
138
100
AcDbEntity
  8
LAYER0
 62
         3
100
AcDbLine
 10
29.5584231187
 20
-17.8220379147
 30
0.0
 11
3.5584231709
 21
-17.8220379147
 31
0.0
  0
LINE
  5
139
100
AcDbEntity
  8
LAYER0
 62
         3
100
AcDbLine
 10
45.5704976303
 20
-17.8220379147
 30
0.0
 11
45.5704976303
 21
-21.8220379147
 31
0.0
  0
LINE
  5
13A
100
AcDbEntity
  8
LAYER0
 62
         3
100
AcDbLine
 10
4.0704976303
 20
-19.2220379147
 30
0.0
 11
4.0704976303
 21
-17.8220379147
 31
0.0
  0
LINE
  5
13B
100
AcDbEntity
  8
LAYER0
 62
         3
100
AcDbLine
 10
29.0704976303
 20
-19.2220379147
 30
0.0
 11
29.0704976303
 21
-17.8220379147
 31
0.0
  0
LINE
  5
13C
100
AcDbEntity
  8
LAYER0
 62
         3
100
AcDbLine
 10
36.0704976303
 20
-17.8220379147
 30
0.0
 11
36.0704976303
 21
-19.2220379147
 31
0.0
  0
LINE
  5
13D
100
AcDbEntity
  8
LAYER0
 62
         3
100
AcDbLine
 10
40.1704976303
 20
-19.2220379147
 30
0.0
 11
40.1704976303
 21
-23.2220379147
 31
0.0
  0
LINE
  5
13E
100
AcDbEntity
  8
LAYER0
 62
         3
100
AcDbLine
 10
41.5704976303
 20
-23.2220379147
 30
0.0
 11
41.5704976303
 21
-19.2220379147
 31
0.0
  0
ARC
  5
13F
100
AcDbEntity
  8
LAYER0
 62
         3
100
AcDbCircle
 10
41.5704976303
 20
-19.2220379147
 30
0.0
 40
1.4
210
0.0
220
0.0
230
1.0
100
AcDbArc
 50
90.0000015352
 51
179.9999969295
  0
ARC
  5
140
100
AcDbEntity
  8
LAYER0
 62
         3
100
AcDbCircle
 10
44.1704976303
 20
-21.8220379147
 30
0.0
 40
1.4
210
-0.0
220
0.0
230
1.0
100
AcDbArc
 50
269.9999984648
 51
0.0
  0
LINE
  5
141
100
AcDbEntity
  8
LAYER0
 62
         3
100
AcDbLine
 10
-42.2295023697
 20
39.4779620853
 30
0.0
 11
-41.7295023697
 21
38.9779620853
 31
0.0
  0
LINE
  5
142
100
AcDbEntity
  8
LAYER0
 62
         3
100
AcDbLine
 10
-4.4295023697
 20
38.9779620853
 30
0.0
 11
-3.9295023697
 21
39.4779620853
 31
0.0
  0
LINE
  5
143
100
AcDbEntity
  8
LAYER0
 62
         3
100
AcDbLine
 10
-18.2295023697
 20
33.4779620853
 30
0.0
 11
-18.2295023697
 21
60.8779620853
 31
0.0
  0
LINE
  5
144
100
AcDbEntity
  8
LAYER0
 62
         3
100
AcDbLine
 10
-18.2295023697
 20
33.4779620853
 30
0.0
 11
-39.1295023697
 21
33.4779620853
 31
0.0
  0
LINE
  5
145
100
AcDbEntity
  8
LAYER0
 62
         3
100
AcDbLine
 10
-39.1295023697
 20
33.4779620853
 30
0.0
 11
-39.1295023697
 21
38.9779620853
 31
0.0
  0
LINE
  5
146
100
AcDbEntity
  8
LAYER0
 62
         3
100
AcDbLine
 10
-41.7295023697
 20
38.9779620853
 30
0.0
 11
-37.7295023697
 21
38.9779620853
 31
0.0
  0
LINE
  5
147
100
AcDbEntity
  8
LAYER0
 62
         3
100
AcDbLine
 10
-37.7295023697
 20
34.8779620853
 30
0.0
 11
-37.7295023697
 21
33.4779620853
 31
0.0
  0
LINE
  5
148
100
AcDbEntity
  8
LAYER0
 62
         3
100
AcDbLine
 10
-37.7295023697
 20
34.8779620853
 30
0.0
 11
-39.1295023697
 21
34.8779620853
 31
0.0
  0
LINE
  5
149
100
AcDbEntity
  8
LAYER0
 62
         3
100
AcDbLine
 10
-7.0295023697
 20
33.4779620853
 30
0.0
 11
-15.9295023697
 21
33.4779620853
 31
0.0
  0
LINE
  5
14A
100
AcDbEntity
  8
LAYER0
 62
         3
100
AcDbLine
 10
-7.0295023697
 20
33.4779620853
 30
0.0
 11
-7.0295023697
 21
38.9779620853
 31
0.0
  0
LINE
  5
14B
100
AcDbEntity
  8
LAYER0
 62
         3
100
AcDbLine
 10
-8.4295023697
 20
38.9779620853
 30
0.0
 11
-4.4295023697
 21
38.9779620853
 31
0.0
  0
CIRCLE
  5
14C
100
AcDbEntity
  8
LAYER6
 62
         4
100
AcDbCircle
 10
-32.9295023697
 20
52.6779620853
 30
0.0
 40
2.2
210
0.0
220
0.0
230
1.0
  0
CIRCLE
  5
14D
100
AcDbEntity
  8
LAYER6
 62
         4
100
AcDbCircle
 10
-32.9295023697
 20
52.6779620853
 30
0.0
 40
1.05
210
0.0
220
0.0
230
1.0
  0
CIRCLE
  5
14E
100
AcDbEntity
  8
LAYER6
 62
         4
100
AcDbCircle
 10
-32.9295023697
 20
41.6779620853
 30
0.0
 40
2.2
210
0.0
220
0.0
230
1.0
  0
CIRCLE
  5
14F
100
AcDbEntity
  8
LAYER6
 62
         4
100
AcDbCircle
 10
-32.9295023697
 20
41.6779620853
 30
0.0
 40
1.05
210
0.0
220
0.0
230
1.0
  0
ARC
  5
150
100
AcDbEntity
  8
LAYER8
 62
         3
100
AcDbCircle
 10
0.5704976303
 20
47.1779620853
 30
0.0
 40
7.0
210
0.0
220
0.0
230
1.0
100
AcDbArc
 50
130.0052031025
 51
147.6076370321
  0
LINE
  5
151
100
AcDbEntity
  8
LAYER8
 62
         3
100
AcDbLine
 10
-3.9295023697
 20
43.6279620853
 30
0.0
 11
-3.9295023697
 21
39.1279620853
 31
0.0
  0
LINE
  5
152
100
AcDbEntity
  8
LAYER8
 62
         3
100
AcDbLine
 10
-42.2295023697
 20
39.1279620853
 30
0.0
 11
-42.2295023697
 21
43.6279620853
 31
0.0
  0
ARC
  5
153
100
AcDbEntity
  8
LAYER8
 62
         3
100
AcDbCircle
 10
-46.7295023697
 20
47.1779620853
 30
0.0
 40
7.0
210
0.0
220
0.0
230
1.0
100
AcDbArc
 50
310.005200032
 51
327.6076339616
  0
ARC
  5
154
100
AcDbEntity
  8
LAYER8
 62
         3
100
AcDbCircle
 10
-46.7295023697
 20
47.1779620853
 30
0.0
 40
7.0
210
0.0
220
0.0
230
1.0
100
AcDbArc
 50
32.3923660384
 51
49.994799968
  0
LINE
  5
155
100
AcDbEntity
  8
LAYER8
 62
         3
100
AcDbLine
 10
-7.4295023697
 20
43.4279620853
 30
0.0
 11
-7.4295023697
 21
50.9279620853
 31
0.0
  0
LINE
  5
156
100
AcDbEntity
  8
LAYER8
 62
         3
100
AcDbLine
 10
-7.4295023697
 20
43.4279620853
 30
0.0
 11
-5.3402975784
 21
43.4279620853
 31
0.0
  0
LINE
  5
157
100
AcDbEntity
  8
LAYER8
 62
         3
100
AcDbLine
 10
-5.3402975784
 20
50.9279620853
 30
0.0
 11
-7.4295023697
 21
50.9279620853
 31
0.0
  0
LINE
  5
158
100
AcDbEntity
  8
LAYER8
 62
         3
100
AcDbLine
 10
-6.0295023697
 20
50.7279620853
 30
0.0
 11
-6.0295023697
 21
49.6279620853
 31
0.0
  0
LINE
  5
159
100
AcDbEntity
  8
LAYER8
 62
         3
100
AcDbLine
 10
-3.9295023697
 20
50.7279620853
 30
0.0
 11
-3.9295023697
 21
55.2279620853
 31
0.0
  0
LINE
  5
15A
100
AcDbEntity
  8
LAYER3
 62
         4
100
AcDbLine
 10
-6.4295023697
 20
34.4779620853
 30
0.0
 11
-6.9295023697
 21
34.4779620853
 31
0.0
  0
LINE
  5
15B
100
AcDbEntity
  8
LAYER3
 62
         4
100
AcDbLine
 10
-39.7295023697
 20
34.4779620853
 30
0.0
 11
-39.7295023697
 21
34.9779620853
 31
0.0
  0
ARC
  5
15C
100
AcDbEntity
  8
LAYER3
 62
         4
100
AcDbCircle
 10
-39.2295023697
 20
34.9779620853
 30
0.0
 40
0.5
210
0.0
220
0.0
230
1.0
100
AcDbArc
 50
90.0000015352
 51
179.9999969295
  0
LINE
  5
15D
100
AcDbEntity
  8
LAYER3
 62
         4
100
AcDbLine
 10
-39.2295023697
 20
38.9779620853
 30
0.0
 11
-39.2295023697
 21
35.4779620853
 31
0.0
  0
LINE
  5
15E
100
AcDbEntity
  8
LAYER3
 62
         4
100
AcDbLine
 10
-39.2295023697
 20
34.4779620853
 30
0.0
 11
-39.2295023697
 21
33.4779620853
 31
0.0
  0
LINE
  5
15F
100
AcDbEntity
  8
LAYER3
 62
         4
100
AcDbLine
 10
-39.2295023697
 20
34.4779620853
 30
0.0
 11
-39.7295023697
 21
34.4779620853
 31
0.0
  0
LINE
  5
160
100
AcDbEntity
  8
LAYER3
 62
         4
100
AcDbLine
 10
-6.4295023697
 20
34.4779620853
 30
0.0
 11
-6.4295023697
 21
34.9779620853
 31
0.0
  0
LINE
  5
161
100
AcDbEntity
  8
LAYER0
 62
         3
100
AcDbLine
 10
-37.7295023697
 20
35.3779620853
 30
0.0
 11
-37.7295023697
 21
35.8779620853
 31
0.0
  0
LINE
  5
162
100
AcDbEntity
  8
LAYER0
 62
         3
100
AcDbLine
 10
-37.7295023697
 20
36.3779620853
 30
0.0
 11
-37.7295023697
 21
36.8779620853
 31
0.0
  0
LINE
  5
163
100
AcDbEntity
  8
LAYER0
 62
         3
100
AcDbLine
 10
-37.7295023697
 20
37.3779620853
 30
0.0
 11
-37.7295023697
 21
37.8779620853
 31
0.0
  0
LINE
  5
164
100
AcDbEntity
  8
LAYER0
 62
         3
100
AcDbLine
 10
-37.7295023697
 20
38.3779620853
 30
0.0
 11
-37.7295023697
 21
38.8779620853
 31
0.0
  0
LINE
  5
165
100
AcDbEntity
  8
LAYER0
 62
         3
100
AcDbLine
 10
-8.4295023697
 20
35.3779620853
 30
0.0
 11
-8.4295023697
 21
35.8779620853
 31
0.0
  0
LINE
  5
166
100
AcDbEntity
  8
LAYER0
 62
         3
100
AcDbLine
 10
-8.4295023697
 20
36.3779620853
 30
0.0
 11
-8.4295023697
 21
36.8779620853
 31
0.0
  0
LINE
  5
167
100
AcDbEntity
  8
LAYER0
 62
         3
100
AcDbLine
 10
-8.4295023697
 20
37.3779620853
 30
0.0
 11
-8.4295023697
 21
37.8779620853
 31
0.0
  0
LINE
  5
168
100
AcDbEntity
  8
LAYER0
 62
         3
100
AcDbLine
 10
-8.4295023697
 20
38.3779620853
 30
0.0
 11
-8.4295023697
 21
38.8779620853
 31
0.0
  0
LINE
  5
169
100
AcDbEntity
  8
LAYER0
 62
         3
100
AcDbLine
 10
-37.7295023697
 20
34.8779620853
 30
0.0
 11
-18.2295023697
 21
34.8779620853
 31
0.0
  0
LINE
  5
16A
100
AcDbEntity
  8
LAYER0
 62
         3
100
AcDbLine
 10
-8.4295023697
 20
34.8779620853
 30
0.0
 11
-14.5295023697
 21
34.8779620853
 31
0.0
  0
LINE
  5
16B
100
AcDbEntity
  8
LAYER0
 62
         3
100
AcDbLine
 10
-14.5295023697
 20
60.8779620853
 30
0.0
 11
-14.5295023697
 21
33.4779620853
 31
0.0
  0
LINE
  5
16C
100
AcDbEntity
  8
LAYER0
 62
         3
100
AcDbLine
 10
-15.9295023697
 20
60.8779620853
 30
0.0
 11
-15.9295023697
 21
33.4779620853
 31
0.0
  0
LINE
  5
16D
100
AcDbEntity
  8
LAYER0
 62
         3
100
AcDbLine
 10
-14.5295023697
 20
60.8779620853
 30
0.0
 11
-14.5295023697
 21
59.4779620853
 31
0.0
  0
LINE
  5
16E
100
AcDbEntity
  8
LAYER0
 62
         3
100
AcDbLine
 10
-14.5295023697
 20
59.4779620853
 30
0.0
 11
-15.9295023697
 21
59.4779620853
 31
0.0
  0
LINE
  5
16F
100
AcDbEntity
  8
LAYER0
 62
         3
100
AcDbLine
 10
-14.5295023697
 20
33.4779620853
 30
0.0
 11
-14.5295023697
 21
34.8779620853
 31
0.0
  0
LINE
  5
170
100
AcDbEntity
  8
LAYER0
 62
         3
100
AcDbLine
 10
-14.5295023697
 20
34.8779620853
 30
0.0
 11
-15.9295023697
 21
34.8779620853
 31
0.0
  0
LINE
  5
171
100
AcDbEntity
  8
LAYER0
 62
         3
100
AcDbLine
 10
-8.4295023697
 20
33.4779620853
 30
0.0
 11
-8.4295023697
 21
34.8779620853
 31
0.0
  0
LINE
  5
172
100
AcDbEntity
  8
LAYER0
 62
         3
100
AcDbLine
 10
-8.4295023697
 20
34.8779620853
 30
0.0
 11
-7.0295023697
 21
34.8779620853
 31
0.0
  0
LINE
  5
173
100
AcDbEntity
  8
LAYER8
 62
         3
100
AcDbLine
 10
-86.7295023697
 20
43.4279620853
 30
0.0
 11
-84.6402975784
 21
43.4279620853
 31
0.0
  0
LINE
  5
174
100
AcDbEntity
  8
LAYER8
 62
         3
100
AcDbLine
 10
-72.8187071609
 20
43.4279620853
 30
0.0
 11
-70.7295023697
 21
43.4279620853
 31
0.0
  0
LINE
  5
175
100
AcDbEntity
  8
LAYER8
 62
         3
100
AcDbLine
 10
-70.7295023697
 20
50.9279620853
 30
0.0
 11
-72.8187071609
 21
50.9279620853
 31
0.0
  0
LINE
  5
176
100
AcDbEntity
  8
LAYER8
 62
         3
100
AcDbLine
 10
-84.6402975784
 20
50.9279620853
 30
0.0
 11
-86.7295023697
 21
50.9279620853
 31
0.0
  0
LINE
  5
177
100
AcDbEntity
  8
LAYER8
 62
         3
100
AcDbLine
 10
-85.3295023697
 20
49.6279620853
 30
0.0
 11
-72.1295023697
 21
49.6279620853
 31
0.0
  0
LINE
  5
178
100
AcDbEntity
  8
LAYER8
 62
         3
100
AcDbLine
 10
-72.1295023697
 20
49.6279620853
 30
0.0
 11
-72.1295023697
 21
50.7279620853
 31
0.0
  0
LINE
  5
179
100
AcDbEntity
  8
LAYER8
 62
         3
100
AcDbLine
 10
-72.1295023697
 20
50.7279620853
 30
0.0
 11
-85.3295023697
 21
50.7279620853
 31
0.0
  0
LINE
  5
17A
100
AcDbEntity
  8
LAYER8
 62
         3
100
AcDbLine
 10
-85.3295023697
 20
50.7279620853
 30
0.0
 11
-85.3295023697
 21
49.6279620853
 31
0.0
  0
LINE
  5
17B
100
AcDbEntity
  8
LAYER8
 62
         3
100
AcDbLine
 10
-83.2295023697
 20
50.7279620853
 30
0.0
 11
-83.2295023697
 21
55.2279620853
 31
0.0
  0
LINE
  5
17C
100
AcDbEntity
  8
LAYER8
 62
         3
100
AcDbLine
 10
-83.2295023697
 20
55.2279620853
 30
0.0
 11
-74.2295023697
 21
55.2279620853
 31
0.0
  0
LINE
  5
17D
100
AcDbEntity
  8
LAYER8
 62
         3
100
AcDbLine
 10
-74.2295023697
 20
55.2279620853
 30
0.0
 11
-74.2295023697
 21
50.7279620853
 31
0.0
  0
LINE
  5
17E
100
AcDbEntity
  8
LAYER8
 62
         3
100
AcDbLine
 10
-72.1295023697
 20
44.7279620853
 30
0.0
 11
-85.3295023697
 21
44.7279620853
 31
0.0
  0
LINE
  5
17F
100
AcDbEntity
  8
LAYER8
 62
         3
100
AcDbLine
 10
-85.3295023697
 20
44.7279620853
 30
0.0
 11
-85.3295023697
 21
43.6279620853
 31
0.0
  0
LINE
  5
180
100
AcDbEntity
  8
LAYER8
 62
         3
100
AcDbLine
 10
-85.3295023697
 20
43.6279620853
 30
0.0
 11
-72.1295023697
 21
43.6279620853
 31
0.0
  0
LINE
  5
181
100
AcDbEntity
  8
LAYER8
 62
         3
100
AcDbLine
 10
-72.1295023697
 20
43.6279620853
 30
0.0
 11
-72.1295023697
 21
44.7279620853
 31
0.0
  0
LINE
  5
182
100
AcDbEntity
  8
LAYER8
 62
         3
100
AcDbLine
 10
-83.2295023697
 20
43.6279620853
 30
0.0
 11
-83.2295023697
 21
39.1279620853
 31
0.0
  0
LINE
  5
183
100
AcDbEntity
  8
LAYER8
 62
         3
100
AcDbLine
 10
-83.2295023697
 20
39.1279620853
 30
0.0
 11
-74.2295023697
 21
39.1279620853
 31
0.0
  0
LINE
  5
184
100
AcDbEntity
  8
LAYER8
 62
         3
100
AcDbLine
 10
-74.2295023697
 20
39.1279620853
 30
0.0
 11
-74.2295023697
 21
43.6279620853
 31
0.0
  0
LINE
  5
186
100
AcDbEntity
  8
LAYER5
 62
         6
100
AcDbLine
 10
-15.9295023697
 20
57.1779620853
 30
0.0
 11
-15.9295023697
 21
37.1779620853
 31
0.0
  0
LINE
  5
187
100
AcDbEntity
  8
LAYER5
 62
         6
100
AcDbLine
 10
-18.2295023697
 20
37.1779620853
 30
0.0
 11
-15.9295023697
 21
37.1779620853
 31
0.0
  0
LINE
  5
188
100
AcDbEntity
  8
LAYER5
 62
         6
100
AcDbLine
 10
-18.2295023697
 20
57.1779620853
 30
0.0
 11
-15.9295023697
 21
57.1779620853
 31
0.0
  0
ARC
  5
189
100
AcDbEntity
  8
LAYER3
 62
         4
100
AcDbCircle
 10
-6.9295023697
 20
34.9779620853
 30
0.0
 40
0.5
210
0.0
220
-0.0
230
1.0
100
AcDbArc
 50
0.0
 51
90.0000015352
  0
LINE
  5
18A
100
AcDbEntity
  8
LAYER3
 62
         4
100
AcDbLine
 10
-6.9295023697
 20
34.4779620853
 30
0.0
 11
-6.9295023697
 21
33.4779620853
 31
0.0
  0
LINE
  5
18B
100
AcDbEntity
  8
LAYER3
 62
         4
100
AcDbLine
 10
-6.9295023697
 20
38.9779620853
 30
0.0
 11
-6.9295023697
 21
35.4779620853
 31
0.0
  0
LINE
  5
18C
100
AcDbEntity
  8
LAYER3
 62
         4
100
AcDbLine
 10
-6.9295023697
 20
34.4779620853
 30
0.0
 11
-6.9295023697
 21
33.4779620853
 31
0.0
  0
LINE
  5
18D
100
AcDbEntity
  8
LAYER0
 62
         3
100
AcDbLine
 10
-50.2295023697
 20
39.1279620853
 30
0.0
 11
-50.2295023697
 21
34.8779620853
 31
0.0
  0
LINE
  5
18E
100
AcDbEntity
  8
LAYER0
 62
         3
100
AcDbLine
 10
-86.3295023697
 20
33.4779620853
 30
0.0
 11
-86.3295023697
 21
38.9779620853
 31
0.0
  0
LINE
  5
18F
100
AcDbEntity
  8
LAYER0
 62
         3
100
AcDbLine
 10
-87.7295023697
 20
38.9779620853
 30
0.0
 11
-83.7295023697
 21
38.9779620853
 31
0.0
  0
ARC
  5
190
100
AcDbEntity
  8
LAYER0
 62
         3
100
AcDbCircle
 10
-90.3295023697
 20
34.8779620853
 30
0.0
 40
1.4
210
0.0
220
0.0
230
1.0
100
AcDbArc
 50
179.9999969295
 51
269.9999984648
  0
ARC
  5
191
100
AcDbEntity
  8
LAYER0
 62
         3
100
AcDbCircle
 10
-51.6295023697
 20
34.8779620853
 30
0.0
 40
1.4
210
-0.0
220
0.0
230
1.0
100
AcDbArc
 50
269.9999984648
 51
0.0
  0
ARC
  5
192
100
AcDbEntity
  8
LAYER0
 62
         3
100
AcDbCircle
 10
-73.8295023697
 20
34.8779620853
 30
0.0
 40
1.4
210
0.0
220
0.0
230
1.0
100
AcDbArc
 50
179.9999969295
 51
269.9999984648
  0
CIRCLE
  5
193
100
AcDbEntity
  8
LAYER6
 62
         4
100
AcDbCircle
 10
-62.7295023697
 20
55.0779620853
 30
0.0
 40
1.05
210
0.0
220
0.0
230
1.0
  0
CIRCLE
  5
194
100
AcDbEntity
  8
LAYER6
 62
         4
100
AcDbCircle
 10
-62.7295023697
 20
55.0779620853
 30
0.0
 40
2.2
210
0.0
220
0.0
230
1.0
  0
ARC
  5
195
100
AcDbEntity
  8
LAYER8
 62
         3
100
AcDbCircle
 10
-46.7295023697
 20
47.1779620853
 30
0.0
 40
7.0
210
0.0
220
0.0
230
1.0
100
AcDbArc
 50
212.3923629679
 51
229.9947968975
  0
ARC
  5
196
100
AcDbEntity
  8
LAYER8
 62
         3
100
AcDbCircle
 10
-46.7295023697
 20
47.1779620853
 30
0.0
 40
7.0
210
0.0
220
0.0
230
1.0
100
AcDbArc
 50
130.0052031025
 51
147.6076370321
  0
ARC
  5
197
100
AcDbEntity
  8
LAYER8
 62
         3
100
AcDbCircle
 10
-78.7295023697
 20
47.1779620853
 30
0.0
 40
7.0
210
0.0
220
0.0
230
1.0
100
AcDbArc
 50
212.3923629679
 51
229.9947968975
  0
ARC
  5
198
100
AcDbEntity
  8
LAYER8
 62
         3
100
AcDbCircle
 10
-78.7295023697
 20
47.1779620853
 30
0.0
 40
7.0
210
0.0
220
0.0
230
1.0
100
AcDbArc
 50
310.005200032
 51
327.6076339616
  0
ARC
  5
199
100
AcDbEntity
  8
LAYER8
 62
         3
100
AcDbCircle
 10
-78.7295023697
 20
47.1779620853
 30
0.0
 40
7.0
210
0.0
220
0.0
230
1.0
100
AcDbArc
 50
32.3923660384
 51
49.994799968
  0
ARC
  5
19A
100
AcDbEntity
  8
LAYER8
 62
         3
100
AcDbCircle
 10
-78.7295023697
 20
47.1779620853
 30
0.0
 40
7.0
210
0.0
220
0.0
230
1.0
100
AcDbArc
 50
130.0052031025
 51
147.6076370321
  0
LINE
  5
19B
100
AcDbEntity
  8
LAYER8
 62
         3
100
AcDbLine
 10
-86.7295023697
 20
49.4279620853
 30
0.0
 11
-70.7295023697
 21
49.4279620853
 31
0.0
  0
LINE
  5
19C
100
AcDbEntity
  8
LAYER8
 62
         3
100
AcDbLine
 10
-70.7295023697
 20
44.9279620853
 30
0.0
 11
-86.7295023697
 21
44.9279620853
 31
0.0
  0
LINE
  5
19D
100
AcDbEntity
  8
LAYER8
 62
         3
100
AcDbLine
 10
-54.7295023697
 20
43.4279620853
 30
0.0
 11
-54.7295023697
 21
50.9279620853
 31
0.0
  0
LINE
  5
19E
100
AcDbEntity
  8
LAYER8
 62
         3
100
AcDbLine
 10
-54.7295023697
 20
43.4279620853
 30
0.0
 11
-52.6402975784
 21
43.4279620853
 31
0.0
  0
LINE
  5
19F
100
AcDbEntity
  8
LAYER8
 62
         3
100
AcDbLine
 10
-52.6402975784
 20
50.9279620853
 30
0.0
 11
-54.7295023697
 21
50.9279620853
 31
0.0
  0
LINE
  5
1A0
100
AcDbEntity
  8
LAYER8
 62
         3
100
AcDbLine
 10
-53.3295023697
 20
50.7279620853
 30
0.0
 11
-53.3295023697
 21
49.6279620853
 31
0.0
  0
LINE
  5
1A1
100
AcDbEntity
  8
LAYER8
 62
         3
100
AcDbLine
 10
-51.2295023697
 20
50.7279620853
 30
0.0
 11
-51.2295023697
 21
55.2279620853
 31
0.0
  0
LINE
  5
1A2
100
AcDbEntity
  8
LAYER8
 62
         3
100
AcDbLine
 10
-53.3295023697
 20
44.7279620853
 30
0.0
 11
-53.3295023697
 21
43.6279620853
 31
0.0
  0
LINE
  5
1A3
100
AcDbEntity
  8
LAYER8
 62
         3
100
AcDbLine
 10
-51.2295023697
 20
43.6279620853
 30
0.0
 11
-51.2295023697
 21
39.1279620853
 31
0.0
  0
LINE
  5
1A4
100
AcDbEntity
  8
LAYER8
 62
         3
100
AcDbLine
 10
-86.7295023697
 20
43.4279620853
 30
0.0
 11
-86.7295023697
 21
50.9279620853
 31
0.0
  0
LINE
  5
1A5
100
AcDbEntity
  8
LAYER8
 62
         3
100
AcDbLine
 10
-70.7295023697
 20
43.4279620853
 30
0.0
 11
-70.7295023697
 21
50.9279620853
 31
0.0
  0
LINE
  5
1A6
100
AcDbEntity
  8
LAYER8
 62
         3
100
AcDbLine
 10
-42.2295023697
 20
-6.7678866932
 30
0.0
 11
-42.2295023697
 21
-7.8940231508
 31
0.0
  0
LINE
  5
1A7
100
AcDbEntity
  8
LAYER8
 62
         3
100
AcDbLine
 10
-41.2295023697
 20
-7.8940231508
 30
0.0
 11
-41.2295023697
 21
-11.8940231508
 31
0.0
  0
LINE
  5
1A8
100
AcDbEntity
  8
LAYER8
 62
         3
100
AcDbLine
 10
-0.2295023697
 20
-10.8940231508
 30
0.0
 11
-0.2295023697
 21
-8.3940231508
 31
0.0
  0
ARC
  5
1A9
100
AcDbEntity
  8
LAYER8
 62
         3
100
AcDbCircle
 10
0.5704976303
 20
-24.3132067392
 30
0.0
 40
6.6
210
0.0
220
0.0
230
1.0
100
AcDbArc
 50
100.4193585619
 51
122.0259337317
  0
LINE
  5
1AA
100
AcDbEntity
  8
LAYER8
 62
         3
100
AcDbLine
 10
-0.2295023697
 20
-19.2220379147
 30
0.0
 11
-0.2295023697
 21
-17.8220379147
 31
0.0
  0
LINE
  5
1AB
100
AcDbEntity
  8
LAYER8
 62
         3
100
AcDbLine
 10
-0.2295023697
 20
-15.8220379147
 30
0.0
 11
-0.2295023697
 21
-14.8940231508
 31
0.0
  0
LINE
  5
1AC
100
AcDbEntity
  8
LAYER3
 62
         4
100
AcDbLine
 10
-85.7295023697
 20
34.4779620853
 30
0.0
 11
-85.7295023697
 21
34.9779620853
 31
0.0
  0
ARC
  5
1AD
100
AcDbEntity
  8
LAYER3
 62
         4
100
AcDbCircle
 10
-86.2295023697
 20
34.9779620853
 30
0.0
 40
0.5
210
0.0
220
-0.0
230
1.0
100
AcDbArc
 50
0.0
 51
90.0000015352
  0
LINE
  5
1AE
100
AcDbEntity
  8
LAYER3
 62
         4
100
AcDbLine
 10
-86.2295023697
 20
34.4779620853
 30
0.0
 11
-86.2295023697
 21
33.4779620853
 31
0.0
  0
LINE
  5
1AF
100
AcDbEntity
  8
LAYER3
 62
         4
100
AcDbLine
 10
-86.2295023697
 20
38.9779620853
 30
0.0
 11
-86.2295023697
 21
35.4779620853
 31
0.0
  0
LINE
  5
1B0
100
AcDbEntity
  8
LAYER3
 62
         4
100
AcDbLine
 10
-86.2295023697
 20
34.4779620853
 30
0.0
 11
-86.2295023697
 21
33.4779620853
 31
0.0
  0
LINE
  5
1B1
100
AcDbEntity
  8
LAYER3
 62
         4
100
AcDbLine
 10
-85.7295023697
 20
34.4779620853
 30
0.0
 11
-86.2295023697
 21
34.4779620853
 31
0.0
  0
LINE
  5
1B2
100
AcDbEntity
  8
LAYER0
 62
         3
100
AcDbLine
 10
-87.7295023697
 20
33.4779620853
 30
0.0
 11
-87.7295023697
 21
33.8779620853
 31
0.0
  0
LINE
  5
1B3
100
AcDbEntity
  8
LAYER0
 62
         3
100
AcDbLine
 10
-87.7295023697
 20
34.3779620853
 30
0.0
 11
-87.7295023697
 21
34.8779620853
 31
0.0
  0
LINE
  5
1B4
100
AcDbEntity
  8
LAYER0
 62
         3
100
AcDbLine
 10
-83.7295023697
 20
38.9779620853
 30
0.0
 11
-83.2295023697
 21
39.4779620853
 31
0.0
  0
CIRCLE
  5
1B5
100
AcDbEntity
  8
LAYER0
 62
         3
100
AcDbCircle
 10
-70.2295023697
 20
37.3779620853
 30
0.0
 40
1.35
210
0.0
220
0.0
230
1.0
  0
CIRCLE
  5
1B6
100
AcDbEntity
  8
LAYER0
 62
         3
100
AcDbCircle
 10
-55.2295023697
 20
37.3779620853
 30
0.0
 40
1.35
210
0.0
220
0.0
230
1.0
  0
LINE
  5
1B7
100
AcDbEntity
  8
LAYER0
 62
         3
100
AcDbLine
 10
-87.7295023697
 20
35.3779620853
 30
0.0
 11
-87.7295023697
 21
35.8779620853
 31
0.0
  0
LINE
  5
1B8
100
AcDbEntity
  8
LAYER0
 62
         3
100
AcDbLine
 10
-87.7295023697
 20
36.3779620853
 30
0.0
 11
-87.7295023697
 21
36.8779620853
 31
0.0
  0
LINE
  5
1B9
100
AcDbEntity
  8
LAYER0
 62
         3
100
AcDbLine
 10
-87.7295023697
 20
37.3779620853
 30
0.0
 11
-87.7295023697
 21
37.8779620853
 31
0.0
  0
LINE
  5
1BA
100
AcDbEntity
  8
LAYER0
 62
         3
100
AcDbLine
 10
-87.7295023697
 20
38.3779620853
 30
0.0
 11
-87.7295023697
 21
38.8779620853
 31
0.0
  0
LINE
  5
1BB
100
AcDbEntity
  8
LAYER0
 62
         3
100
AcDbLine
 10
-91.7295023697
 20
34.8779620853
 30
0.0
 11
-91.7295023697
 21
60.8779620853
 31
0.0
  0
LINE
  5
1BC
100
AcDbEntity
  8
LAYER0
 62
         3
100
AcDbLine
 10
-75.2295023697
 20
39.1279620853
 30
0.0
 11
-75.2295023697
 21
34.8779620853
 31
0.0
  0
LINE
  5
1BD
100
AcDbEntity
  8
LAYER0
 62
         3
100
AcDbLine
 10
-73.8295023697
 20
33.4779620853
 30
0.0
 11
-51.6295023697
 21
33.4779620853
 31
0.0
  0
LINE
  5
1BE
100
AcDbEntity
  8
LAYER0
 62
         3
100
AcDbLine
 10
-86.3295023697
 20
33.4779620853
 30
0.0
 11
-90.3295023697
 21
33.4779620853
 31
0.0
  0
ARC
  5
1BF
100
AcDbEntity
  8
LAYER8
 62
         3
100
AcDbCircle
 10
0.5704976303
 20
-24.3132067392
 30
0.0
 40
4.0
210
0.0
220
0.0
230
1.0
100
AcDbArc
 50
164.1695156286
 51
179.9999969295
  0
LINE
  5
1C0
100
AcDbEntity
  8
LAYER8
 62
         3
100
AcDbLine
 10
-4.9295023697
 20
-11.8940231508
 30
0.0
 11
-4.9295023697
 21
-7.8940231508
 31
0.0
  0
ARC
  5
1C1
100
AcDbEntity
  8
LAYER8
 62
         3
100
AcDbCircle
 10
-4.4295023697
 20
-6.7678866932
 30
0.0
 40
0.5
210
0.0
220
0.0
230
1.0
100
AcDbArc
 50
0.0
 51
53.9681218481
  0
ARC
  5
1C2
100
AcDbEntity
  8
LAYER8
 62
         3
100
AcDbCircle
 10
-7.0786130103
 20
-3.2449125101
 30
0.0
 40
0.3508893593
210
0.0
220
-0.0
230
1.0
100
AcDbArc
 50
23.6570573288
 51
179.9999969295
  0
ARC
  5
1C3
100
AcDbEntity
  8
LAYER8
 62
         3
100
AcDbCircle
 10
-6.4295023697
 20
-13.8940231508
 30
0.0
 40
1.0
210
0.0
220
0.0
230
1.0
100
AcDbArc
 50
179.9999969295
 51
269.9999984648
  0
LINE
  5
1C4
100
AcDbEntity
  8
LAYER8
 62
         3
100
AcDbLine
 10
-5.3402975784
 20
-11.8940231508
 30
0.0
 11
-5.3402975784
 21
-14.8940231508
 31
0.0
  0
LINE
  5
1C5
100
AcDbEntity
  8
LAYER8
 62
         3
100
AcDbLine
 10
-3.4295023697
 20
-24.3132067392
 30
0.0
 11
-3.4295023697
 21
-26.3132067392
 31
0.0
  0
LINE
  5
1C6
100
AcDbEntity
  8
LAYER8
 62
         3
100
AcDbLine
 10
-6.0295023697
 20
-24.3132067392
 30
0.0
 11
-6.0295023697
 21
-26.3132067392
 31
0.0
  0
LINE
  5
1C7
100
AcDbEntity
  8
LAYER8
 62
         3
100
AcDbLine
 10
-4.4295023697
 20
-11.8940231508
 30
0.0
 11
-4.4295023697
 21
-10.8940231508
 31
0.0
  0
LINE
  5
1C8
100
AcDbEntity
  8
LAYER8
 62
         3
100
AcDbLine
 10
-39.7295023697
 20
-15.8220379147
 30
0.0
 11
-39.7295023697
 21
-17.8220379147
 31
0.0
  0
LINE
  5
1C9
100
AcDbEntity
  8
LAYER8
 62
         3
100
AcDbLine
 10
-42.8404150731
 20
-15.8220379147
 30
0.0
 11
-42.8404150731
 21
-17.8220379147
 31
0.0
  0
LINE
  5
1CA
100
AcDbEntity
  8
LAYER8
 62
         3
100
AcDbLine
 10
-41.4262015108
 20
-15.8220379147
 30
0.0
 11
-41.4262015108
 21
-17.8220379147
 31
0.0
  0
LINE
  5
1CB
100
AcDbEntity
  8
LAYER8
 62
         3
100
AcDbLine
 10
-40.9092790063
 20
-15.8220379147
 30
0.0
 11
-40.9092790063
 21
-17.8220379147
 31
0.0
  0
ARC
  5
1CC
100
AcDbEntity
  8
LAYER8
 62
         3
100
AcDbCircle
 10
-46.7295023697
 20
-24.3132067392
 30
0.0
 40
6.6
210
0.0
220
0.0
230
1.0
100
AcDbArc
 50
0.0
 51
9.5163247671
  0
ARC
  5
1CD
100
AcDbEntity
  8
LAYER8
 62
         3
100
AcDbCircle
 10
-46.7295023697
 20
-24.3132067392
 30
0.0
 40
4.0
210
0.0
220
0.0
230
1.0
100
AcDbArc
 50
0.0
 51
15.8304874419
  0
LINE
  5
1CE
100
AcDbEntity
  8
LAYER8
 62
         3
100
AcDbLine
 10
-7.4295023697
 20
-3.2449125101
 30
0.0
 11
-7.4295023697
 21
-13.8940231508
 31
0.0
  0
LINE
  5
1CF
100
AcDbEntity
  8
LAYER8
 62
         3
100
AcDbLine
 10
-3.9295023697
 20
-6.7678866932
 30
0.0
 11
-3.9295023697
 21
-7.8940231508
 31
0.0
  0
ARC
  5
1D0
100
AcDbEntity
  8
LAYER8
 62
         3
100
AcDbCircle
 10
-41.7295023697
 20
-6.7678866932
 30
0.0
 40
0.5
210
0.0
220
0.0
230
1.0
100
AcDbArc
 50
126.0318812223
 51
179.9999969295
  0
ARC
  5
1D1
100
AcDbEntity
  8
LAYER8
 62
         3
100
AcDbCircle
 10
-39.080391729
 20
-3.2449125101
 30
0.0
 40
0.3508893593
210
0.0
220
-0.0
230
1.0
100
AcDbArc
 50
0.0
 51
156.3429457416
  0
ARC
  5
1D2
100
AcDbEntity
  8
LAYER8
 62
         3
100
AcDbCircle
 10
-39.7295023697
 20
-13.8940231508
 30
0.0
 40
1.0
210
-0.0
220
0.0
230
1.0
100
AcDbArc
 50
269.9999984648
 51
0.0
  0
LINE
  5
1D3
100
AcDbEntity
  8
LAYER8
 62
         3
100
AcDbLine
 10
-40.8187071609
 20
-11.8940231508
 30
0.0
 11
-40.8187071609
 21
-14.8940231508
 31
0.0
  0
LINE
  5
1D4
100
AcDbEntity
  8
LAYER8
 62
         3
100
AcDbLine
 10
-42.7295023697
 20
-24.3132067392
 30
0.0
 11
-42.7295023697
 21
-26.3132067392
 31
0.0
  0
LINE
  5
1D5
100
AcDbEntity
  8
LAYER8
 62
         3
100
AcDbLine
 10
-40.1295023697
 20
-24.3132067392
 30
0.0
 11
-40.1295023697
 21
-26.3132067392
 31
0.0
  0
LINE
  5
1D6
100
AcDbEntity
  8
LAYER8
 62
         3
100
AcDbLine
 10
-41.7295023697
 20
-10.8940231508
 30
0.0
 11
-41.7295023697
 21
-11.8940231508
 31
0.0
  0
LINE
  5
1D7
100
AcDbEntity
  8
LAYER8
 62
         3
100
AcDbLine
 10
-38.7295023697
 20
-13.8940231508
 30
0.0
 11
-38.7295023697
 21
-3.2449125101
 31
0.0
  0
LINE
  5
1D8
100
AcDbEntity
  8
LAYER0
 62
         3
100
AcDbLine
 10
-37.7295023697
 20
-23.2220379147
 30
0.0
 11
-37.7295023697
 21
-17.8220379147
 31
0.0
  0
ARC
  5
1D9
100
AcDbEntity
  8
LAYER0
 62
         3
100
AcDbCircle
 10
-37.7295023697
 20
-19.2220379147
 30
0.0
 40
1.4
210
0.0
220
0.0
230
1.0
100
AcDbArc
 50
90.0000015352
 51
179.9999969295
  0
ARC
  5
1DA
100
AcDbEntity
  8
LAYER0
 62
         3
100
AcDbCircle
 10
-19.6295023697
 20
-21.8220379147
 30
0.0
 40
1.4
210
-0.0
220
0.0
230
1.0
100
AcDbArc
 50
269.9999984648
 51
0.0
  0
ARC
  5
1DB
100
AcDbEntity
  8
LAYER0
 62
         3
100
AcDbCircle
 10
-36.3295023697
 20
-21.8220379147
 30
0.0
 40
1.4
210
0.0
220
0.0
230
1.0
100
AcDbArc
 50
179.9999969295
 51
269.9999984648
  0
LINE
  5
1DC
100
AcDbEntity
  8
LAYER0
 62
         3
100
AcDbLine
 10
-37.7295023697
 20
-19.8220379147
 30
0.0
 11
-39.1295023697
 21
-19.8220379147
 31
0.0
  0
LINE
  5
1DD
100
AcDbEntity
  8
LAYER0
 62
         3
100
AcDbLine
 10
-43.2295023697
 20
-17.8220379147
 30
0.0
 11
-43.2295023697
 21
-19.2220379147
 31
0.0
  0
LINE
  5
1DE
100
AcDbEntity
  8
LAYER0
 62
         3
100
AcDbLine
 10
-41.7295023697
 20
-17.8220379147
 30
0.0
 11
-41.7295023697
 21
-19.2220379147
 31
0.0
  0
LINE
  5
1DF
100
AcDbEntity
  8
LAYER0
 62
         3
100
AcDbLine
 10
-15.9295023697
 20
-28.8220379147
 30
0.0
 11
-15.9295023697
 21
-19.2220379147
 31
0.0
  0
LINE
  5
1E0
100
AcDbEntity
  8
LAYER0
 62
         3
100
AcDbLine
 10
-14.5295023697
 20
-17.8220379147
 30
0.0
 11
-14.5295023697
 21
-28.8220379147
 31
0.0
  0
LINE
  5
1E1
100
AcDbEntity
  8
LAYER0
 62
         3
100
AcDbLine
 10
-14.5295023697
 20
-28.8220379147
 30
0.0
 11
-15.9295023697
 21
-28.8220379147
 31
0.0
  0
ARC
  5
1E2
100
AcDbEntity
  8
LAYER0
 62
         3
100
AcDbCircle
 10
-14.5295023697
 20
-19.2220379147
 30
0.0
 40
1.4
210
0.0
220
0.0
230
1.0
100
AcDbArc
 50
90.0000015352
 51
179.9999969295
  0
LINE
  5
1E3
100
AcDbEntity
  8
LAYER0
 62
         3
100
AcDbLine
 10
-2.9295023697
 20
-17.8220379147
 30
0.0
 11
-2.9295023697
 21
-19.2220379147
 31
0.0
  0
LINE
  5
1E4
100
AcDbEntity
  8
LAYER0
 62
         3
100
AcDbLine
 10
-7.0295023697
 20
-23.2220379147
 30
0.0
 11
-7.0295023697
 21
-19.2220379147
 31
0.0
  0
LINE
  5
1E5
100
AcDbEntity
  8
LAYER0
 62
         3
100
AcDbLine
 10
-8.4295023697
 20
-23.2220379147
 30
0.0
 11
-8.4295023697
 21
-17.8220379147
 31
0.0
  0
ARC
  5
1E6
100
AcDbEntity
  8
LAYER0
 62
         3
100
AcDbCircle
 10
-8.4295023697
 20
-19.2220379147
 30
0.0
 40
1.4
210
0.0
220
-0.0
230
1.0
100
AcDbArc
 50
0.0
 51
90.0000015352
  0
LINE
  5
1E7
100
AcDbEntity
  8
LAYER0
 62
         3
100
AcDbLine
 10
-8.4295023697
 20
-19.8220379147
 30
0.0
 11
-7.0295023697
 21
-19.8220379147
 31
0.0
  0
LINE
  5
1E8
100
AcDbEntity
  8
LAYER0
 62
         3
100
AcDbLine
 10
-13.8295023697
 20
-24.3220379147
 30
0.0
 11
-12.5295023697
 21
-24.3220379147
 31
0.0
  0
LINE
  5
1E9
100
AcDbEntity
  8
LAYER0
 62
         3
100
AcDbLine
 10
-12.5295023697
 20
-24.3220379147
 30
0.0
 11
-8.9481123734
 21
-23.361177184
 31
0.0
  0
ARC
  5
1EA
100
AcDbEntity
  8
LAYER0
 62
         3
100
AcDbCircle
 10
-13.8295023697
 20
-23.6220379147
 30
0.0
 40
0.7
210
0.0
220
0.0
230
1.0
100
AcDbArc
 50
179.9999969295
 51
269.9999984648
  0
ARC
  5
1EB
100
AcDbEntity
  8
LAYER0
 62
         3
100
AcDbCircle
 10
-9.1295023697
 20
-22.6850871979
 30
0.0
 40
0.7
210
-0.0
220
0.0
230
1.0
100
AcDbArc
 50
285.0183593521
 51
0.0
  0
LINE
  5
1EC
100
AcDbEntity
  8
LAYER6
 62
         4
100
AcDbLine
 10
-34.6295023697
 20
-17.3220379147
 30
0.0
 11
-31.2536513408
 21
-17.3220379147
 31
0.0
  0
ARC
  5
1ED
100
AcDbEntity
  8
LAYER6
 62
         4
100
AcDbCircle
 10
-34.6295023697
 20
-17.8220379147
 30
0.0
 40
0.5
210
0.0
220
0.0
230
1.0
100
AcDbArc
 50
90.0000015352
 51
179.9999969295
  0
ARC
  5
1EE
100
AcDbEntity
  8
LAYER6
 62
         4
100
AcDbCircle
 10
-31.2295023697
 20
-17.8220379147
 30
0.0
 40
0.5
210
0.0
220
-0.0
230
1.0
100
AcDbArc
 50
0.0
 51
90.0000015352
  0
LINE
  5
1EF
100
AcDbEntity
  8
LAYER8
 62
         3
100
AcDbLine
 10
-6.4295023697
 20
-15.8220379147
 30
0.0
 11
-6.4295023697
 21
-17.8220379147
 31
0.0
  0
ARC
  5
1F0
100
AcDbEntity
  8
LAYER8
 62
         3
100
AcDbCircle
 10
0.5704976303
 20
-24.3132067392
 30
0.0
 40
6.6
210
0.0
220
0.0
230
1.0
100
AcDbArc
 50
170.4836783034
 51
179.9999969295
  0
ARC
  5
1F1
100
AcDbEntity
  8
LAYER5
 62
         6
100
AcDbCircle
 10
-16.9295023697
 20
-21.8220379147
 30
0.0
 40
1.0
210
0.0
220
-0.0
230
1.0
100
AcDbArc
 50
0.0
 51
90.0000015352
  0
LINE
  5
1F2
100
AcDbEntity
  8
LAYER5
 62
         6
100
AcDbLine
 10
-16.9295023697
 20
-26.8220379147
 30
0.0
 11
-18.3621608631
 21
-26.8220379147
 31
0.0
  0
LINE
  5
1F3
100
AcDbEntity
  8
LAYER5
 62
         6
100
AcDbLine
 10
-18.3447057982
 20
-25.8220379147
 30
0.0
 11
-16.9295023697
 21
-25.8220379147
 31
0.0
  0
LINE
  5
1F4
100
AcDbEntity
  8
LAYER5
 62
         6
100
AcDbLine
 10
-16.9295023697
 20
-25.8220379147
 30
0.0
 11
-16.9295023697
 21
-24.8220379147
 31
0.0
  0
LINE
  5
1F5
100
AcDbEntity
  8
LAYER5
 62
         6
100
AcDbLine
 10
-16.9295023697
 20
-24.8220379147
 30
0.0
 11
-15.9295023697
 21
-24.8220379147
 31
0.0
  0
LINE
  5
1F6
100
AcDbEntity
  8
LAYER5
 62
         6
100
AcDbLine
 10
-15.9295023697
 20
-24.8220379147
 30
0.0
 11
-15.9295023697
 21
-25.8220379147
 31
0.0
  0
ARC
  5
1F7
100
AcDbEntity
  8
LAYER3
 62
         4
100
AcDbCircle
 10
-6.4295023697
 20
-22.7220379147
 30
0.0
 40
0.5
210
0.0
220
0.0
230
1.0
100
AcDbArc
 50
179.9999969295
 51
269.9999984648
  0
LINE
  5
1F8
100
AcDbEntity
  8
LAYER3
 62
         4
100
AcDbLine
 10
-6.4295023697
 20
-19.2220379147
 30
0.0
 11
-6.4295023697
 21
-20.7220379147
 31
0.0
  0
LINE
  5
1F9
100
AcDbEntity
  8
LAYER3
 62
         4
100
AcDbLine
 10
-6.4295023697
 20
-20.2220379147
 30
0.0
 11
-6.9295023697
 21
-20.2220379147
 31
0.0
  0
ARC
  5
1FA
100
AcDbEntity
  8
LAYER3
 62
         4
100
AcDbCircle
 10
-6.9295023697
 20
-20.7220379147
 30
0.0
 40
0.5
210
-0.0
220
0.0
230
1.0
100
AcDbArc
 50
269.9999984648
 51
0.0
  0
LINE
  5
1FB
100
AcDbEntity
  8
LAYER3
 62
         4
100
AcDbLine
 10
-6.9295023697
 20
-19.2220379147
 30
0.0
 11
-6.9295023697
 21
-20.2220379147
 31
0.0
  0
LINE
  5
1FC
100
AcDbEntity
  8
LAYER3
 62
         4
100
AcDbLine
 10
-6.9295023697
 20
-19.2220379147
 30
0.0
 11
-6.9295023697
 21
-20.2220379147
 31
0.0
  0
LINE
  5
1FD
100
AcDbEntity
  8
LAYER3
 62
         4
100
AcDbLine
 10
-6.9295023697
 20
-21.2220379147
 30
0.0
 11
-6.9295023697
 21
-22.7220379147
 31
0.0
  0
LINE
  5
1FE
100
AcDbEntity
  8
LAYER3
 62
         4
100
AcDbLine
 10
-39.7295023697
 20
-19.2220379147
 30
0.0
 11
-39.7295023697
 21
-20.7220379147
 31
0.0
  0
ARC
  5
1FF
100
AcDbEntity
  8
LAYER3
 62
         4
100
AcDbCircle
 10
-39.7295023697
 20
-22.7220379147
 30
0.0
 40
0.5
210
-0.0
220
0.0
230
1.0
100
AcDbArc
 50
269.9999984648
 51
0.0
  0
LINE
  5
200
100
AcDbEntity
  8
LAYER3
 62
         4
100
AcDbLine
 10
-39.7295023697
 20
-20.2220379147
 30
0.0
 11
-39.2295023697
 21
-20.2220379147
 31
0.0
  0
ARC
  5
201
100
AcDbEntity
  8
LAYER3
 62
         4
100
AcDbCircle
 10
-39.2295023697
 20
-20.7220379147
 30
0.0
 40
0.5
210
0.0
220
0.0
230
1.0
100
AcDbArc
 50
179.9999969295
 51
269.9999984648
  0
LINE
  5
202
100
AcDbEntity
  8
LAYER3
 62
         4
100
AcDbLine
 10
-39.2295023697
 20
-19.2220379147
 30
0.0
 11
-39.2295023697
 21
-20.2220379147
 31
0.0
  0
LINE
  5
203
100
AcDbEntity
  8
LAYER3
 62
         4
100
AcDbLine
 10
-39.2295023697
 20
-21.2220379147
 30
0.0
 11
-39.2295023697
 21
-22.7220379147
 31
0.0
  0
LINE
  5
204
100
AcDbEntity
  8
LAYER0
 62
         3
100
AcDbLine
 10
-4.4295023697
 20
-19.2220379147
 30
0.0
 11
-4.4295023697
 21
-17.8220379147
 31
0.0
  0
LINE
  5
205
100
AcDbEntity
  8
LAYER0
 62
         3
100
AcDbLine
 10
-2.4415768813
 20
-17.8220379147
 30
0.0
 11
-14.5295023697
 21
-17.8220379147
 31
0.0
  0
LINE
  5
206
100
AcDbEntity
  8
LAYER0
 62
         3
100
AcDbLine
 10
-14.5295023697
 20
-19.8220379147
 30
0.0
 11
-15.9295023697
 21
-19.8220379147
 31
0.0
  0
LINE
  5
207
100
AcDbEntity
  8
LAYER0
 62
         3
100
AcDbLine
 10
-18.2295023697
 20
-17.8220379147
 30
0.0
 11
-18.2295023697
 21
-21.7220379147
 31
0.0
  0
LINE
  5
208
100
AcDbEntity
  8
LAYER0
 62
         3
100
AcDbLine
 10
-43.2295023697
 20
-17.8220379147
 30
0.0
 11
-43.2295023697
 21
-19.2220379147
 31
0.0
  0
LINE
  5
209
100
AcDbEntity
  8
LAYER0
 62
         3
100
AcDbLine
 10
-39.1295023697
 20
-19.2220379147
 30
0.0
 11
-39.1295023697
 21
-23.2220379147
 31
0.0
  0
LINE
  5
20A
100
AcDbEntity
  8
LAYER8
 62
         3
100
AcDbLine
 10
-74.2295023697
 20
-6.7678866932
 30
0.0
 11
-74.2295023697
 21
-7.8940231508
 31
0.0
  0
LINE
  5
20B
100
AcDbEntity
  8
LAYER8
 62
         3
100
AcDbLine
 10
-83.2295023697
 20
-6.7678866932
 30
0.0
 11
-83.2295023697
 21
-7.8940231508
 31
0.0
  0
LINE
  5
20C
100
AcDbEntity
  8
LAYER8
 62
         3
100
AcDbLine
 10
-73.2295023697
 20
-7.8940231508
 30
0.0
 11
-73.2295023697
 21
-11.8940231508
 31
0.0
  0
LINE
  5
20D
100
AcDbEntity
  8
LAYER8
 62
         3
100
AcDbLine
 10
-84.2295023697
 20
-11.8940231508
 30
0.0
 11
-84.2295023697
 21
-7.8940231508
 31
0.0
  0
LINE
  5
20E
100
AcDbEntity
  8
LAYER8
 62
         3
100
AcDbLine
 10
-84.6402975784
 20
-11.8940231508
 30
0.0
 11
-72.8187071609
 21
-11.8940231508
 31
0.0
  0
LINE
  5
20F
100
AcDbEntity
  8
LAYER8
 62
         3
100
AcDbLine
 10
-84.2295023697
 20
-7.8940231508
 30
0.0
 11
-73.2295023697
 21
-7.8940231508
 31
0.0
  0
CIRCLE
  5
210
100
AcDbEntity
  8
LAYER8
 62
         3
100
AcDbCircle
 10
-78.7295023697
 20
0.1059768492
 30
0.0
 40
4.5
210
0.0
220
0.0
230
1.0
  0
CIRCLE
  5
211
100
AcDbEntity
  8
LAYER8
 62
         3
100
AcDbCircle
 10
-78.7295023697
 20
0.1059768492
 30
0.0
 40
3.0
210
0.0
220
0.0
230
1.0
  0
CIRCLE
  5
212
100
AcDbEntity
  8
LAYER8
 62
         3
100
AcDbCircle
 10
-78.7295023697
 20
0.1059768492
 30
0.0
 40
2.7
210
0.0
220
0.0
230
1.0
  0
CIRCLE
  5
213
100
AcDbEntity
  8
LAYER8
 62
         3
100
AcDbCircle
 10
-78.7295023697
 20
0.1059768492
 30
0.0
 40
6.6
210
0.0
220
0.0
230
1.0
  0
ARC
  5
214
100
AcDbEntity
  8
LAYER8
 62
         3
100
AcDbCircle
 10
-78.7295023697
 20
0.1059768492
 30
0.0
 40
8.0
210
0.0
220
0.0
230
1.0
100
AcDbArc
 50
306.0318781519
 51
233.9681187777
  0
ARC
  5
215
100
AcDbEntity
  8
LAYER5
 62
         6
100
AcDbCircle
 10
-16.9295023697
 20
-25.8220379147
 30
0.0
 40
1.0
210
-0.0
220
0.0
230
1.0
100
AcDbArc
 50
269.9999984648
 51
0.0
  0
LINE
  5
217
100
AcDbEntity
  8
LAYER2
 62
         4
100
AcDbLine
 10
-28.3037497382
 20
-28.4220379147
 30
0.0
 11
-18.8814375986
 21
-28.4220379147
 31
0.0
  0
LINE
  5
218
100
AcDbEntity
  8
LAYER2
 62
         4
100
AcDbLine
 10
-28.8094493454
 20
-27.5998710696
 30
0.0
 11
-28.8036735857
 21
-27.9307641179
 31
0.0
  0
LINE
  5
219
100
AcDbEntity
  8
LAYER2
 62
         4
100
AcDbLine
 10
-18.2814825994
 20
-22.1999832796
 30
0.0
 11
-18.381513751
 21
-27.9307641179
 31
0.0
  0
ARC
  5
21A
100
AcDbEntity
  8
LAYER2
 62
         4
100
AcDbCircle
 10
-18.8814375986
 20
-27.9220379147
 30
0.0
 40
0.5
210
0.0
220
0.0
230
1.0
100
AcDbArc
 50
269.9999984648
 51
358.9999999829
  0
ARC
  5
21B
100
AcDbEntity
  8
LAYER2
 62
         4
100
AcDbCircle
 10
-35.8083832115
 20
-27.7220379147
 30
0.0
 40
7.0
210
0.0
220
0.0
230
1.0
100
AcDbArc
 50
1.0000000171
 51
40.0052015673
  0
ARC
  5
21C
100
AcDbEntity
  8
LAYER2
 62
         4
100
AcDbCircle
 10
-28.3037497382
 20
-27.9220379147
 30
0.0
 40
0.5
210
0.0
220
0.0
230
1.0
100
AcDbArc
 50
180.9999969466
 51
269.9999984648
  0
LINE
  5
21E
100
AcDbEntity
  8
LAYER4
 62
         4
100
AcDbLine
 10
-16.9295023697
 20
-21.8220379147
 30
0.0
 11
-16.9295023697
 21
-25.8220379147
 31
0.0
  0
LINE
  5
21F
100
AcDbEntity
  8
LAYER0
 62
         5
100
AcDbLine
 10
-37.7324460948
 20
-19.8220379147
 30
0.0
 11
-37.7295023697
 21
-19.8190941895
 31
0.0
  0
LINE
  5
220
100
AcDbEntity
  8
LAYER5
 62
         6
100
AcDbLine
 10
-16.9295023697
 20
-20.8220379147
 30
0.0
 11
-18.2295023697
 21
-20.8220379147
 31
0.0
  0
LINE
  5
221
100
AcDbEntity
  8
LAYER5
 62
         6
100
AcDbLine
 10
-18.2295023697
 20
-21.8220379147
 30
0.0
 11
-16.9295023697
 21
-21.8220379147
 31
0.0
  0
LINE
  5
222
100
AcDbEntity
  8
LAYER5
 62
         6
100
AcDbLine
 10
-16.9295023697
 20
-21.8220379147
 30
0.0
 11
-16.9295023697
 21
-22.8220379147
 31
0.0
  0
LINE
  5
223
100
AcDbEntity
  8
LAYER5
 62
         6
100
AcDbLine
 10
-16.9295023697
 20
-22.8220379147
 30
0.0
 11
-15.9295023697
 21
-22.8220379147
 31
0.0
  0
LINE
  5
224
100
AcDbEntity
  8
LAYER5
 62
         6
100
AcDbLine
 10
-15.9295023697
 20
-22.8220379147
 30
0.0
 11
-15.9295023697
 21
-21.8220379147
 31
0.0
  0
LINE
  5
225
100
AcDbEntity
  8
LAYER8
 62
         3
100
AcDbLine
 10
-52.2295023697
 20
-11.8940231508
 30
0.0
 11
-52.2295023697
 21
-7.8940231508
 31
0.0
  0
ARC
  5
226
100
AcDbEntity
  8
LAYER8
 62
         3
100
AcDbCircle
 10
-83.7295023697
 20
-6.7678866932
 30
0.0
 40
0.5
210
0.0
220
0.0
230
1.0
100
AcDbArc
 50
0.0
 51
53.9681218481
  0
ARC
  5
227
100
AcDbEntity
  8
LAYER8
 62
         3
100
AcDbCircle
 10
-73.7295023697
 20
-6.7678866932
 30
0.0
 40
0.5
210
0.0
220
0.0
230
1.0
100
AcDbArc
 50
126.0318812223
 51
179.9999969295
  0
ARC
  5
228
100
AcDbEntity
  8
LAYER8
 62
         3
100
AcDbCircle
 10
-86.3786130103
 20
-3.2449125101
 30
0.0
 40
0.3508893593
210
0.0
220
-0.0
230
1.0
100
AcDbArc
 50
23.6570573288
 51
179.9999969295
  0
ARC
  5
229
100
AcDbEntity
  8
LAYER8
 62
         3
100
AcDbCircle
 10
-71.080391729
 20
-3.2449125101
 30
0.0
 40
0.3508893593
210
0.0
220
-0.0
230
1.0
100
AcDbArc
 50
0.0
 51
156.3429457416
  0
ARC
  5
22A
100
AcDbEntity
  8
LAYER8
 62
         3
100
AcDbCircle
 10
-85.7295023697
 20
-13.8940231508
 30
0.0
 40
1.0
210
0.0
220
0.0
230
1.0
100
AcDbArc
 50
179.9999969295
 51
269.9999984648
  0
ARC
  5
22B
100
AcDbEntity
  8
LAYER8
 62
         3
100
AcDbCircle
 10
-71.7295023697
 20
-13.8940231508
 30
0.0
 40
1.0
210
-0.0
220
0.0
230
1.0
100
AcDbArc
 50
269.9999984648
 51
0.0
  0
LINE
  5
22C
100
AcDbEntity
  8
LAYER8
 62
         3
100
AcDbLine
 10
-84.6402975784
 20
-11.8940231508
 30
0.0
 11
-84.6402975784
 21
-14.8940231508
 31
0.0
  0
LINE
  5
22D
100
AcDbEntity
  8
LAYER8
 62
         3
100
AcDbLine
 10
-72.8187071609
 20
-11.8940231508
 30
0.0
 11
-72.8187071609
 21
-14.8940231508
 31
0.0
  0
LINE
  5
22E
100
AcDbEntity
  8
LAYER8
 62
         3
100
AcDbLine
 10
-79.5295023697
 20
-8.3940231508
 30
0.0
 11
-77.9295023697
 21
-8.3940231508
 31
0.0
  0
LINE
  5
22F
100
AcDbEntity
  8
LAYER8
 62
         3
100
AcDbLine
 10
-79.5295023697
 20
-10.8940231508
 30
0.0
 11
-77.9295023697
 21
-10.8940231508
 31
0.0
  0
LINE
  5
230
100
AcDbEntity
  8
LAYER8
 62
         3
100
AcDbLine
 10
-82.7295023697
 20
-24.3132067392
 30
0.0
 11
-82.7295023697
 21
-26.3132067392
 31
0.0
  0
LINE
  5
231
100
AcDbEntity
  8
LAYER8
 62
         3
100
AcDbLine
 10
-74.7295023697
 20
-24.3132067392
 30
0.0
 11
-74.7295023697
 21
-26.3132067392
 31
0.0
  0
ARC
  5
232
100
AcDbEntity
  8
LAYER8
 62
         3
100
AcDbCircle
 10
-78.7295023697
 20
-26.3132067392
 30
0.0
 40
4.0
210
0.0
220
-0.0
230
1.0
100
AcDbArc
 50
179.9999969295
 51
0.0
  0
LINE
  5
233
100
AcDbEntity
  8
LAYER8
 62
         3
100
AcDbLine
 10
-85.3295023697
 20
-24.3132067392
 30
0.0
 11
-85.3295023697
 21
-26.3132067392
 31
0.0
  0
LINE
  5
234
100
AcDbEntity
  8
LAYER8
 62
         3
100
AcDbLine
 10
-72.1295023697
 20
-24.3132067392
 30
0.0
 11
-72.1295023697
 21
-26.3132067392
 31
0.0
  0
ARC
  5
235
100
AcDbEntity
  8
LAYER8
 62
         3
100
AcDbCircle
 10
-78.7295023697
 20
-26.3132067392
 30
0.0
 40
6.6
210
-0.0
220
-0.0
230
1.0
100
AcDbArc
 50
179.9999969295
 51
360.0
  0
LINE
  5
236
100
AcDbEntity
  8
LAYER8
 62
         3
100
AcDbLine
 10
-83.7295023697
 20
-11.8940231508
 30
0.0
 11
-83.7295023697
 21
-10.8940231508
 31
0.0
  0
LINE
  5
237
100
AcDbEntity
  8
LAYER8
 62
         3
100
AcDbLine
 10
-83.7295023697
 20
-10.8940231508
 30
0.0
 11
-73.7295023697
 21
-10.8940231508
 31
0.0
  0
LINE
  5
238
100
AcDbEntity
  8
LAYER8
 62
         3
100
AcDbLine
 10
-73.7295023697
 20
-10.8940231508
 30
0.0
 11
-73.7295023697
 21
-11.8940231508
 31
0.0
  0
LINE
  5
239
100
AcDbEntity
  8
LAYER8
 62
         3
100
AcDbLine
 10
-77.9295023697
 20
-8.3940231508
 30
0.0
 11
-77.9295023697
 21
-10.8940231508
 31
0.0
  0
LINE
  5
23A
100
AcDbEntity
  8
LAYER8
 62
         3
100
AcDbLine
 10
-79.5295023697
 20
-10.8940231508
 30
0.0
 11
-79.5295023697
 21
-8.3940231508
 31
0.0
  0
LINE
  5
23B
100
AcDbEntity
  8
LAYER8
 62
         3
100
AcDbLine
 10
-70.7295023697
 20
-13.8940231508
 30
0.0
 11
-70.7295023697
 21
-3.2449125101
 31
0.0
  0
LINE
  5
23C
100
AcDbEntity
  8
LAYER8
 62
         3
100
AcDbLine
 10
-85.7295023697
 20
-14.8940231508
 30
0.0
 11
-71.7295023697
 21
-14.8940231508
 31
0.0
  0
LINE
  5
23D
100
AcDbEntity
  8
LAYER8
 62
         3
100
AcDbLine
 10
-86.7295023697
 20
-3.2449125101
 30
0.0
 11
-86.7295023697
 21
-13.8940231508
 31
0.0
  0
ARC
  5
23E
100
AcDbEntity
  8
LAYER8
 62
         3
100
AcDbCircle
 10
-54.3786130103
 20
-3.2449125101
 30
0.0
 40
0.3508893593
210
0.0
220
-0.0
230
1.0
100
AcDbArc
 50
23.6570573288
 51
179.9999969295
  0
ARC
  5
23F
100
AcDbEntity
  8
LAYER8
 62
         3
100
AcDbCircle
 10
-53.7295023697
 20
-13.8940231508
 30
0.0
 40
1.0
210
0.0
220
0.0
230
1.0
100
AcDbArc
 50
179.9999969295
 51
269.9999984648
  0
LINE
  5
240
100
AcDbEntity
  8
LAYER8
 62
         3
100
AcDbLine
 10
-52.6402975784
 20
-11.8940231508
 30
0.0
 11
-52.6402975784
 21
-14.8940231508
 31
0.0
  0
LINE
  5
241
100
AcDbEntity
  8
LAYER8
 62
         3
100
AcDbLine
 10
-50.7295023697
 20
-24.3132067392
 30
0.0
 11
-50.7295023697
 21
-26.3132067392
 31
0.0
  0
LINE
  5
242
100
AcDbEntity
  8
LAYER8
 62
         3
100
AcDbLine
 10
-53.3295023697
 20
-24.3132067392
 30
0.0
 11
-53.3295023697
 21
-26.3132067392
 31
0.0
  0
LINE
  5
243
100
AcDbEntity
  8
LAYER8
 62
         3
100
AcDbLine
 10
-51.7295023697
 20
-11.8940231508
 30
0.0
 11
-51.7295023697
 21
-10.8940231508
 31
0.0
  0
LINE
  5
244
100
AcDbEntity
  8
LAYER8
 62
         3
100
AcDbLine
 10
-85.7295023697
 20
-15.8220379147
 30
0.0
 11
-85.7295023697
 21
-17.8220379147
 31
0.0
  0
LINE
  5
245
100
AcDbEntity
  8
LAYER8
 62
         3
100
AcDbLine
 10
-85.7295023697
 20
-17.8220379147
 30
0.0
 11
-71.7295023697
 21
-17.8220379147
 31
0.0
  0
LINE
  5
246
100
AcDbEntity
  8
LAYER8
 62
         3
100
AcDbLine
 10
-85.7295023697
 20
-15.8220379147
 30
0.0
 11
-71.7295023697
 21
-15.8220379147
 31
0.0
  0
LINE
  5
247
100
AcDbEntity
  8
LAYER8
 62
         3
100
AcDbLine
 10
-71.7295023697
 20
-15.8220379147
 30
0.0
 11
-71.7295023697
 21
-17.8220379147
 31
0.0
  0
LINE
  5
248
100
AcDbEntity
  8
LAYER8
 62
         3
100
AcDbLine
 10
-74.8404150731
 20
-15.8220379147
 30
0.0
 11
-74.8404150731
 21
-17.8220379147
 31
0.0
  0
LINE
  5
249
100
AcDbEntity
  8
LAYER8
 62
         3
100
AcDbLine
 10
-73.4262015108
 20
-15.8220379147
 30
0.0
 11
-73.4262015108
 21
-17.8220379147
 31
0.0
  0
LINE
  5
24A
100
AcDbEntity
  8
LAYER8
 62
         3
100
AcDbLine
 10
-72.9092790063
 20
-15.8220379147
 30
0.0
 11
-72.9092790063
 21
-17.8220379147
 31
0.0
  0
ARC
  5
24B
100
AcDbEntity
  8
LAYER8
 62
         3
100
AcDbCircle
 10
-78.7295023697
 20
-24.3132067392
 30
0.0
 40
6.6
210
0.0
220
0.0
230
1.0
100
AcDbArc
 50
170.4836783034
 51
179.9999969295
  0
ARC
  5
24C
100
AcDbEntity
  8
LAYER8
 62
         3
100
AcDbCircle
 10
-78.7295023697
 20
-24.3132067392
 30
0.0
 40
6.6
210
0.0
220
0.0
230
1.0
100
AcDbArc
 50
0.0
 51
9.5163247671
  0
ARC
  5
24D
100
AcDbEntity
  8
LAYER8
 62
         3
100
AcDbCircle
 10
-78.7295023697
 20
-24.3132067392
 30
0.0
 40
4.0
210
0.0
220
0.0
230
1.0
100
AcDbArc
 50
0.0
 51
15.8304874419
  0
ARC
  5
24E
100
AcDbEntity
  8
LAYER8
 62
         3
100
AcDbCircle
 10
-78.7295023697
 20
-24.3132067392
 30
0.0
 40
4.0
210
0.0
220
0.0
230
1.0
100
AcDbArc
 50
164.1695156286
 51
179.9999969295
  0
ARC
  5
24F
100
AcDbEntity
  8
LAYER8
 62
         3
100
AcDbCircle
 10
-78.7295023697
 20
-24.3132067392
 30
0.0
 40
6.6
210
0.0
220
0.0
230
1.0
100
AcDbArc
 50
57.9740693388
 51
79.5806445086
  0
ARC
  5
250
100
AcDbEntity
  8
LAYER8
 62
         3
100
AcDbCircle
 10
-78.7295023697
 20
-24.3132067392
 30
0.0
 40
6.6
210
0.0
220
0.0
230
1.0
100
AcDbArc
 50
100.4193585619
 51
122.0259337317
  0
LINE
  5
251
100
AcDbEntity
  8
LAYER8
 62
         3
100
AcDbLine
 10
-79.5295023697
 20
-19.2220379147
 30
0.0
 11
-79.5295023697
 21
-17.8220379147
 31
0.0
  0
LINE
  5
252
100
AcDbEntity
  8
LAYER8
 62
         3
100
AcDbLine
 10
-79.5295023697
 20
-15.8220379147
 30
0.0
 11
-79.5295023697
 21
-14.8940231508
 31
0.0
  0
LINE
  5
253
100
AcDbEntity
  8
LAYER8
 62
         3
100
AcDbLine
 10
-77.9295023697
 20
-14.8940231508
 30
0.0
 11
-77.9295023697
 21
-15.8220379147
 31
0.0
  0
LINE
  5
254
100
AcDbEntity
  8
LAYER8
 62
         3
100
AcDbLine
 10
-77.9295023697
 20
-17.8220379147
 30
0.0
 11
-77.9295023697
 21
-19.2220379147
 31
0.0
  0
LINE
  5
255
100
AcDbEntity
  8
LAYER8
 62
         3
100
AcDbLine
 10
-54.7295023697
 20
-3.2449125101
 30
0.0
 11
-54.7295023697
 21
-13.8940231508
 31
0.0
  0
LINE
  5
256
100
AcDbEntity
  8
LAYER8
 62
         3
100
AcDbLine
 10
-51.2295023697
 20
-6.7678866932
 30
0.0
 11
-51.2295023697
 21
-7.8940231508
 31
0.0
  0
ARC
  5
257
100
AcDbEntity
  8
LAYER3
 62
         4
100
AcDbCircle
 10
-86.2295023697
 20
-20.7220379147
 30
0.0
 40
0.5
210
-0.0
220
0.0
230
1.0
100
AcDbArc
 50
269.9999984648
 51
0.0
  0
LINE
  5
258
100
AcDbEntity
  8
LAYER3
 62
         4
100
AcDbLine
 10
-86.2295023697
 20
-19.2220379147
 30
0.0
 11
-86.2295023697
 21
-20.2220379147
 31
0.0
  0
LINE
  5
259
100
AcDbEntity
  8
LAYER3
 62
         4
100
AcDbLine
 10
-86.2295023697
 20
-19.2220379147
 30
0.0
 11
-86.2295023697
 21
-20.2220379147
 31
0.0
  0
LINE
  5
25A
100
AcDbEntity
  8
LAYER0
 62
         3
100
AcDbLine
 10
-91.7295023697
 20
-17.8220379147
 30
0.0
 11
-81.7295023958
 21
-17.8220379147
 31
0.0
  0
LINE
  5
25B
100
AcDbEntity
  8
LAYER0
 62
         3
100
AcDbLine
 10
-91.7295023697
 20
-21.8220379147
 30
0.0
 11
-91.7295023697
 21
-17.8220379147
 31
0.0
  0
LINE
  5
25C
100
AcDbEntity
  8
LAYER0
 62
         3
100
AcDbLine
 10
-75.2295023697
 20
-19.2220379147
 30
0.0
 11
-75.2295023697
 21
-17.8220379147
 31
0.0
  0
LINE
  5
25D
100
AcDbEntity
  8
LAYER0
 62
         3
100
AcDbLine
 10
-82.2295023697
 20
-17.8220379147
 30
0.0
 11
-82.2295023697
 21
-19.2220379147
 31
0.0
  0
LINE
  5
25E
100
AcDbEntity
  8
LAYER0
 62
         3
100
AcDbLine
 10
-50.2295023697
 20
-19.2220379147
 30
0.0
 11
-50.2295023697
 21
-17.8220379147
 31
0.0
  0
ARC
  5
25F
100
AcDbEntity
  8
LAYER0
 62
         3
100
AcDbCircle
 10
-90.3295023697
 20
-21.8220379147
 30
0.0
 40
1.4
210
0.0
220
0.0
230
1.0
100
AcDbArc
 50
179.9999969295
 51
269.9999984648
  0
LINE
  5
260
100
AcDbEntity
  8
LAYER0
 62
         3
100
AcDbLine
 10
-86.3295023697
 20
-23.2220379147
 30
0.0
 11
-86.3295023697
 21
-19.2220379147
 31
0.0
  0
LINE
  5
261
100
AcDbEntity
  8
LAYER0
 62
         3
100
AcDbLine
 10
-87.7295023697
 20
-19.2220379147
 30
0.0
 11
-87.7295023697
 21
-23.2220379147
 31
0.0
  0
LINE
  5
262
100
AcDbEntity
  8
LAYER0
 62
         3
100
AcDbLine
 10
-91.7295023697
 20
-19.2220379147
 30
0.0
 11
-87.7295023697
 21
-19.2220379147
 31
0.0
  0
ARC
  5
263
100
AcDbEntity
  8
LAYER0
 62
         3
100
AcDbCircle
 10
-87.7295023697
 20
-19.2220379147
 30
0.0
 40
1.4
210
0.0
220
-0.0
230
1.0
100
AcDbArc
 50
0.0
 51
90.0000015352
  0
LINE
  5
264
100
AcDbEntity
  8
LAYER0
 62
         3
100
AcDbLine
 10
-83.7295023697
 20
-17.8220379147
 30
0.0
 11
-83.7295023697
 21
-19.2220379147
 31
0.0
  0
LINE
  5
265
100
AcDbEntity
  8
LAYER6
 62
         4
100
AcDbLine
 10
-64.4295023697
 20
-17.3220379147
 30
0.0
 11
-61.0536513408
 21
-17.3220379147
 31
0.0
  0
ARC
  5
266
100
AcDbEntity
  8
LAYER6
 62
         4
100
AcDbCircle
 10
-64.4295023697
 20
-17.8220379147
 30
0.0
 40
0.5
210
0.0
220
0.0
230
1.0
100
AcDbArc
 50
90.0000015352
 51
179.9999969295
  0
ARC
  5
267
100
AcDbEntity
  8
LAYER6
 62
         4
100
AcDbCircle
 10
-61.0295023697
 20
-17.8220379147
 30
0.0
 40
0.5
210
0.0
220
-0.0
230
1.0
100
AcDbArc
 50
0.0
 51
90.0000015352
  0
LINE
  5
268
100
AcDbEntity
  8
LAYER8
 62
         3
100
AcDbLine
 10
-47.5295023697
 20
-10.8940231508
 30
0.0
 11
-47.5295023697
 21
-8.3940231508
 31
0.0
  0
LINE
  5
269
100
AcDbEntity
  8
LAYER8
 62
         3
100
AcDbLine
 10
-53.7295023697
 20
-15.8220379147
 30
0.0
 11
-53.7295023697
 21
-17.8220379147
 31
0.0
  0
ARC
  5
26A
100
AcDbEntity
  8
LAYER8
 62
         3
100
AcDbCircle
 10
-46.7295023697
 20
-24.3132067392
 30
0.0
 40
6.6
210
0.0
220
0.0
230
1.0
100
AcDbArc
 50
170.4836783034
 51
179.9999969295
  0
ARC
  5
26B
100
AcDbEntity
  8
LAYER8
 62
         3
100
AcDbCircle
 10
-46.7295023697
 20
-24.3132067392
 30
0.0
 40
4.0
210
0.0
220
0.0
230
1.0
100
AcDbArc
 50
164.1695156286
 51
179.9999969295
  0
ARC
  5
26C
100
AcDbEntity
  8
LAYER8
 62
         3
100
AcDbCircle
 10
-46.7295023697
 20
-24.3132067392
 30
0.0
 40
6.6
210
0.0
220
0.0
230
1.0
100
AcDbArc
 50
100.4193585619
 51
122.0259337317
  0
LINE
  5
26D
100
AcDbEntity
  8
LAYER8
 62
         3
100
AcDbLine
 10
-47.5295023697
 20
-19.2220379147
 30
0.0
 11
-47.5295023697
 21
-17.8220379147
 31
0.0
  0
LINE
  5
26E
100
AcDbEntity
  8
LAYER8
 62
         3
100
AcDbLine
 10
-47.5295023697
 20
-15.8220379147
 30
0.0
 11
-47.5295023697
 21
-14.8940231508
 31
0.0
  0
ARC
  5
26F
100
AcDbEntity
  8
LAYER8
 62
         3
100
AcDbCircle
 10
-51.7295023697
 20
-6.7678866932
 30
0.0
 40
0.5
210
0.0
220
0.0
230
1.0
100
AcDbArc
 50
0.0
 51
53.9681218481
  0
LINE
  5
270
100
AcDbEntity
  8
LAYER8
 62
         3
100
AcDbLine
 10
-53.3295023697
 20
43.6279620853
 30
0.0
 11
-40.1295023697
 21
43.6279620853
 31
0.0
  0
LINE
  5
271
100
AcDbEntity
  8
LAYER8
 62
         3
100
AcDbLine
 10
-51.2295023697
 20
39.1279620853
 30
0.0
 11
-42.2295023697
 21
39.1279620853
 31
0.0
  0
LINE
  5
272
100
AcDbEntity
  8
LAYER3
 62
         4
100
AcDbLine
 10
33.5704976303
 20
-4.3940147501
 30
0.0
 11
55.8680746704
 21
-4.3940147501
 31
0.0
  0
LINE
  5
273
100
AcDbEntity
  8
LAYER3
 62
         4
100
AcDbLine
 10
33.5704976303
 20
-30.3132067392
 30
0.0
 11
55.8680746704
 21
-30.3132067392
 31
0.0
  0
LINE
  5
274
100
AcDbEntity
  8
LAYER0
 62
         3
100
AcDbLine
 10
-40.0
 20
-138.5
 30
0.0
 11
-40.0
 21
-125.5
 31
0.0
  0
MTEXT
  5
275
100
AcDbEntity
  8
LAYER0
100
AcDbMText
 10
-10.6564309049
 20
-126.7970201517
 30
0.0
 40
2.1473683357
 41
7.6538653946
 71
         1
 72
         1
  1
\W0.8;品　番
  0
LINE
  5
276
100
AcDbEntity
  8
LAYER0
 62
         3
100
AcDbLine
 10
-25.0
 20
-125.5
 30
0.0
 11
-25.0
 21
-138.5
 31
0.0
  0
MTEXT
  5
277
100
AcDbEntity
  8
LAYER0
100
AcDbMText
 10
-35.7051459079
 20
-126.6461242782
 30
0.0
 40
2.1473683357
 41
6.4116149902
 71
         1
 72
         1
  1
\W0.8;Ｎｏ.
  0
MTEXT
  5
278
100
AcDbEntity
  8
LAYER0
100
AcDbMText
 10
-13.9221737419
 20
-132.5157576176
 30
0.0
 40
3.0922104359
 41
7.3861805462
 71
         1
 72
         1
  1
\W0.8;S-1M
  0
LINE
  5
279
100
AcDbEntity
  8
LAYER0
 62
         3
100
AcDbLine
 10
10.0
 20
-138.5
 30
0.0
 11
10.0
 21
-125.5
 31
0.0
  0
MTEXT
  5
27A
100
AcDbEntity
  8
LAYER0
100
AcDbMText
 10
32.0542682872
 20
-126.7970201517
 30
0.0
 40
2.1473683357
 41
7.6538653946
 71
         1
 72
         1
  1
\W0.8;品　名
  0
LINE
  5
27B
100
AcDbEntity
  8
LAYER0
 62
         3
100
AcDbLine
 10
95.0
 20
-138.5
 30
0.0
 11
95.0
 21
-125.5
 31
0.0
  0
MTEXT
  5
27C
100
AcDbEntity
  8
LAYER0
100
AcDbMText
 10
72.5158633528
 20
-126.7970201517
 30
0.0
 40
2.1473683357
 41
10.2585839844
 71
         1
 72
         1
  1
\W0.8;管理図番
  0
LINE
  5
27D
100
AcDbEntity
  8
LAYER0
 62
         3
100
AcDbLine
 10
60.0
 20
-125.5
 30
0.0
 11
60.0
 21
-138.5
 31
0.0
  0
MTEXT
  5
27E
100
AcDbEntity
  8
LAYER0
100
AcDbMText
 10
70.6744019132
 20
-133.1354167344
 30
0.0
 40
2.4737683892
 41
7.3861806672
 71
         1
 72
         1
  1
\W0.8;55975
  0
LINE
  5
27F
100
AcDbEntity
  8
LAYER3
 62
         4
100
AcDbLine
 10
63.3704976303
 20
-44.3132118451
 30
0.0
 11
90.7704976303
 21
-44.3132118451
 31
0.0
  0
LINE
  5
280
100
AcDbEntity
  8
LAYER3
 62
         4
100
AcDbLine
 10
63.3704976303
 20
-44.3132118451
 30
0.0
 11
66.3049404325
 21
-44.9369469176
 31
0.0
  0
LINE
  5
281
100
AcDbEntity
  8
LAYER3
 62
         4
100
AcDbLine
 10
63.3704976303
 20
-44.3132118451
 30
0.0
 11
66.3049404325
 21
-43.6894767726
 31
0.0
  0
LINE
  5
282
100
AcDbEntity
  8
LAYER3
 62
         4
100
AcDbLine
 10
90.7704976303
 20
-44.3132118451
 30
0.0
 11
87.8360548281
 21
-43.6894767726
 31
0.0
  0
LINE
  5
283
100
AcDbEntity
  8
LAYER3
 62
         4
100
AcDbLine
 10
90.7704976303
 20
-44.3132118451
 30
0.0
 11
87.8360548281
 21
-44.9369469176
 31
0.0
  0
MTEXT
  5
284
100
AcDbEntity
  8
LAYER3
100
AcDbMText
 10
72.2704976303
 20
-40.5255531537
 30
0.0
 40
2.1473683357
 41
5.1292919922
 71
         1
 72
         1
  1
\W0.8;27.4
  0
LINE
  5
285
100
AcDbEntity
  8
LAYER3
 62
         4
100
AcDbLine
 10
-86.2295023697
 20
-21.2220379147
 30
0.0
 11
-86.2295023697
 21
-22.7220379147
 31
0.0
  0
ARC
  5
286
100
AcDbEntity
  8
LAYER3
 62
         4
100
AcDbCircle
 10
-85.7295023697
 20
-22.7220379147
 30
0.0
 40
0.5
210
0.0
220
0.0
230
1.0
100
AcDbArc
 50
179.9999969295
 51
269.9999984648
  0
LINE
  5
287
100
AcDbEntity
  8
LAYER3
 62
         4
100
AcDbLine
 10
-85.7295023697
 20
-19.2220379147
 30
0.0
 11
-85.7295023697
 21
-20.7220379147
 31
0.0
  0
LINE
  5
288
100
AcDbEntity
  8
LAYER3
 62
         4
100
AcDbLine
 10
-85.7295023697
 20
-20.2220379147
 30
0.0
 11
-86.2295023697
 21
-20.2220379147
 31
0.0
  0
ARC
  5
289
100
AcDbEntity
  8
LAYER8
 62
         3
100
AcDbCircle
 10
-46.7295023697
 20
-24.3132067392
 30
0.0
 40
6.6
210
0.0
220
0.0
230
1.0
100
AcDbArc
 50
57.9740693388
 51
79.5806445086
  0
LINE
  5
28A
100
AcDbEntity
  8
LAYER8
 62
         3
100
AcDbLine
 10
-45.9295023697
 20
-14.8940231508
 30
0.0
 11
-45.9295023697
 21
-15.8220379147
 31
0.0
  0
LINE
  5
28B
100
AcDbEntity
  8
LAYER8
 62
         3
100
AcDbLine
 10
-45.9295023697
 20
-17.8220379147
 30
0.0
 11
-45.9295023697
 21
-19.2220379147
 31
0.0
  0
LINE
  5
28C
100
AcDbEntity
  8
LAYER8
 62
         3
100
AcDbLine
 10
-52.2295023697
 20
-7.8940231508
 30
0.0
 11
-41.2295023697
 21
-7.8940231508
 31
0.0
  0
LINE
  5
28D
100
AcDbEntity
  8
LAYER8
 62
         3
100
AcDbLine
 10
-47.5295023697
 20
-8.3940231508
 30
0.0
 11
-45.9295023697
 21
-8.3940231508
 31
0.0
  0
LINE
  5
28E
100
AcDbEntity
  8
LAYER8
 62
         3
100
AcDbLine
 10
-47.5295023697
 20
-10.8940231508
 30
0.0
 11
-45.9295023697
 21
-10.8940231508
 31
0.0
  0
ARC
  5
28F
100
AcDbEntity
  8
LAYER8
 62
         3
100
AcDbCircle
 10
-46.7295023697
 20
-26.3132067392
 30
0.0
 40
4.0
210
0.0
220
-0.0
230
1.0
100
AcDbArc
 50
179.9999969295
 51
0.0
  0
ARC
  5
290
100
AcDbEntity
  8
LAYER8
 62
         3
100
AcDbCircle
 10
-46.7295023697
 20
-26.3132067392
 30
0.0
 40
6.6
210
-0.0
220
-0.0
230
1.0
100
AcDbArc
 50
179.9999969295
 51
360.0
  0
LINE
  5
291
100
AcDbEntity
  8
LAYER8
 62
         3
100
AcDbLine
 10
-51.7295023697
 20
-10.8940231508
 30
0.0
 11
-41.7295023697
 21
-10.8940231508
 31
0.0
  0
LINE
  5
292
100
AcDbEntity
  8
LAYER8
 62
         3
100
AcDbLine
 10
-53.7295023697
 20
-14.8940231508
 30
0.0
 11
-39.7295023697
 21
-14.8940231508
 31
0.0
  0
LINE
  5
293
100
AcDbEntity
  8
LAYER8
 62
         3
100
AcDbLine
 10
-52.6402975784
 20
-11.8940231508
 30
0.0
 11
-40.8187071609
 21
-11.8940231508
 31
0.0
  0
ARC
  5
294
100
AcDbEntity
  8
LAYER8
 62
         3
100
AcDbCircle
 10
-46.7295023697
 20
0.1059768492
 30
0.0
 40
8.0
210
0.0
220
0.0
230
1.0
100
AcDbArc
 50
306.0318781519
 51
233.9681187777
  0
CIRCLE
  5
295
100
AcDbEntity
  8
LAYER8
 62
         3
100
AcDbCircle
 10
-46.7295023697
 20
0.1059768492
 30
0.0
 40
4.5
210
0.0
220
0.0
230
1.0
  0
CIRCLE
  5
296
100
AcDbEntity
  8
LAYER8
 62
         3
100
AcDbCircle
 10
-46.7295023697
 20
0.1059768492
 30
0.0
 40
3.0
210
0.0
220
0.0
230
1.0
  0
CIRCLE
  5
297
100
AcDbEntity
  8
LAYER8
 62
         3
100
AcDbCircle
 10
-46.7295023697
 20
0.1059768492
 30
0.0
 40
2.7
210
0.0
220
0.0
230
1.0
  0
CIRCLE
  5
298
100
AcDbEntity
  8
LAYER8
 62
         3
100
AcDbCircle
 10
-46.7295023697
 20
0.1059768492
 30
0.0
 40
6.6
210
0.0
220
0.0
230
1.0
  0
LINE
  5
299
100
AcDbEntity
  8
LAYER3
 62
         4
100
AcDbLine
 10
-39.2295023697
 20
33.4779620853
 30
0.0
 11
-86.2295023697
 21
33.4779620853
 31
0.0
  0
LINE
  5
29A
100
AcDbEntity
  8
LAYER0
 62
         3
100
AcDbLine
 10
-91.7295023697
 20
59.4779620853
 30
0.0
 11
-18.2295023697
 21
59.4779620853
 31
0.0
  0
LINE
  5
29B
100
AcDbEntity
  8
LAYER0
 62
         3
100
AcDbLine
 10
-91.7295023697
 20
60.8779620853
 30
0.0
 11
-18.2295023697
 21
60.8779620853
 31
0.0
  0
LINE
  5
29C
100
AcDbEntity
  8
LAYER8
 62
         3
100
AcDbLine
 10
-54.7295023697
 20
49.4279620853
 30
0.0
 11
-38.7295023697
 21
49.4279620853
 31
0.0
  0
LINE
  5
29D
100
AcDbEntity
  8
LAYER8
 62
         3
100
AcDbLine
 10
-38.7295023697
 20
44.9279620853
 30
0.0
 11
-54.7295023697
 21
44.9279620853
 31
0.0
  0
LINE
  5
29E
100
AcDbEntity
  8
LAYER8
 62
         3
100
AcDbLine
 10
-53.3295023697
 20
49.6279620853
 30
0.0
 11
-40.1295023697
 21
49.6279620853
 31
0.0
  0
LINE
  5
29F
100
AcDbEntity
  8
LAYER8
 62
         3
100
AcDbLine
 10
-40.1295023697
 20
50.7279620853
 30
0.0
 11
-53.3295023697
 21
50.7279620853
 31
0.0
  0
LINE
  5
2A0
100
AcDbEntity
  8
LAYER8
 62
         3
100
AcDbLine
 10
-51.2295023697
 20
55.2279620853
 30
0.0
 11
-42.2295023697
 21
55.2279620853
 31
0.0
  0
LINE
  5
2A1
100
AcDbEntity
  8
LAYER8
 62
         3
100
AcDbLine
 10
-40.1295023697
 20
44.7279620853
 30
0.0
 11
-53.3295023697
 21
44.7279620853
 31
0.0
  0
LINE
  5
2A2
100
AcDbEntity
  8
LAYER8
 62
         3
100
AcDbLine
 10
1.3704976303
 20
-14.8940231508
 30
0.0
 11
1.3704976303
 21
-15.8220379147
 31
0.0
  0
LINE
  5
2A3
100
AcDbEntity
  8
LAYER8
 62
         3
100
AcDbLine
 10
1.3704976303
 20
-17.8220379147
 30
0.0
 11
1.3704976303
 21
-19.2220379147
 31
0.0
  0
LINE
  5
2A4
100
AcDbEntity
  8
LAYER8
 62
         3
100
AcDbLine
 10
-5.3402975784
 20
-11.8940231508
 30
0.0
 11
6.4812928391
 21
-11.8940231508
 31
0.0
  0
LINE
  5
2A5
100
AcDbEntity
  8
LAYER8
 62
         3
100
AcDbLine
 10
-4.9295023697
 20
-7.8940231508
 30
0.0
 11
6.0704976303
 21
-7.8940231508
 31
0.0
  0
ARC
  5
2A6
100
AcDbEntity
  8
LAYER8
 62
         3
100
AcDbCircle
 10
0.5704976303
 20
0.1059768492
 30
0.0
 40
8.0
210
0.0
220
0.0
230
1.0
100
AcDbArc
 50
306.0318781519
 51
233.9681187777
  0
CIRCLE
  5
2A7
100
AcDbEntity
  8
LAYER8
 62
         3
100
AcDbCircle
 10
0.5704976303
 20
0.1059768492
 30
0.0
 40
4.5
210
0.0
220
0.0
230
1.0
  0
CIRCLE
  5
2A8
100
AcDbEntity
  8
LAYER8
 62
         3
100
AcDbCircle
 10
0.5704976303
 20
0.1059768492
 30
0.0
 40
3.0
210
0.0
220
0.0
230
1.0
  0
CIRCLE
  5
2A9
100
AcDbEntity
  8
LAYER8
 62
         3
100
AcDbCircle
 10
0.5704976303
 20
0.1059768492
 30
0.0
 40
2.7
210
0.0
220
0.0
230
1.0
  0
CIRCLE
  5
2AA
100
AcDbEntity
  8
LAYER8
 62
         3
100
AcDbCircle
 10
0.5704976303
 20
0.1059768492
 30
0.0
 40
6.6
210
0.0
220
0.0
230
1.0
  0
LINE
  5
2AB
100
AcDbEntity
  8
LAYER8
 62
         3
100
AcDbLine
 10
-0.2295023697
 20
-8.3940231508
 30
0.0
 11
1.3704976303
 21
-8.3940231508
 31
0.0
  0
LINE
  5
2AC
100
AcDbEntity
  8
LAYER8
 62
         3
100
AcDbLine
 10
-0.2295023697
 20
-10.8940231508
 30
0.0
 11
1.3704976303
 21
-10.8940231508
 31
0.0
  0
ARC
  5
2AD
100
AcDbEntity
  8
LAYER8
 62
         3
100
AcDbCircle
 10
0.5704976303
 20
-26.3132067392
 30
0.0
 40
4.0
210
0.0
220
-0.0
230
1.0
100
AcDbArc
 50
179.9999969295
 51
0.0
  0
ARC
  5
2AE
100
AcDbEntity
  8
LAYER8
 62
         3
100
AcDbCircle
 10
0.5704976303
 20
-26.3132067392
 30
0.0
 40
6.6
210
-0.0
220
-0.0
230
1.0
100
AcDbArc
 50
179.9999969295
 51
360.0
  0
LINE
  5
2AF
100
AcDbEntity
  8
LAYER8
 62
         3
100
AcDbLine
 10
-6.4295023697
 20
-14.8940231508
 30
0.0
 11
7.5704976303
 21
-14.8940231508
 31
0.0
  0
LINE
  5
2B0
100
AcDbEntity
  8
LAYER3
 62
         4
100
AcDbLine
 10
69.0204976303
 20
5.6059852499
 30
0.0
 11
69.0204976303
 21
16.0178035555
 31
0.0
  0
LINE
  5
2B1
100
AcDbEntity
  8
LAYER3
 62
         4
100
AcDbLine
 10
85.1204976303
 20
5.6059852499
 30
0.0
 11
85.1204976303
 21
16.0178035555
 31
0.0
  0
MTEXT
  5
2B2
100
AcDbEntity
  8
LAYER0
100
AcDbMText
 10
16.3216602544
 20
-132.8866032766
 30
0.0
 40
2.4737683892
 41
39.885375603
 71
         1
 72
         1
  1
\W0.8;3０用両開マグネットランナー
  0
LINE
  5
2B3
100
AcDbEntity
  8
LAYER3
 62
         4
100
AcDbLine
 10
-86.2295023697
 20
-19.2220379147
 30
0.0
 11
-39.2295023697
 21
-19.2220379147
 31
0.0
  0
LINE
  5
2B4
100
AcDbEntity
  8
LAYER3
 62
         4
100
AcDbLine
 10
-85.7295023697
 20
-23.2220379147
 30
0.0
 11
-39.7295023697
 21
-23.2220379147
 31
0.0
  0
LINE
  5
2B5
100
AcDbEntity
  8
LAYER0
 62
         3
100
AcDbLine
 10
-75.7295023436
 20
-17.8220379147
 30
0.0
 11
-18.2295023697
 21
-17.8220379147
 31
0.0
  0
LINE
  5
2B6
100
AcDbEntity
  8
LAYER0
 62
         3
100
AcDbLine
 10
-19.6295023697
 20
-23.2220379147
 30
0.0
 11
-90.3295023697
 21
-23.2220379147
 31
0.0
  0
LINE
  5
2B7
100
AcDbEntity
  8
LAYER0
 62
         3
100
AcDbLine
 10
-86.3295023697
 20
-19.2220379147
 30
0.0
 11
-39.1295023697
 21
-19.2220379147
 31
0.0
  0
LINE
  5
2B8
100
AcDbEntity
  8
LAYER8
 62
         3
100
AcDbLine
 10
-45.9295023697
 20
-8.3940231508
 30
0.0
 11
-45.9295023697
 21
-10.8940231508
 31
0.0
  0
LINE
  5
2B9
100
AcDbEntity
  8
LAYER8
 62
         3
100
AcDbLine
 10
-53.7295023697
 20
-17.8220379147
 30
0.0
 11
-39.7295023697
 21
-17.8220379147
 31
0.0
  0
LINE
  5
2BA
100
AcDbEntity
  8
LAYER8
 62
         3
100
AcDbLine
 10
-53.7295023697
 20
-15.8220379147
 30
0.0
 11
-39.7295023697
 21
-15.8220379147
 31
0.0
  0
LINE
  5
2BB
100
AcDbEntity
  8
LAYER3
 62
         4
100
AcDbLine
 10
63.3704976303
 20
-28.422029514
 30
0.0
 11
63.3704976303
 21
-45.3132118451
 31
0.0
  0
LINE
  5
2BC
100
AcDbEntity
  8
LAYER3
 62
         4
100
AcDbLine
 10
90.7704976303
 20
-28.422029514
 30
0.0
 11
90.7704976303
 21
-45.3132118451
 31
0.0
  0
LINE
  5
2BD
100
AcDbEntity
  8
LAYER0
 62
         3
100
AcDbLine
 10
95.0
 20
-138.5
 30
0.0
 11
-40.0
 21
-138.5
 31
0.0
  0
LINE
  5
2BE
100
AcDbEntity
  8
LAYER0
 62
         3
100
AcDbLine
 10
95.0
 20
-130.5
 30
0.0
 11
-40.0
 21
-130.5
 31
0.0
  0
LINE
  5
2BF
100
AcDbEntity
  8
LAYER0
 62
         3
100
AcDbLine
 10
95.0
 20
-125.5
 30
0.0
 11
-40.0
 21
-125.5
 31
0.0
  0
ARC
  5
2C0
100
AcDbEntity
  8
LAYER8
 62
         3
100
AcDbCircle
 10
0.5704976303
 20
-24.3132067392
 30
0.0
 40
6.6
210
0.0
220
0.0
230
1.0
100
AcDbArc
 50
57.9740693388
 51
79.5806445086
  0
LINE
  5
2C1
100
AcDbEntity
  8
LAYER3
 62
         4
100
AcDbLine
 10
40.0704976303
 20
33.4779620853
 30
0.0
 11
-6.9295023697
 21
33.4779620853
 31
0.0
  0
LINE
  5
2C2
100
AcDbEntity
  8
LAYER0
 62
         3
100
AcDbLine
 10
-14.5295023697
 20
59.4779620853
 30
0.0
 11
45.5704976303
 21
59.4779620853
 31
0.0
  0
LINE
  5
2C3
100
AcDbEntity
  8
LAYER3
 62
         4
100
AcDbLine
 10
-6.9295023697
 20
-19.2220379147
 30
0.0
 11
40.0704976303
 21
-19.2220379147
 31
0.0
  0
LINE
  5
2C4
100
AcDbEntity
  8
LAYER3
 62
         4
100
AcDbLine
 10
-6.4295023697
 20
-23.2220379147
 30
0.0
 11
39.5704976303
 21
-23.2220379147
 31
0.0
  0
LINE
  5
2C5
100
AcDbEntity
  8
LAYER0
 62
         3
100
AcDbLine
 10
-15.9295023697
 20
60.8779620853
 30
0.0
 11
45.5704976303
 21
60.8779620853
 31
0.0
  0
LINE
  5
2C6
100
AcDbEntity
  8
LAYER0
 62
         3
100
AcDbLine
 10
44.1704976303
 20
-23.2220379147
 30
0.0
 11
-8.4295023697
 21
-23.2220379147
 31
0.0
  0
LINE
  5
2C7
100
AcDbEntity
  8
LAYER0
 62
         3
100
AcDbLine
 10
-7.0295023697
 20
-19.2220379147
 30
0.0
 11
40.1704976303
 21
-19.2220379147
 31
0.0
  0
LINE
  5
2C8
100
AcDbEntity
  8
LAYER8
 62
         3
100
AcDbLine
 10
-7.4295023697
 20
49.4279620853
 30
0.0
 11
8.5704976303
 21
49.4279620853
 31
0.0
  0
LINE
  5
2C9
100
AcDbEntity
  8
LAYER8
 62
         3
100
AcDbLine
 10
8.5704976303
 20
44.9279620853
 30
0.0
 11
-7.4295023697
 21
44.9279620853
 31
0.0
  0
LINE
  5
2CA
100
AcDbEntity
  8
LAYER8
 62
         3
100
AcDbLine
 10
-3.9295023697
 20
39.1279620853
 30
0.0
 11
5.0704976303
 21
39.1279620853
 31
0.0
  0
LINE
  5
2CB
100
AcDbEntity
  8
LAYER8
 62
         3
100
AcDbLine
 10
-6.0295023697
 20
49.6279620853
 30
0.0
 11
7.1704976303
 21
49.6279620853
 31
0.0
  0
LINE
  5
2CC
100
AcDbEntity
  8
LAYER8
 62
         3
100
AcDbLine
 10
7.1704976303
 20
50.7279620853
 30
0.0
 11
-6.0295023697
 21
50.7279620853
 31
0.0
  0
LINE
  5
2CD
100
AcDbEntity
  8
LAYER8
 62
         3
100
AcDbLine
 10
-3.9295023697
 20
55.2279620853
 30
0.0
 11
5.0704976303
 21
55.2279620853
 31
0.0
  0
LINE
  5
2CE
100
AcDbEntity
  8
LAYER8
 62
         3
100
AcDbLine
 10
7.1704976303
 20
44.7279620853
 30
0.0
 11
-6.0295023697
 21
44.7279620853
 31
0.0
  0
LINE
  5
2CF
100
AcDbEntity
  8
LAYER8
 62
         3
100
AcDbLine
 10
-6.0295023697
 20
43.6279620853
 30
0.0
 11
7.1704976303
 21
43.6279620853
 31
0.0
  0
LINE
  5
2D0
100
AcDbEntity
  8
LAYER8
 62
         3
100
AcDbLine
 10
-4.4295023697
 20
-10.8940231508
 30
0.0
 11
5.5704976303
 21
-10.8940231508
 31
0.0
  0
LINE
  5
2D1
100
AcDbEntity
  8
LAYER8
 62
         3
100
AcDbLine
 10
1.3704976303
 20
-8.3940231508
 30
0.0
 11
1.3704976303
 21
-10.8940231508
 31
0.0
  0
LINE
  5
2D2
100
AcDbEntity
  8
LAYER8
 62
         3
100
AcDbLine
 10
-6.4295023697
 20
-17.8220379147
 30
0.0
 11
7.5704976303
 21
-17.8220379147
 31
0.0
  0
LINE
  5
2D3
100
AcDbEntity
  8
LAYER8
 62
         3
100
AcDbLine
 10
-6.4295023697
 20
-15.8220379147
 30
0.0
 11
7.5704976303
 21
-15.8220379147
 31
0.0
  0
ENDSEC
  0
SECTION
  2
OBJECTS
  0
DICTIONARY
  5
19
100
AcDbDictionary
280
         0
281
         1
  3
ACAD_GROUP
350
1A
  3
ACAD_MLINESTYLE
350
1B
  3
ACAD_LAYOUT
350
1E
  3
ACAD_PLOTSETTINGS
350
22
  3
ACAD_PLOTSTYLENAME
350
1F
  3
ACAD_WIPEOUT_VARS
350
23
  0
DICTIONARY
  5
1A
102
{ACAD_REACTORS
330
19
102
}
100
AcDbDictionary
280
         0
281
         1
  0
DICTIONARY
  5
1B
102
{ACAD_REACTORS
330
19
102
}
100
AcDbDictionary
280
         0
281
         1
  3
Standard
350
1C
  0
MLINESTYLE
  5
1C
102
{ACAD_REACTORS
330
1B
102
}
100
AcDbMlineStyle
  2
Standard
 70
         0
  3

 62
         0
 51
90.0
 52
90.0
 71
         2
 49
0.5
 62
       256
  6
BYLAYER
 49
-0.5
 62
       256
  6
BYLAYER
  0
ACDBDICTIONARYWDFLT
  5
1F
102
{ACAD_REACTORS
330
19
102
}
100
AcDbDictionary
281
         1
  3
Normal
350
1D
100
AcDbDictionaryWithDefault
340
1D
  0
ACDBPLACEHOLDER
  5
1D
102
{ACAD_REACTORS
330
1F
102
}
  0
LAYOUT
  5
20
102
{ACAD_REACTORS
330
1E
102
}
100
AcDbPlotSettings
  1

  2

  4

  6

 40
0.0
 41
0.0
 42
0.0
 43
0.0
 44
0.0
 45
0.0
 46
0.0
 47
0.0
 48
0.0
 49
0.0
140
0.0
141
0.0
142
1.0
143
1.0
 70
         0
 72
         0
 73
         0
 74
         0
  7

 75
         0
147
1.0
148
0.0
149
0.0
100
AcDbLayout
  1
Model
 70
         0
 71
         0
 10
0.0
 20
0.0
 11
0.0
 21
0.0
 12
0.0
 22
0.0
 32
0.0
 14
0.0
 24
0.0
 34
0.0
 15
0.0
 25
0.0
 35
0.0
146
0.0
 13
0.0
 23
0.0
 33
0.0
 16
0.0
 26
0.0
 36
0.0
 17
0.0
 27
0.0
 37
0.0
 76
         0
330
A
331
0
345
0
346
0
  0
LAYOUT
  5
21
102
{ACAD_REACTORS
330
1E
102
}
100
AcDbPlotSettings
  1

  2

  4

  6

 40
0.0
 41
0.0
 42
0.0
 43
0.0
 44
0.0
 45
0.0
 46
0.0
 47
0.0
 48
0.0
 49
0.0
140
0.0
141
0.0
142
1.0
143
1.0
 70
         0
 72
         0
 73
         0
 74
         0
  7

 75
         0
147
1.0
148
0.0
149
0.0
100
AcDbLayout
  1
Layout1
 70
         0
 71
         0
 10
0.0
 20
0.0
 11
0.0
 21
0.0
 12
0.0
 22
0.0
 32
0.0
 14
0.0
 24
0.0
 34
0.0
 15
0.0
 25
0.0
 35
0.0
146
0.0
 13
0.0
 23
0.0
 33
0.0
 16
0.0
 26
0.0
 36
0.0
 17
0.0
 27
0.0
 37
0.0
 76
         0
330
B
331
0
345
0
346
0
  0
DICTIONARY
  5
1E
102
{ACAD_REACTORS
330
19
102
}
100
AcDbDictionary
280
         0
281
         1
  3
Layout1
350
21
  3
Model
350
20
  0
DICTIONARY
  5
22
102
{ACAD_REACTORS
330
19
102
}
100
AcDbDictionary
280
         0
281
         1
  0
WIPEOUTVARIABLES
  5
23
100
AcDbWipeoutVariables
 70
         1
  0
ENDSEC
  0
EOF
