  0
SECTION
  2
HEADER
  9
$ACADVER
  1
AC1015
  9
$ACADMAINTVER
 70
         6
  9
$DWGCODEPAGE
  3
ANSI_932
  9
$INSBASE
 10
0.0
 20
0.0
 30
0.0
  9
$EXTMIN
 10
1.0000000000E+20
 20
1.0000000000E+20
 30
1.0000000000E+20
  9
$EXTMAX
 10
-1.0000000000E+20
 20
-1.0000000000E+20
 30
-1.0000000000E+20
  9
$LIMMIN
 10
0.0
 20
0.0
  9
$LIMMAX
 10
0.0
 20
0.0
  9
$ORTHOMODE
 70
         0
  9
$REGENMODE
 70
         1
  9
$FILLMODE
 70
         1
  9
$QTEXTMODE
 70
         0
  9
$MIRRTEXT
 70
         1
  9
$LTSCALE
 40
1.0
  9
$ATTMODE
 70
         1
  9
$TEXTSIZE
 40
0.2
  9
$TRACEWID
 40
0.05
  9
$TEXTSTYLE
  7
Standard
  9
$CLAYER
  8
0
  9
$CELTYPE
  6
Continuous
  9
$CECOLOR
 62
       256
  9
$CELTSCALE
 40
1.0
  9
$DISPSILH
 70
         0
  9
$DIMSCALE
 40
1.0
  9
$DIMASZ
 40
0.18
  9
$DIMEXO
 40
0.0625
  9
$DIMDLI
 40
0.38
  9
$DIMRND
 40
0.0
  9
$DIMDLE
 40
0.0
  9
$DIMEXE
 40
0.18
  9
$DIMTP
 40
0.0
  9
$DIMTM
 40
0.0
  9
$DIMTXT
 40
0.18
  9
$DIMCEN
 40
0.09
  9
$DIMTSZ
 40
0.0
  9
$DIMTOL
 70
         0
  9
$DIMLIM
 70
         0
  9
$DIMTIH
 70
         1
  9
$DIMTOH
 70
         1
  9
$DIMSE1
 70
         0
  9
$DIMSE2
 70
         0
  9
$DIMTAD
 70
         0
  9
$DIMZIN
 70
         0
  9
$DIMBLK
  1

  9
$DIMASO
 70
         1
  9
$DIMSHO
 70
         1
  9
$DIMPOST
  1

  9
$DIMAPOST
  1

  9
$DIMALT
 70
         0
  9
$DIMALTD
 70
         2
  9
$DIMALTF
 40
25.4
  9
$DIMLFAC
 40
1.0
  9
$DIMTOFL
 70
         0
  9
$DIMTVP
 40
0.0
  9
$DIMTIX
 70
         0
  9
$DIMSOXD
 70
         0
  9
$DIMSAH
 70
         0
  9
$DIMBLK1
  1

  9
$DIMBLK2
  1

  9
$DIMSTYLE
  2
Standard
  9
$DIMCLRD
 70
         0
  9
$DIMCLRE
 70
         0
  9
$DIMCLRT
 70
         0
  9
$DIMTFAC
 40
1.0
  9
$DIMGAP
 40
0.09
  9
$DIMJUST
 70
         0
  9
$DIMSD1
 70
         0
  9
$DIMSD2
 70
         0
  9
$DIMTOLJ
 70
         1
  9
$DIMTZIN
 70
         0
  9
$DIMALTZ
 70
         0
  9
$DIMALTTZ
 70
         0
  9
$DIMUPT
 70
         0
  9
$DIMDEC
 70
         4
  9
$DIMTDEC
 70
         4
  9
$DIMALTU
 70
         2
  9
$DIMALTTD
 70
         2
  9
$DIMTXSTY
  7
Standard
  9
$DIMAUNIT
 70
         0
  9
$DIMADEC
 70
         0
  9
$DIMALTRND
 40
0.0
  9
$DIMAZIN
 70
         0
  9
$DIMDSEP
 70
         0
  9
$DIMATFIT
 70
         3
  9
$DIMFRAC
 70
         0
  9
$DIMLDRBLK
  1

  9
$DIMLUNIT
 70
         2
  9
$DIMLWD
 70
         0
  9
$DIMLWE
 70
         0
  9
$DIMTMOVE
 70
         0
  9
$LUNITS
 70
         2
  9
$LUPREC
 70
         4
  9
$SKETCHINC
 40
0.1
  9
$FILLETRAD
 40
0.0
  9
$AUNITS
 70
         0
  9
$AUPREC
 70
         0
  9
$MENU
  1
acad
  9
$ELEVATION
 40
0.0
  9
$PELEVATION
 40
0.0
  9
$THICKNESS
 40
0.0
  9
$LIMCHECK
 70
         0
  9
$CHAMFERA
 40
0.0
  9
$CHAMFERB
 40
0.0
  9
$CHAMFERC
 40
0.0
  9
$CHAMFERD
 40
0.0
  9
$SKPOLY
 70
         0
  9
$TDCREATE
 40
0.000000000
  9
$TDUCREATE
 40
0.000000000
  9
$TDUPDATE
 40
0.000000000
  9
$TDUUPDATE
 40
0.000000000
  9
$TDINDWG
 40
0.0000000000
  9
$TDUSRTIMER
 40
0.0000000000
  9
$USRTIMER
 70
         1
  9
$ANGBASE
 50
0.0
  9
$ANGDIR
 70
         0
  9
$PDMODE
 70
         3
  9
$PDSIZE
 40
-1.0
  9
$PLINEWID
 40
0.0
  9
$SPLFRAME
 70
         0
  9
$SPLINETYPE
 70
         6
  9
$SPLINESEGS
 70
         8
  9
$HANDSEED
  5
201
  9
$SURFTAB1
 70
         6
  9
$SURFTAB2
 70
         6
  9
$SURFTYPE
 70
         6
  9
$SURFU
 70
         6
  9
$SURFV
 70
         6
  9
$UCSBASE
  2

  9
$UCSNAME
  2

  9
$UCSORG
 10
0.0
 20
0.0
 30
0.0
  9
$UCSXDIR
 10
1.0
 20
0.0
 30
0.0
  9
$UCSYDIR
 10
0.0
 20
1.0
 30
0.0
  9
$UCSORTHOREF
  2

  9
$UCSORTHOVIEW
 70
         0
  9
$UCSORGTOP
 10
0.0
 20
0.0
 30
0.0
  9
$UCSORGBOTTOM
 10
0.0
 20
0.0
 30
0.0
  9
$UCSORGLEFT
 10
0.0
 20
0.0
 30
0.0
  9
$UCSORGRIGHT
 10
0.0
 20
0.0
 30
0.0
  9
$UCSORGFRONT
 10
0.0
 20
0.0
 30
0.0
  9
$UCSORGBACK
 10
0.0
 20
0.0
 30
0.0
  9
$PUCSBASE
  2

  9
$PUCSNAME
  2

  9
$PUCSORG
 10
0.0
 20
0.0
 30
0.0
  9
$PUCSXDIR
 10
1.0
 20
0.0
 30
0.0
  9
$PUCSYDIR
 10
0.0
 20
1.0
 30
0.0
  9
$PUCSORTHOREF
  2

  9
$PUCSORTHOVIEW
 70
         0
  9
$PUCSORGTOP
 10
0.0
 20
0.0
 30
0.0
  9
$PUCSORGBOTTOM
 10
0.0
 20
0.0
 30
0.0
  9
$PUCSORGLEFT
 10
0.0
 20
0.0
 30
0.0
  9
$PUCSORGRIGHT
 10
0.0
 20
0.0
 30
0.0
  9
$PUCSORGFRONT
 10
0.0
 20
0.0
 30
0.0
  9
$PUCSORGBACK
 10
0.0
 20
0.0
 30
0.0
  9
$USERI1
 70
         0
  9
$USERI2
 70
         0
  9
$USERI3
 70
         0
  9
$USERI4
 70
         0
  9
$USERI5
 70
         0
  9
$USERR1
 40
0.0
  9
$USERR2
 40
0.0
  9
$USERR3
 40
0.0
  9
$USERR4
 40
0.0
  9
$USERR5
 40
0.0
  9
$WORLDVIEW
 70
         1
  9
$SHADEDGE
 70
         3
  9
$SHADEDIF
 70
        70
  9
$TILEMODE
 70
         1
  9
$MAXACTVP
 70
        16
  9
$PINSBASE
 10
0.0
 20
0.0
 30
0.0
  9
$PLIMCHECK
 70
         0
  9
$PEXTMIN
 10
1.0000000000E+20
 20
1.0000000000E+20
 30
1.0000000000E+20
  9
$PEXTMAX
 10
-1.0000000000E+20
 20
-1.0000000000E+20
 30
-1.0000000000E+20
  9
$PLIMMIN
 10
0.0
 20
0.0
  9
$PLIMMAX
 10
12.0
 20
9.0
  9
$UNITMODE
 70
         0
  9
$VISRETAIN
 70
         0
  9
$PLINEGEN
 70
         1
  9
$PSLTSCALE
 70
         0
  9
$TREEDEPTH
 70
      3020
  9
$CMLSTYLE
  2
Standard
  9
$CMLJUST
 70
         0
  9
$CMLSCALE
 40
1.0
  9
$PROXYGRAPHICS
 70
         0
  9
$MEASUREMENT
 70
         0
  9
$CELWEIGHT
370
         0
  9
$ENDCAPS
280
         0
  9
$JOINSTYLE
280
         0
  9
$LWDISPLAY
290
         0
  9
$INSUNITS
 70
         0
  9
$HYPERLINKBASE
  1

  9
$XEDIT
290
         1
  9
$CEPSNTYPE
380
         0
  9
$PSTYLEMODE
290
         0
  9
$FINGERPRINTGUID
  2

  9
$VERSIONGUID
  2

  9
$EXTNAMES
290
         1
  9
$PSVPSCALE
 40
0.0
  0
ENDSEC
  0
SECTION
  2
CLASSES
  0
CLASS
  1
LWPOLYLINE
  2
AcDbPolyline
  3
"AutoCAD"
 90
        0
280
         0
281
         1
  0
CLASS
  1
IMAGE
  2
AcDbRasterImage
  3
ISM
 90
      127
280
         0
281
         1
  0
CLASS
  1
OLE2FRAME
  2
AcDbOle2Frame
  3
""
 90
        0
280
         0
281
         1
  0
CLASS
  1
HATCH
  2
AcDbHatch
  3
"ACAD_SEDONA"
 90
        0
280
         0
281
         1
  0
CLASS
  1
DICTIONARYVAR
  2
AcDbDictionaryVar
  3
"AutoCAD"
 90
        0
280
         0
281
         0
  0
CLASS
  1
RASTERVARIABLES
  2
AcDbRasterVariables
  3
ISM
 90
        0
280
         0
281
         0
  0
CLASS
  1
IMAGEDEF
  2
AcDbRasterImageDef
  3
ISM
 90
        0
280
         0
281
         0
  0
CLASS
  1
IMAGEDEF_REACTOR
  2
AcDbRasterImageDefReactor
  3
ISM
 90
        1
280
         0
281
         0
  0
CLASS
  1
IDBUFFER
  2
AcDbIdBuffer
  3
"Acad"
 90
        0
280
         0
281
         0
  0
CLASS
  1
SPATIAL_FILTER
  2
AcDbSpatialFilter
  3
"Acad"
 90
        0
280
         0
281
         0
  0
CLASS
  1
XRECORD
  2
AcDbXrecord
  3
"<Built In>"
 90
        0
280
         0
281
         0
  0
CLASS
  1
SORTENTSTABLE
  2
AcDbSortentsTable
  3
"AutoCAD"
 90
        0
280
         0
281
         0
  0
CLASS
  1
LAYER_INDEX
  2
AcDbLayerIndex
  3
"Acad"
 90
        0
280
         0
281
         0
  0
CLASS
  1
SPATIAL_INDEX
  2
AcDbSpatialIndex
  3
"Acad"
 90
        0
280
         0
281
         0
  0
CLASS
  1
OBJECT_PTR
  2
CAseDLPNTableRecord
  3
"ASE-LPNTableRecord"
 90
        1
280
         0
281
         0
  0
CLASS
  1
LAYOUT
  2
AcDbLayout
  3
"AutoCAD 2000"
 90
        1
280
         0
281
         0
  0
CLASS
  1
PLOTSETTINGS
  2
AcDbPlotSettings
  3
"AutoCAD 2000"
 90
        1
280
         0
281
         0
  0
CLASS
  1
ACDBDICTIONARYWDFLT
  2
AcDbDictionaryWithDefault
  3
"AutoCAD 2000"
 90
        1
280
         0
281
         0
  0
CLASS
  1
ACDBPLACEHOLDER
  2
AcDbPlaceHolder
  3
"AutoCAD 2000"
 90
        1
280
         0
281
         0
  0
CLASS
  1
VBA_PROJECT
  2
AcDbVbaProject
  3
"acadvba"
 90
        1
280
         0
281
         0
  0
CLASS
  1
WIPEOUT
  2
AcDbWipeout
  3
WipeOut|AutoCAD Express Tool|expresstools@autodesk.com
 90
      127
280
         0
281
         1
  0
CLASS
  1
WIPEOUTVARIABLES
  2
AcDbWipeoutVariables
  3
WipeOut|AutoCAD Express Tool|expresstools@autodesk.com
 90
        0
280
         0
281
         0
  0
CLASS
  1
RTEXT
  2
RText
  3
RText|AutoCAD Express Tool|expresstools@autodesk.com
 90
        0
280
         0
281
         1
  0
CLASS
  1
ARCALIGNEDTEXT
  2
AcDbArcAlignedText
  3
ATEXT|AutoCAD Express Tool|expresstools@autodesk.com
 90
        0
280
         0
281
         1
  0
ENDSEC
  0
SECTION
  2
TABLES
  0
TABLE
  2
VPORT
  5
7
100
AcDbSymbolTable
 70
         1
  0
VPORT
  5
15
100
AcDbSymbolTableRecord
100
AcDbViewportTableRecord
  2
*ACTIVE
 70
         0
 10
0.0
 20
0.0
 11
1.0
 21
1.0
 12
6.591288
 22
4.579184
 13
0.0
 23
0.0
 14
1.0
 24
1.0
 15
0.0
 25
0.0
 16
0.0
 26
0.0
 36
1.0
 17
0.0
 27
0.0
 37
0.0
 40
9.158369
 41
0.688564
 42
50.0
 43
0.0
 44
0.0
 50
0.0
 51
0.0
 71
         0
 72
       100
 73
         1
 74
         1
 75
         0
 76
         0
 77
         0
 78
         0
281
         0
 65
         0
110
0.0
120
0.0
130
0.0
111
1.0
121
0.0
131
0.0
112
0.0
122
1.0
132
0.0
345
0
346
0
 79
         0
146
0.0
  0
ENDTAB
  0
TABLE
  2
LTYPE
  5
4
100
AcDbSymbolTable
 70
        13
  0
LTYPE
  5
11
100
AcDbSymbolTableRecord
100
AcDbLinetypeTableRecord
  2
ByBlock
 70
        64
  3

 72
        65
 73
         0
 40
0.0
  0
LTYPE
  5
12
100
AcDbSymbolTableRecord
100
AcDbLinetypeTableRecord
  2
ByLayer
 70
        64
  3

 72
        65
 73
         0
 40
0.0
  0
LTYPE
  5
13
100
AcDbSymbolTableRecord
100
AcDbLinetypeTableRecord
  2
Continuous
 70
        64
  3
Solid line
 72
        65
 73
         0
 40
0.0
  0
LTYPE
  5
24
100
AcDbSymbolTableRecord
100
AcDbLinetypeTableRecord
  2
DOT
 70
        64
  3
. . . . . . . . 
 72
        65
 73
         2
 40
1.0
 49
0.0
 74
         0
 49
-1.0
 74
         0
  0
LTYPE
  5
25
100
AcDbSymbolTableRecord
100
AcDbLinetypeTableRecord
  2
DASHED
 70
        64
  3
___  ___  ___  ___  
 72
        65
 73
         2
 40
4.0
 49
3.0
 74
         0
 49
-1.0
 74
         0
  0
LTYPE
  5
26
100
AcDbSymbolTableRecord
100
AcDbLinetypeTableRecord
  2
HIDDEN
 70
        64
  3
__ __ __ __ 
 72
        65
 73
         2
 40
3.0
 49
2.0
 74
         0
 49
-1.0
 74
         0
  0
LTYPE
  5
27
100
AcDbSymbolTableRecord
100
AcDbLinetypeTableRecord
  2
STITCH
 70
        64
  3
_ _ _ _ 
 72
        65
 73
         2
 40
2.0
 49
1.0
 74
         0
 49
-1.0
 74
         0
  0
LTYPE
  5
28
100
AcDbSymbolTableRecord
100
AcDbLinetypeTableRecord
  2
CENTER
 70
        64
  3
______  __  ______  __  
 72
        65
 73
         4
 40
43.0
 49
40.0
 74
         0
 49
-1.0
 74
         0
 49
1.0
 74
         0
 49
-1.0
 74
         0
  0
LTYPE
  5
29
100
AcDbSymbolTableRecord
100
AcDbLinetypeTableRecord
  2
DASHDOT
 70
        64
  3
____ . ____ . 
 72
        65
 73
         4
 40
32.0
 49
30.0
 74
         0
 49
-1.0
 74
         0
 49
0.0
 74
         0
 49
-1.0
 74
         0
  0
LTYPE
  5
2A
100
AcDbSymbolTableRecord
100
AcDbLinetypeTableRecord
  2
BORDER
 70
        64
  3
__ . __ . 
 72
        65
 73
         4
 40
22.0
 49
20.0
 74
         0
 49
-1.0
 74
         0
 49
0.0
 74
         0
 49
-1.0
 74
         0
  0
LTYPE
  5
2B
100
AcDbSymbolTableRecord
100
AcDbLinetypeTableRecord
  2
CUTTING
 70
        64
  3
________   ___   ___   
 72
        65
 73
         6
 40
45.0
 49
40.0
 74
         0
 49
-1.0
 74
         0
 49
1.0
 74
         0
 49
-1.0
 74
         0
 49
1.0
 74
         0
 49
-1.0
 74
         0
  0
LTYPE
  5
2C
100
AcDbSymbolTableRecord
100
AcDbLinetypeTableRecord
  2
PHANTOM
 70
        64
  3
______  __  __  
 72
        65
 73
         6
 40
35.0
 49
30.0
 74
         0
 49
-1.0
 74
         0
 49
1.0
 74
         0
 49
-1.0
 74
         0
 49
1.0
 74
         0
 49
-1.0
 74
         0
  0
LTYPE
  5
2D
100
AcDbSymbolTableRecord
100
AcDbLinetypeTableRecord
  2
DIVIDE
 70
        64
  3
____ . . ____ . . 
 72
        65
 73
         6
 40
23.0
 49
20.0
 74
         0
 49
-1.0
 74
         0
 49
0.0
 74
         0
 49
-1.0
 74
         0
 49
0.0
 74
         0
 49
-1.0
 74
         0
  0
ENDTAB
  0
TABLE
  2
LAYER
  5
2
100
AcDbSymbolTable
 70
         9
  0
LAYER
  5
14
100
AcDbSymbolTableRecord
100
AcDbLayerTableRecord
  2
0
 70
         0
 62
         7
  6
Continuous
290
         1
370
        -3
390
1D
  0
LAYER
  5
2E
100
AcDbSymbolTableRecord
100
AcDbLayerTableRecord
  2
LAYER1
 70
         0
 62
         7
  6
Continuous
290
         1
370
        -3
390
1F
  0
LAYER
  5
31
100
AcDbSymbolTableRecord
100
AcDbLayerTableRecord
  2
LAYER3
 70
         0
 62
         7
  6
Continuous
290
         1
370
        -3
390
1F
  0
LAYER
  5
46
100
AcDbSymbolTableRecord
100
AcDbLayerTableRecord
  2
LAYER0
 70
         0
 62
         7
  6
Continuous
290
         1
370
        -3
390
1F
  0
LAYER
  5
BA
100
AcDbSymbolTableRecord
100
AcDbLayerTableRecord
  2
LAYER2
 70
         0
 62
         7
  6
Continuous
290
         1
370
        -3
390
1F
  0
LAYER
  5
CE
100
AcDbSymbolTableRecord
100
AcDbLayerTableRecord
  2
LAYER7
 70
         0
 62
         7
  6
Continuous
290
         1
370
        -3
390
1F
  0
LAYER
  5
15B
100
AcDbSymbolTableRecord
100
AcDbLayerTableRecord
  2
LAYER6
 70
         0
 62
         7
  6
Continuous
290
         1
370
        -3
390
1F
  0
LAYER
  5
194
100
AcDbSymbolTableRecord
100
AcDbLayerTableRecord
  2
LAYER11
 70
         0
 62
         7
  6
Continuous
290
         1
370
        -3
390
1F
  0
LAYER
  5
1D7
100
AcDbSymbolTableRecord
100
AcDbLayerTableRecord
  2
LAYER4
 70
         0
 62
         7
  6
Continuous
290
         1
370
        -3
390
1F
  0
ENDTAB
  0
TABLE
  2
STYLE
  5
3
100
AcDbSymbolTable
 70
         1
  0
STYLE
  5
17
100
AcDbSymbolTableRecord
100
AcDbTextStyleTableRecord
  2
Standard
 70
         0
 40
0.0
 41
1.0
 50
0.0
 71
         0
 42
0.0
  3
txt
  4
extfont
  0
ENDTAB
  0
TABLE
  2
VIEW
  5
5
100
AcDbSymbolTable
 70
         0
  0
ENDTAB
  0
TABLE
  2
UCS
  5
6
100
AcDbSymbolTable
 70
         0
  0
ENDTAB
  0
TABLE
  2
APPID
  5
8
100
AcDbSymbolTable
 70
         1
  0
APPID
  5
16
100
AcDbSymbolTableRecord
100
AcDbRegAppTableRecord
  2
ACAD
 70
         0
  0
ENDTAB
  0
TABLE
  2
DIMSTYLE
  5
9
100
AcDbSymbolTable
 70
         1
100
AcDbDimStyleTable
 71
         0
  0
DIMSTYLE
105
18
100
AcDbSymbolTableRecord
100
AcDbDimStyleTableRecord
  2
Standard
 70
         0
  3

  4

 40
1.0
 41
0.18
 42
0.0625
 43
0.38
 44
0.18
 45
0.0
 46
0.0
 47
0.0
 48
0.0
 71
         0
 72
         0
 73
         1
 74
         1
 75
         0
 76
         0
 77
         0
 78
         0
 79
         0
140
0.18
141
0.09
142
0.0
143
25.4
144
1.0
145
0.0
146
1.0
147
0.09
148
0.0
170
         0
171
         2
172
         0
173
         0
174
         0
175
         0
176
         0
177
         0
178
         0
179
         0
271
         4
272
         4
273
         2
274
         2
275
         0
276
         0
277
         2
278
        46
279
         0
280
         0
281
         0
282
         0
283
         1
284
         0
285
         0
286
         0
288
         0
340
17
341
0
342
0
343
0
344
0
371
        -2
372
        -2
  0
ENDTAB
  0
TABLE
  2
BLOCK_RECORD
  5
1
100
AcDbSymbolTable
 70
        24
  0
BLOCK_RECORD
  5
A
100
AcDbSymbolTableRecord
100
AcDbBlockTableRecord
  2
*MODEL_SPACE
340
20
  0
BLOCK_RECORD
  5
B
100
AcDbSymbolTableRecord
100
AcDbBlockTableRecord
  2
*PAPER_SPACE
340
21
  0
BLOCK_RECORD
  5
40
100
AcDbSymbolTableRecord
100
AcDbBlockTableRecord
  2
CLUMP0
340
0
  0
BLOCK_RECORD
  5
43
100
AcDbSymbolTableRecord
100
AcDbBlockTableRecord
  2
CLUMP1
340
0
  0
BLOCK_RECORD
  5
4E
100
AcDbSymbolTableRecord
100
AcDbBlockTableRecord
  2
CLUMP2
340
0
  0
BLOCK_RECORD
  5
51
100
AcDbSymbolTableRecord
100
AcDbBlockTableRecord
  2
CLUMP3
340
0
  0
BLOCK_RECORD
  5
5D
100
AcDbSymbolTableRecord
100
AcDbBlockTableRecord
  2
CLUMP4
340
0
  0
BLOCK_RECORD
  5
60
100
AcDbSymbolTableRecord
100
AcDbBlockTableRecord
  2
CLUMP5
340
0
  0
BLOCK_RECORD
  5
6C
100
AcDbSymbolTableRecord
100
AcDbBlockTableRecord
  2
CLUMP6
340
0
  0
BLOCK_RECORD
  5
6F
100
AcDbSymbolTableRecord
100
AcDbBlockTableRecord
  2
CLUMP7
340
0
  0
BLOCK_RECORD
  5
7D
100
AcDbSymbolTableRecord
100
AcDbBlockTableRecord
  2
CLUMP8
340
0
  0
BLOCK_RECORD
  5
80
100
AcDbSymbolTableRecord
100
AcDbBlockTableRecord
  2
CLUMP9
340
0
  0
BLOCK_RECORD
  5
E7
100
AcDbSymbolTableRecord
100
AcDbBlockTableRecord
  2
CLUMP10
340
0
  0
BLOCK_RECORD
  5
EA
100
AcDbSymbolTableRecord
100
AcDbBlockTableRecord
  2
CLUMP11
340
0
  0
BLOCK_RECORD
  5
103
100
AcDbSymbolTableRecord
100
AcDbBlockTableRecord
  2
CLUMP12
340
0
  0
BLOCK_RECORD
  5
106
100
AcDbSymbolTableRecord
100
AcDbBlockTableRecord
  2
CLUMP13
340
0
  0
BLOCK_RECORD
  5
110
100
AcDbSymbolTableRecord
100
AcDbBlockTableRecord
  2
CLUMP14
340
0
  0
BLOCK_RECORD
  5
113
100
AcDbSymbolTableRecord
100
AcDbBlockTableRecord
  2
CLUMP15
340
0
  0
BLOCK_RECORD
  5
166
100
AcDbSymbolTableRecord
100
AcDbBlockTableRecord
  2
CLUMP16
340
0
  0
BLOCK_RECORD
  5
169
100
AcDbSymbolTableRecord
100
AcDbBlockTableRecord
  2
CLUMP17
340
0
  0
BLOCK_RECORD
  5
18E
100
AcDbSymbolTableRecord
100
AcDbBlockTableRecord
  2
CLUMP18
340
0
  0
BLOCK_RECORD
  5
191
100
AcDbSymbolTableRecord
100
AcDbBlockTableRecord
  2
CLUMP19
340
0
  0
BLOCK_RECORD
  5
19D
100
AcDbSymbolTableRecord
100
AcDbBlockTableRecord
  2
CLUMP20
340
0
  0
BLOCK_RECORD
  5
1A0
100
AcDbSymbolTableRecord
100
AcDbBlockTableRecord
  2
CLUMP21
340
0
  0
BLOCK_RECORD
  5
1C5
100
AcDbSymbolTableRecord
100
AcDbBlockTableRecord
  2
CLUMP22
340
0
  0
BLOCK_RECORD
  5
1C8
100
AcDbSymbolTableRecord
100
AcDbBlockTableRecord
  2
CLUMP23
340
0
  0
ENDTAB
  0
ENDSEC
  0
SECTION
  2
BLOCKS
  0
BLOCK
  5
D
100
AcDbEntity
  8
0
100
AcDbBlockBegin
  2
*MODEL_SPACE
 70
         0
 10
0.0
 20
0.0
 30
0.0
  3
*MODEL_SPACE
  1

  0
ENDBLK
  5
E
100
AcDbEntity
  8
0
100
AcDbBlockEnd
  0
BLOCK
  5
F
100
AcDbEntity
 67
         1
  8
0
100
AcDbBlockBegin
  2
*PAPER_SPACE
 70
         0
 10
0.0
 20
0.0
 30
0.0
  3
*PAPER_SPACE
  1

  0
ENDBLK
  5
10
100
AcDbEntity
 67
         1
  8
0
100
AcDbBlockEnd
  0
BLOCK
  5
42
100
AcDbEntity
  8
0
100
AcDbBlockBegin
  2
CLUMP0
 70
         0
 10
0.0
 20
0.0
 30
0.0
  3

  1

  0
INSERT
  5
44
100
AcDbEntity
  8
0
100
AcDbBlockReference
  2
CLUMP1
 10
0.0
 20
0.0
 30
0.0
  0
ENDBLK
  5
4D
100
AcDbEntity
  8
0
100
AcDbBlockEnd
  0
BLOCK
  5
45
100
AcDbEntity
  8
0
100
AcDbBlockBegin
  2
CLUMP1
 70
         0
 10
0.0
 20
0.0
 30
0.0
  3

  1

  0
LINE
  5
47
100
AcDbEntity
  8
LAYER0
 62
         3
100
AcDbLine
 10
21.842578421
 20
64.6367498338
 30
0.0
 11
21.4652926267
 21
63.2152352258
 31
0.0
  0
LINE
  5
48
100
AcDbEntity
  8
LAYER0
 62
         3
100
AcDbLine
 10
21.4652926267
 20
63.2152352258
 30
0.0
 11
21.338267294
 21
61.7499997719
 31
0.0
  0
LINE
  5
49
100
AcDbEntity
  8
LAYER0
 62
         3
100
AcDbLine
 10
21.338267294
 20
61.7499997719
 30
0.0
 11
21.4652927052
 21
60.2847643247
 31
0.0
  0
LINE
  5
4A
100
AcDbEntity
  8
LAYER0
 62
         3
100
AcDbLine
 10
21.4652927052
 20
60.2847643247
 30
0.0
 11
21.8425785757
 21
58.863249737
 31
0.0
  0
LINE
  5
4B
100
AcDbEntity
  8
LAYER0
 62
         3
100
AcDbLine
 10
21.8425785757
 20
58.863249737
 30
0.0
 11
21.842578421
 21
64.6367498338
 31
0.0
  0
ENDBLK
  5
4C
100
AcDbEntity
  8
0
100
AcDbBlockEnd
  0
BLOCK
  5
50
100
AcDbEntity
  8
0
100
AcDbBlockBegin
  2
CLUMP2
 70
         0
 10
0.0
 20
0.0
 30
0.0
  3

  1

  0
INSERT
  5
52
100
AcDbEntity
  8
0
100
AcDbBlockReference
  2
CLUMP3
 10
0.0
 20
0.0
 30
0.0
  0
ENDBLK
  5
5C
100
AcDbEntity
  8
0
100
AcDbBlockEnd
  0
BLOCK
  5
53
100
AcDbEntity
  8
0
100
AcDbBlockBegin
  2
CLUMP3
 70
         0
 10
0.0
 20
0.0
 30
0.0
  3

  1

  0
LINE
  5
54
100
AcDbEntity
  8
LAYER0
 62
         3
100
AcDbLine
 10
21.8425784289
 20
58.8632499726
 30
0.0
 11
21.6299213892
 21
58.4072015816
 31
0.0
  0
LINE
  5
55
100
AcDbEntity
  8
LAYER0
 62
         3
100
AcDbLine
 10
21.6299213892
 20
58.4072015816
 30
0.0
 11
21.4996863908
 21
57.921153797
 31
0.0
  0
LINE
  5
56
100
AcDbEntity
  8
LAYER0
 62
         3
100
AcDbLine
 10
21.4996863908
 20
57.921153797
 30
0.0
 11
21.4558305549
 21
57.4198749226
 31
0.0
  0
LINE
  5
57
100
AcDbEntity
  8
LAYER0
 62
         3
100
AcDbLine
 10
21.4558305549
 20
57.4198749226
 30
0.0
 11
21.4996864177
 21
56.9185960506
 31
0.0
  0
LINE
  5
58
100
AcDbEntity
  8
LAYER0
 62
         3
100
AcDbLine
 10
21.4996864177
 20
56.9185960506
 30
0.0
 11
21.6299214422
 21
56.4325482731
 31
0.0
  0
LINE
  5
59
100
AcDbEntity
  8
LAYER0
 62
         3
100
AcDbLine
 10
21.6299214422
 20
56.4325482731
 30
0.0
 11
21.8425785063
 21
55.9764998934
 31
0.0
  0
LINE
  5
5A
100
AcDbEntity
  8
LAYER0
 62
         3
100
AcDbLine
 10
21.8425785063
 20
55.9764998934
 30
0.0
 11
21.8425784289
 21
58.8632499726
 31
0.0
  0
ENDBLK
  5
5B
100
AcDbEntity
  8
0
100
AcDbBlockEnd
  0
BLOCK
  5
5F
100
AcDbEntity
  8
0
100
AcDbBlockBegin
  2
CLUMP4
 70
         0
 10
0.0
 20
0.0
 30
0.0
  3

  1

  0
INSERT
  5
61
100
AcDbEntity
  8
0
100
AcDbBlockReference
  2
CLUMP5
 10
0.0
 20
0.0
 30
0.0
  0
ENDBLK
  5
6B
100
AcDbEntity
  8
0
100
AcDbBlockEnd
  0
BLOCK
  5
62
100
AcDbEntity
  8
0
100
AcDbBlockBegin
  2
CLUMP5
 70
         0
 10
0.0
 20
0.0
 30
0.0
  3

  1

  0
LINE
  5
63
100
AcDbEntity
  8
LAYER0
 62
         3
100
AcDbLine
 10
21.8425784289
 20
67.5234999726
 30
0.0
 11
21.6299213892
 21
67.0674515816
 31
0.0
  0
LINE
  5
64
100
AcDbEntity
  8
LAYER0
 62
         3
100
AcDbLine
 10
21.6299213892
 20
67.0674515816
 30
0.0
 11
21.4996863908
 21
66.581403797
 31
0.0
  0
LINE
  5
65
100
AcDbEntity
  8
LAYER0
 62
         3
100
AcDbLine
 10
21.4996863908
 20
66.581403797
 30
0.0
 11
21.4558305549
 21
66.0801249226
 31
0.0
  0
LINE
  5
66
100
AcDbEntity
  8
LAYER0
 62
         3
100
AcDbLine
 10
21.4558305549
 20
66.0801249226
 30
0.0
 11
21.4996864177
 21
65.5788460506
 31
0.0
  0
LINE
  5
67
100
AcDbEntity
  8
LAYER0
 62
         3
100
AcDbLine
 10
21.4996864177
 20
65.5788460506
 30
0.0
 11
21.6299214422
 21
65.0927982731
 31
0.0
  0
LINE
  5
68
100
AcDbEntity
  8
LAYER0
 62
         3
100
AcDbLine
 10
21.6299214422
 20
65.0927982731
 30
0.0
 11
21.8425785063
 21
64.6367498934
 31
0.0
  0
LINE
  5
69
100
AcDbEntity
  8
LAYER0
 62
         3
100
AcDbLine
 10
21.8425785063
 20
64.6367498934
 30
0.0
 11
21.8425784289
 21
67.5234999726
 31
0.0
  0
ENDBLK
  5
6A
100
AcDbEntity
  8
0
100
AcDbBlockEnd
  0
BLOCK
  5
6E
100
AcDbEntity
  8
0
100
AcDbBlockBegin
  2
CLUMP6
 70
         0
 10
0.0
 20
0.0
 30
0.0
  3

  1

  0
INSERT
  5
70
100
AcDbEntity
  8
0
100
AcDbBlockReference
  2
CLUMP7
 10
0.0
 20
0.0
 30
0.0
  0
ENDBLK
  5
7C
100
AcDbEntity
  8
0
100
AcDbBlockEnd
  0
BLOCK
  5
71
100
AcDbEntity
  8
0
100
AcDbBlockBegin
  2
CLUMP7
 70
         0
 10
0.0
 20
0.0
 30
0.0
  3

  1

  0
LINE
  5
72
100
AcDbEntity
  8
LAYER1
 62
         3
100
AcDbLine
 10
50.9382352941
 20
74.25
 30
0.0
 11
28.6382352941
 21
74.25
 31
0.0
  0
LINE
  5
73
100
AcDbEntity
  8
LAYER1
 62
         3
100
AcDbLine
 10
50.9382352941
 20
49.25
 30
0.0
 11
30.9382352941
 21
49.25
 31
0.0
  0
LINE
  5
74
100
AcDbEntity
  8
LAYER1
 62
         3
100
AcDbLine
 10
30.9382352941
 20
49.25
 30
0.0
 11
30.9382352941
 21
74.25
 31
0.0
  0
LINE
  5
75
100
AcDbEntity
  8
LAYER1
 62
         3
100
AcDbLine
 10
28.6382352941
 20
49.25
 30
0.0
 11
28.6382352941
 21
74.25
 31
0.0
  0
LINE
  5
76
100
AcDbEntity
  8
LAYER1
 62
         3
100
AcDbLine
 10
30.9382352941
 20
49.25
 30
0.0
 11
2.138235294
 21
49.25
 31
0.0
  0
LINE
  5
77
100
AcDbEntity
  8
LAYER1
 62
         3
100
AcDbLine
 10
28.6382352941
 20
46.95
 30
0.0
 11
2.138235294
 21
46.95
 31
0.0
  0
LINE
  5
78
100
AcDbEntity
  8
LAYER1
 62
         3
100
AcDbLine
 10
2.138235294
 20
49.25
 30
0.0
 11
2.138235294
 21
46.95
 31
0.0
  0
ARC
  5
79
100
AcDbEntity
  8
LAYER1
 62
         3
100
AcDbCircle
 10
28.6382352941
 20
49.25
 30
0.0
 40
2.3
210
-0.0
220
0.0
230
1.0
100
AcDbArc
 50
269.9999984648
 51
0.0
  0
LINE
  5
7A
100
AcDbEntity
  8
LAYER1
 62
         3
100
AcDbLine
 10
50.9382352941
 20
74.25
 30
0.0
 11
50.9382352941
 21
49.25
 31
0.0
  0
ENDBLK
  5
7B
100
AcDbEntity
  8
0
100
AcDbBlockEnd
  0
BLOCK
  5
7F
100
AcDbEntity
  8
0
100
AcDbBlockBegin
  2
CLUMP8
 70
         0
 10
0.0
 20
0.0
 30
0.0
  3

  1

  0
INSERT
  5
81
100
AcDbEntity
  8
0
100
AcDbBlockReference
  2
CLUMP9
 10
0.0
 20
0.0
 30
0.0
  0
ENDBLK
  5
8E
100
AcDbEntity
  8
0
100
AcDbBlockEnd
  0
BLOCK
  5
82
100
AcDbEntity
  8
0
100
AcDbBlockBegin
  2
CLUMP9
 70
         0
 10
0.0
 20
0.0
 30
0.0
  3

  1

  0
LINE
  5
83
100
AcDbEntity
  8
LAYER1
 62
         3
100
AcDbLine
 10
6.3382352941
 20
74.25
 30
0.0
 11
55.1382352941
 21
74.25
 31
0.0
  0
LINE
  5
84
100
AcDbEntity
  8
LAYER1
 62
         3
100
AcDbLine
 10
28.6382352941
 20
76.55
 30
0.0
 11
55.1382352941
 21
76.55
 31
0.0
  0
LINE
  5
85
100
AcDbEntity
  8
LAYER1
 62
         3
100
AcDbLine
 10
26.3382352941
 20
74.25
 30
0.0
 11
26.3382352941
 21
49.25
 31
0.0
  0
LINE
  5
86
100
AcDbEntity
  8
LAYER1
 62
         3
100
AcDbLine
 10
28.6382352941
 20
74.25
 30
0.0
 11
28.6382352941
 21
49.25
 31
0.0
  0
LINE
  5
87
100
AcDbEntity
  8
LAYER1
 62
         3
100
AcDbLine
 10
26.3382352941
 20
74.25
 30
0.0
 11
26.3382352941
 21
49.25
 31
0.0
  0
LINE
  5
88
100
AcDbEntity
  8
LAYER1
 62
         3
100
AcDbLine
 10
6.3382352941
 20
74.25
 30
0.0
 11
26.3382352941
 21
74.25
 31
0.0
  0
ARC
  5
89
100
AcDbEntity
  8
LAYER1
 62
         3
100
AcDbCircle
 10
28.6382352941
 20
74.25
 30
0.0
 40
2.3
210
0.0
220
0.0
230
1.0
100
AcDbArc
 50
90.0000015352
 51
179.9999969295
  0
LINE
  5
8A
100
AcDbEntity
  8
LAYER1
 62
         3
100
AcDbLine
 10
55.1382352941
 20
74.25
 30
0.0
 11
55.1382352941
 21
76.55
 31
0.0
  0
LINE
  5
8B
100
AcDbEntity
  8
LAYER1
 62
         3
100
AcDbLine
 10
6.3382352941
 20
49.25
 30
0.0
 11
28.6382352941
 21
49.25
 31
0.0
  0
LINE
  5
8C
100
AcDbEntity
  8
LAYER1
 62
         3
100
AcDbLine
 10
6.3382352941
 20
49.25
 30
0.0
 11
6.3382352941
 21
74.25
 31
0.0
  0
ENDBLK
  5
8D
100
AcDbEntity
  8
0
100
AcDbBlockEnd
  0
BLOCK
  5
E9
100
AcDbEntity
  8
0
100
AcDbBlockBegin
  2
CLUMP10
 70
         0
 10
0.0
 20
0.0
 30
0.0
  3

  1

  0
INSERT
  5
EB
100
AcDbEntity
  8
0
100
AcDbBlockReference
  2
CLUMP11
 10
0.0
 20
0.0
 30
0.0
  0
ENDBLK
  5
F5
100
AcDbEntity
  8
0
100
AcDbBlockEnd
  0
BLOCK
  5
EC
100
AcDbEntity
  8
0
100
AcDbBlockBegin
  2
CLUMP11
 70
         0
 10
0.0
 20
0.0
 30
0.0
  3

  1

  0
LINE
  5
ED
100
AcDbEntity
  8
LAYER0
 62
         3
100
AcDbLine
 10
21.8425784289
 20
-12.0801523602
 30
0.0
 11
21.6299213893
 21
-12.5362007512
 31
0.0
  0
LINE
  5
EE
100
AcDbEntity
  8
LAYER0
 62
         3
100
AcDbLine
 10
21.6299213893
 20
-12.5362007512
 30
0.0
 11
21.4996863908
 21
-13.0222485357
 31
0.0
  0
LINE
  5
EF
100
AcDbEntity
  8
LAYER0
 62
         3
100
AcDbLine
 10
21.4996863908
 20
-13.0222485357
 30
0.0
 11
21.4558305549
 21
-13.5235274101
 31
0.0
  0
LINE
  5
F0
100
AcDbEntity
  8
LAYER0
 62
         3
100
AcDbLine
 10
21.4558305549
 20
-13.5235274101
 30
0.0
 11
21.4996864177
 21
-14.0248062821
 31
0.0
  0
LINE
  5
F1
100
AcDbEntity
  8
LAYER0
 62
         3
100
AcDbLine
 10
21.4996864177
 20
-14.0248062821
 30
0.0
 11
21.6299214422
 21
-14.5108540597
 31
0.0
  0
LINE
  5
F2
100
AcDbEntity
  8
LAYER0
 62
         3
100
AcDbLine
 10
21.6299214422
 20
-14.5108540597
 30
0.0
 11
21.8425785063
 21
-14.9669024393
 31
0.0
  0
LINE
  5
F3
100
AcDbEntity
  8
LAYER0
 62
         3
100
AcDbLine
 10
21.8425785063
 20
-14.9669024393
 30
0.0
 11
21.8425784289
 21
-12.0801523602
 31
0.0
  0
ENDBLK
  5
F4
100
AcDbEntity
  8
0
100
AcDbBlockEnd
  0
BLOCK
  5
105
100
AcDbEntity
  8
0
100
AcDbBlockBegin
  2
CLUMP12
 70
         0
 10
0.0
 20
0.0
 30
0.0
  3

  1

  0
INSERT
  5
107
100
AcDbEntity
  8
0
100
AcDbBlockReference
  2
CLUMP13
 10
0.0
 20
0.0
 30
0.0
  0
ENDBLK
  5
10F
100
AcDbEntity
  8
0
100
AcDbBlockEnd
  0
BLOCK
  5
108
100
AcDbEntity
  8
0
100
AcDbBlockBegin
  2
CLUMP13
 70
         0
 10
0.0
 20
0.0
 30
0.0
  3

  1

  0
LINE
  5
109
100
AcDbEntity
  8
LAYER0
 62
         3
100
AcDbLine
 10
21.8425784211
 20
-14.966902499
 30
0.0
 11
21.4652926267
 21
-16.3884171069
 31
0.0
  0
LINE
  5
10A
100
AcDbEntity
  8
LAYER0
 62
         3
100
AcDbLine
 10
21.4652926267
 20
-16.3884171069
 30
0.0
 11
21.3382672941
 21
-17.8536525609
 31
0.0
  0
LINE
  5
10B
100
AcDbEntity
  8
LAYER0
 62
         3
100
AcDbLine
 10
21.3382672941
 20
-17.8536525609
 30
0.0
 11
21.4652927052
 21
-19.318888008
 31
0.0
  0
LINE
  5
10C
100
AcDbEntity
  8
LAYER0
 62
         3
100
AcDbLine
 10
21.4652927052
 20
-19.318888008
 30
0.0
 11
21.8425785757
 21
-20.7404025958
 31
0.0
  0
LINE
  5
10D
100
AcDbEntity
  8
LAYER0
 62
         3
100
AcDbLine
 10
21.8425785757
 20
-20.7404025958
 30
0.0
 11
21.8425784211
 21
-14.966902499
 31
0.0
  0
ENDBLK
  5
10E
100
AcDbEntity
  8
0
100
AcDbBlockEnd
  0
BLOCK
  5
112
100
AcDbEntity
  8
0
100
AcDbBlockBegin
  2
CLUMP14
 70
         0
 10
0.0
 20
0.0
 30
0.0
  3

  1

  0
INSERT
  5
114
100
AcDbEntity
  8
0
100
AcDbBlockReference
  2
CLUMP15
 10
0.0
 20
0.0
 30
0.0
  0
ENDBLK
  5
11E
100
AcDbEntity
  8
0
100
AcDbBlockEnd
  0
BLOCK
  5
115
100
AcDbEntity
  8
0
100
AcDbBlockBegin
  2
CLUMP15
 70
         0
 10
0.0
 20
0.0
 30
0.0
  3

  1

  0
LINE
  5
116
100
AcDbEntity
  8
LAYER0
 62
         3
100
AcDbLine
 10
21.8425784289
 20
-20.7404023602
 30
0.0
 11
21.6299213892
 21
-21.1964507512
 31
0.0
  0
LINE
  5
117
100
AcDbEntity
  8
LAYER0
 62
         3
100
AcDbLine
 10
21.6299213892
 20
-21.1964507512
 30
0.0
 11
21.4996863908
 21
-21.6824985357
 31
0.0
  0
LINE
  5
118
100
AcDbEntity
  8
LAYER0
 62
         3
100
AcDbLine
 10
21.4996863908
 20
-21.6824985357
 30
0.0
 11
21.4558305549
 21
-22.1837774101
 31
0.0
  0
LINE
  5
119
100
AcDbEntity
  8
LAYER0
 62
         3
100
AcDbLine
 10
21.4558305549
 20
-22.1837774101
 30
0.0
 11
21.4996864177
 21
-22.6850562821
 31
0.0
  0
LINE
  5
11A
100
AcDbEntity
  8
LAYER0
 62
         3
100
AcDbLine
 10
21.4996864177
 20
-22.6850562821
 30
0.0
 11
21.6299214422
 21
-23.1711040597
 31
0.0
  0
LINE
  5
11B
100
AcDbEntity
  8
LAYER0
 62
         3
100
AcDbLine
 10
21.6299214422
 20
-23.1711040597
 30
0.0
 11
21.8425785063
 21
-23.6271524393
 31
0.0
  0
LINE
  5
11C
100
AcDbEntity
  8
LAYER0
 62
         3
100
AcDbLine
 10
21.8425785063
 20
-23.6271524393
 30
0.0
 11
21.8425784289
 21
-20.7404023602
 31
0.0
  0
ENDBLK
  5
11D
100
AcDbEntity
  8
0
100
AcDbBlockEnd
  0
BLOCK
  5
168
100
AcDbEntity
  8
0
100
AcDbBlockBegin
  2
CLUMP16
 70
         0
 10
0.0
 20
0.0
 30
0.0
  3

  1

  0
INSERT
  5
16A
100
AcDbEntity
  8
0
100
AcDbBlockReference
  2
CLUMP17
 10
0.0
 20
0.0
 30
0.0
  0
ENDBLK
  5
18D
100
AcDbEntity
  8
0
100
AcDbBlockEnd
  0
BLOCK
  5
16B
100
AcDbEntity
  8
0
100
AcDbBlockBegin
  2
CLUMP17
 70
         0
 10
0.0
 20
0.0
 30
0.0
  3

  1

  0
LINE
  5
16C
100
AcDbEntity
  8
LAYER0
 62
         3
100
AcDbLine
 10
-37.7037984737
 20
-19.7670541872
 30
0.0
 11
-38.1658480747
 21
-20.631481275
 31
0.0
  0
LINE
  5
16D
100
AcDbEntity
  8
LAYER0
 62
         3
100
AcDbLine
 10
-38.1658480747
 20
-20.631481275
 30
0.0
 11
-38.7876622303
 21
-21.3891579544
 31
0.0
  0
LINE
  5
16E
100
AcDbEntity
  8
LAYER0
 62
         3
100
AcDbLine
 10
-38.7876622303
 20
-21.3891579544
 30
0.0
 11
-39.5453449712
 21
-22.0109671355
 31
0.0
  0
LINE
  5
16F
100
AcDbEntity
  8
LAYER0
 62
         3
100
AcDbLine
 10
-39.5453449712
 20
-22.0109671355
 30
0.0
 11
-40.4097789744
 21
-22.4730130401
 31
0.0
  0
LINE
  5
170
100
AcDbEntity
  8
LAYER0
 62
         3
100
AcDbLine
 10
-40.4097789744
 20
-22.4730130401
 30
0.0
 11
-41.3477445262
 21
-22.7575395033
 31
0.0
  0
LINE
  5
171
100
AcDbEntity
  8
LAYER0
 62
         3
100
AcDbLine
 10
-41.3477445262
 20
-22.7575395033
 30
0.0
 11
-42.3231961363
 21
-22.8536123327
 31
0.0
  0
LINE
  5
172
100
AcDbEntity
  8
LAYER0
 62
         3
100
AcDbLine
 10
-42.3231961363
 20
-22.8536123327
 30
0.0
 11
-43.2986477463
 21
-22.7575395033
 31
0.0
  0
LINE
  5
173
100
AcDbEntity
  8
LAYER0
 62
         3
100
AcDbLine
 10
-43.2986477463
 20
-22.7575395033
 30
0.0
 11
-44.2366132981
 21
-22.4730130401
 31
0.0
  0
LINE
  5
174
100
AcDbEntity
  8
LAYER0
 62
         3
100
AcDbLine
 10
-44.2366132981
 20
-22.4730130401
 30
0.0
 11
-45.1010473014
 21
-22.0109671355
 31
0.0
  0
LINE
  5
175
100
AcDbEntity
  8
LAYER0
 62
         3
100
AcDbLine
 10
-45.1010473014
 20
-22.0109671355
 30
0.0
 11
-45.8587300422
 21
-21.3891579544
 31
0.0
  0
LINE
  5
176
100
AcDbEntity
  8
LAYER0
 62
         3
100
AcDbLine
 10
-45.8587300422
 20
-21.3891579544
 30
0.0
 11
-46.4805441978
 21
-20.631481275
 31
0.0
  0
LINE
  5
177
100
AcDbEntity
  8
LAYER0
 62
         3
100
AcDbLine
 10
-46.4805441978
 20
-20.631481275
 30
0.0
 11
-46.9425937988
 21
-19.7670541872
 31
0.0
  0
LINE
  5
178
100
AcDbEntity
  8
LAYER0
 62
         3
100
AcDbLine
 10
-46.9425937988
 20
-19.7670541872
 30
0.0
 11
-47.2271225383
 21
-18.8290961392
 31
0.0
  0
LINE
  5
179
100
AcDbEntity
  8
LAYER0
 62
         3
100
AcDbLine
 10
-47.2271225383
 20
-18.8290961392
 30
0.0
 11
-47.3231961363
 21
-17.8536523327
 31
0.0
  0
LINE
  5
17A
100
AcDbEntity
  8
LAYER0
 62
         3
100
AcDbLine
 10
-47.3231961363
 20
-17.8536523327
 30
0.0
 11
-47.2271225383
 21
-16.8782085263
 31
0.0
  0
LINE
  5
17B
100
AcDbEntity
  8
LAYER0
 62
         3
100
AcDbLine
 10
-47.2271225383
 20
-16.8782085263
 30
0.0
 11
-46.9425937988
 21
-15.9402504782
 31
0.0
  0
LINE
  5
17C
100
AcDbEntity
  8
LAYER0
 62
         3
100
AcDbLine
 10
-46.9425937988
 20
-15.9402504782
 30
0.0
 11
-46.4805441978
 21
-15.0758233904
 31
0.0
  0
LINE
  5
17D
100
AcDbEntity
  8
LAYER0
 62
         3
100
AcDbLine
 10
-46.4805441978
 20
-15.0758233904
 30
0.0
 11
-45.8587300422
 21
-14.3181467111
 31
0.0
  0
LINE
  5
17E
100
AcDbEntity
  8
LAYER0
 62
         3
100
AcDbLine
 10
-45.8587300422
 20
-14.3181467111
 30
0.0
 11
-45.1010473014
 21
-13.69633753
 31
0.0
  0
LINE
  5
17F
100
AcDbEntity
  8
LAYER0
 62
         3
100
AcDbLine
 10
-45.1010473014
 20
-13.69633753
 30
0.0
 11
-44.2366132981
 21
-13.2342916254
 31
0.0
  0
LINE
  5
180
100
AcDbEntity
  8
LAYER0
 62
         3
100
AcDbLine
 10
-44.2366132981
 20
-13.2342916254
 30
0.0
 11
-43.2986477463
 21
-12.9497651621
 31
0.0
  0
LINE
  5
181
100
AcDbEntity
  8
LAYER0
 62
         3
100
AcDbLine
 10
-43.2986477463
 20
-12.9497651621
 30
0.0
 11
-42.3231961363
 21
-12.8536923327
 31
0.0
  0
LINE
  5
182
100
AcDbEntity
  8
LAYER0
 62
         3
100
AcDbLine
 10
-42.3231961363
 20
-12.8536923327
 30
0.0
 11
-41.3477445262
 21
-12.9497651621
 31
0.0
  0
LINE
  5
183
100
AcDbEntity
  8
LAYER0
 62
         3
100
AcDbLine
 10
-41.3477445262
 20
-12.9497651621
 30
0.0
 11
-40.4097789744
 21
-13.2342916254
 31
0.0
  0
LINE
  5
184
100
AcDbEntity
  8
LAYER0
 62
         3
100
AcDbLine
 10
-40.4097789744
 20
-13.2342916254
 30
0.0
 11
-39.5453449712
 21
-13.69633753
 31
0.0
  0
LINE
  5
185
100
AcDbEntity
  8
LAYER0
 62
         3
100
AcDbLine
 10
-39.5453449712
 20
-13.69633753
 30
0.0
 11
-38.7876622303
 21
-14.3181467111
 31
0.0
  0
LINE
  5
186
100
AcDbEntity
  8
LAYER0
 62
         3
100
AcDbLine
 10
-38.7876622303
 20
-14.3181467111
 30
0.0
 11
-38.1658480747
 21
-15.0758233904
 31
0.0
  0
LINE
  5
187
100
AcDbEntity
  8
LAYER0
 62
         3
100
AcDbLine
 10
-38.1658480747
 20
-15.0758233904
 30
0.0
 11
-37.7037984737
 21
-15.9402504782
 31
0.0
  0
LINE
  5
188
100
AcDbEntity
  8
LAYER0
 62
         3
100
AcDbLine
 10
-37.7037984737
 20
-15.9402504782
 30
0.0
 11
-37.4192697342
 21
-16.8782085263
 31
0.0
  0
LINE
  5
189
100
AcDbEntity
  8
LAYER0
 62
         3
100
AcDbLine
 10
-37.4192697342
 20
-16.8782085263
 30
0.0
 11
-37.3231961363
 21
-17.8536523327
 31
0.0
  0
LINE
  5
18A
100
AcDbEntity
  8
LAYER0
 62
         3
100
AcDbLine
 10
-37.3231961363
 20
-17.8536523327
 30
0.0
 11
-37.4192697342
 21
-18.8290961392
 31
0.0
  0
LINE
  5
18B
100
AcDbEntity
  8
LAYER0
 62
         3
100
AcDbLine
 10
-37.4192697342
 20
-18.8290961392
 30
0.0
 11
-37.7037984737
 21
-19.7670541872
 31
0.0
  0
ENDBLK
  5
18C
100
AcDbEntity
  8
0
100
AcDbBlockEnd
  0
BLOCK
  5
190
100
AcDbEntity
  8
0
100
AcDbBlockBegin
  2
CLUMP18
 70
         0
 10
0.0
 20
0.0
 30
0.0
  3

  1

  0
INSERT
  5
192
100
AcDbEntity
  8
0
100
AcDbBlockReference
  2
CLUMP19
 10
0.0
 20
0.0
 30
0.0
  0
ENDBLK
  5
19C
100
AcDbEntity
  8
0
100
AcDbBlockEnd
  0
BLOCK
  5
193
100
AcDbEntity
  8
0
100
AcDbBlockBegin
  2
CLUMP19
 70
         0
 10
0.0
 20
0.0
 30
0.0
  3

  1

  0
LINE
  5
195
100
AcDbEntity
  8
LAYER11
 62
         3
100
AcDbLine
 10
-37.3231961363
 20
-20.7403805847
 30
0.0
 11
-42.3231961363
 21
-23.6271088366
 31
0.0
  0
LINE
  5
196
100
AcDbEntity
  8
LAYER11
 62
         3
100
AcDbLine
 10
-42.3231961363
 20
-23.6271088366
 30
0.0
 11
-47.3231961363
 21
-20.7403805847
 31
0.0
  0
LINE
  5
197
100
AcDbEntity
  8
LAYER11
 62
         3
100
AcDbLine
 10
-47.3231961363
 20
-20.7403805847
 30
0.0
 11
-47.3231961363
 21
-14.9669240808
 31
0.0
  0
LINE
  5
198
100
AcDbEntity
  8
LAYER11
 62
         3
100
AcDbLine
 10
-47.3231961363
 20
-14.9669240808
 30
0.0
 11
-42.3231961363
 21
-12.0801958289
 31
0.0
  0
LINE
  5
199
100
AcDbEntity
  8
LAYER11
 62
         3
100
AcDbLine
 10
-42.3231961363
 20
-12.0801958289
 30
0.0
 11
-37.3231961363
 21
-14.9669240808
 31
0.0
  0
LINE
  5
19A
100
AcDbEntity
  8
LAYER11
 62
         3
100
AcDbLine
 10
-37.3231961363
 20
-14.9669240808
 30
0.0
 11
-37.3231961363
 21
-20.7403805847
 31
0.0
  0
ENDBLK
  5
19B
100
AcDbEntity
  8
0
100
AcDbBlockEnd
  0
BLOCK
  5
19F
100
AcDbEntity
  8
0
100
AcDbBlockBegin
  2
CLUMP20
 70
         0
 10
0.0
 20
0.0
 30
0.0
  3

  1

  0
INSERT
  5
1A1
100
AcDbEntity
  8
0
100
AcDbBlockReference
  2
CLUMP21
 10
0.0
 20
0.0
 30
0.0
  0
ENDBLK
  5
1C4
100
AcDbEntity
  8
0
100
AcDbBlockEnd
  0
BLOCK
  5
1A2
100
AcDbEntity
  8
0
100
AcDbBlockBegin
  2
CLUMP21
 70
         0
 10
0.0
 20
0.0
 30
0.0
  3

  1

  0
LINE
  5
1A3
100
AcDbEntity
  8
LAYER0
 62
         3
100
AcDbLine
 10
-41.86125637
 20
-18.0449925182
 30
0.0
 11
-41.9074613301
 21
-18.131435227
 31
0.0
  0
LINE
  5
1A4
100
AcDbEntity
  8
LAYER0
 62
         3
100
AcDbLine
 10
-41.9074613301
 20
-18.131435227
 30
0.0
 11
-41.9696427457
 21
-18.2072028949
 31
0.0
  0
LINE
  5
1A5
100
AcDbEntity
  8
LAYER0
 62
         3
100
AcDbLine
 10
-41.9696427457
 20
-18.2072028949
 30
0.0
 11
-42.0454110197
 21
-18.269383813
 31
0.0
  0
LINE
  5
1A6
100
AcDbEntity
  8
LAYER0
 62
         3
100
AcDbLine
 10
-42.0454110197
 20
-18.269383813
 30
0.0
 11
-42.1318544201
 21
-18.3155884035
 31
0.0
  0
LINE
  5
1A7
100
AcDbEntity
  8
LAYER0
 62
         3
100
AcDbLine
 10
-42.1318544201
 20
-18.3155884035
 30
0.0
 11
-42.2256509752
 21
-18.3440410498
 31
0.0
  0
LINE
  5
1A8
100
AcDbEntity
  8
LAYER0
 62
         3
100
AcDbLine
 10
-42.2256509752
 20
-18.3440410498
 30
0.0
 11
-42.3231961363
 21
-18.3536483327
 31
0.0
  0
LINE
  5
1A9
100
AcDbEntity
  8
LAYER0
 62
         3
100
AcDbLine
 10
-42.3231961363
 20
-18.3536483327
 30
0.0
 11
-42.4207412973
 21
-18.3440410498
 31
0.0
  0
LINE
  5
1AA
100
AcDbEntity
  8
LAYER0
 62
         3
100
AcDbLine
 10
-42.4207412973
 20
-18.3440410498
 30
0.0
 11
-42.5145378524
 21
-18.3155884035
 31
0.0
  0
LINE
  5
1AB
100
AcDbEntity
  8
LAYER0
 62
         3
100
AcDbLine
 10
-42.5145378524
 20
-18.3155884035
 30
0.0
 11
-42.6009812528
 21
-18.269383813
 31
0.0
  0
LINE
  5
1AC
100
AcDbEntity
  8
LAYER0
 62
         3
100
AcDbLine
 10
-42.6009812528
 20
-18.269383813
 30
0.0
 11
-42.6767495268
 21
-18.2072028949
 31
0.0
  0
LINE
  5
1AD
100
AcDbEntity
  8
LAYER0
 62
         3
100
AcDbLine
 10
-42.6767495268
 20
-18.2072028949
 30
0.0
 11
-42.7389309424
 21
-18.131435227
 31
0.0
  0
LINE
  5
1AE
100
AcDbEntity
  8
LAYER0
 62
         3
100
AcDbLine
 10
-42.7389309424
 20
-18.131435227
 30
0.0
 11
-42.7851359025
 21
-18.0449925182
 31
0.0
  0
LINE
  5
1AF
100
AcDbEntity
  8
LAYER0
 62
         3
100
AcDbLine
 10
-42.7851359025
 20
-18.0449925182
 30
0.0
 11
-42.8135887765
 21
-17.9511967134
 31
0.0
  0
LINE
  5
1B0
100
AcDbEntity
  8
LAYER0
 62
         3
100
AcDbLine
 10
-42.8135887765
 20
-17.9511967134
 30
0.0
 11
-42.8231961363
 21
-17.8536523327
 31
0.0
  0
LINE
  5
1B1
100
AcDbEntity
  8
LAYER0
 62
         3
100
AcDbLine
 10
-42.8231961363
 20
-17.8536523327
 30
0.0
 11
-42.8135887765
 21
-17.7561079521
 31
0.0
  0
LINE
  5
1B2
100
AcDbEntity
  8
LAYER0
 62
         3
100
AcDbLine
 10
-42.8135887765
 20
-17.7561079521
 30
0.0
 11
-42.7851359025
 21
-17.6623121473
 31
0.0
  0
LINE
  5
1B3
100
AcDbEntity
  8
LAYER0
 62
         3
100
AcDbLine
 10
-42.7851359025
 20
-17.6623121473
 30
0.0
 11
-42.7389309424
 21
-17.5758694385
 31
0.0
  0
LINE
  5
1B4
100
AcDbEntity
  8
LAYER0
 62
         3
100
AcDbLine
 10
-42.7389309424
 20
-17.5758694385
 30
0.0
 11
-42.6767495268
 21
-17.5001017706
 31
0.0
  0
LINE
  5
1B5
100
AcDbEntity
  8
LAYER0
 62
         3
100
AcDbLine
 10
-42.6767495268
 20
-17.5001017706
 30
0.0
 11
-42.6009812528
 21
-17.4379208525
 31
0.0
  0
LINE
  5
1B6
100
AcDbEntity
  8
LAYER0
 62
         3
100
AcDbLine
 10
-42.6009812528
 20
-17.4379208525
 30
0.0
 11
-42.5145378524
 21
-17.391716262
 31
0.0
  0
LINE
  5
1B7
100
AcDbEntity
  8
LAYER0
 62
         3
100
AcDbLine
 10
-42.5145378524
 20
-17.391716262
 30
0.0
 11
-42.4207412973
 21
-17.3632636157
 31
0.0
  0
LINE
  5
1B8
100
AcDbEntity
  8
LAYER0
 62
         3
100
AcDbLine
 10
-42.4207412973
 20
-17.3632636157
 30
0.0
 11
-42.3231961363
 21
-17.3536563327
 31
0.0
  0
LINE
  5
1B9
100
AcDbEntity
  8
LAYER0
 62
         3
100
AcDbLine
 10
-42.3231961363
 20
-17.3536563327
 30
0.0
 11
-42.2256509752
 21
-17.3632636157
 31
0.0
  0
LINE
  5
1BA
100
AcDbEntity
  8
LAYER0
 62
         3
100
AcDbLine
 10
-42.2256509752
 20
-17.3632636157
 30
0.0
 11
-42.1318544201
 21
-17.391716262
 31
0.0
  0
LINE
  5
1BB
100
AcDbEntity
  8
LAYER0
 62
         3
100
AcDbLine
 10
-42.1318544201
 20
-17.391716262
 30
0.0
 11
-42.0454110197
 21
-17.4379208525
 31
0.0
  0
LINE
  5
1BC
100
AcDbEntity
  8
LAYER0
 62
         3
100
AcDbLine
 10
-42.0454110197
 20
-17.4379208525
 30
0.0
 11
-41.9696427457
 21
-17.5001017706
 31
0.0
  0
LINE
  5
1BD
100
AcDbEntity
  8
LAYER0
 62
         3
100
AcDbLine
 10
-41.9696427457
 20
-17.5001017706
 30
0.0
 11
-41.9074613301
 21
-17.5758694385
 31
0.0
  0
LINE
  5
1BE
100
AcDbEntity
  8
LAYER0
 62
         3
100
AcDbLine
 10
-41.9074613301
 20
-17.5758694385
 30
0.0
 11
-41.86125637
 21
-17.6623121473
 31
0.0
  0
LINE
  5
1BF
100
AcDbEntity
  8
LAYER0
 62
         3
100
AcDbLine
 10
-41.86125637
 20
-17.6623121473
 30
0.0
 11
-41.8328034961
 21
-17.7561079521
 31
0.0
  0
LINE
  5
1C0
100
AcDbEntity
  8
LAYER0
 62
         3
100
AcDbLine
 10
-41.8328034961
 20
-17.7561079521
 30
0.0
 11
-41.8231961363
 21
-17.8536523327
 31
0.0
  0
LINE
  5
1C1
100
AcDbEntity
  8
LAYER0
 62
         3
100
AcDbLine
 10
-41.8231961363
 20
-17.8536523327
 30
0.0
 11
-41.8328034961
 21
-17.9511967134
 31
0.0
  0
LINE
  5
1C2
100
AcDbEntity
  8
LAYER0
 62
         3
100
AcDbLine
 10
-41.8328034961
 20
-17.9511967134
 30
0.0
 11
-41.86125637
 21
-18.0449925182
 31
0.0
  0
ENDBLK
  5
1C3
100
AcDbEntity
  8
0
100
AcDbBlockEnd
  0
BLOCK
  5
1C7
100
AcDbEntity
  8
0
100
AcDbBlockBegin
  2
CLUMP22
 70
         0
 10
0.0
 20
0.0
 30
0.0
  3

  1

  0
INSERT
  5
1C9
100
AcDbEntity
  8
0
100
AcDbBlockReference
  2
CLUMP23
 10
0.0
 20
0.0
 30
0.0
  0
ENDBLK
  5
1DF
100
AcDbEntity
  8
0
100
AcDbBlockEnd
  0
BLOCK
  5
1CA
100
AcDbEntity
  8
0
100
AcDbBlockBegin
  2
CLUMP23
 70
         0
 10
0.0
 20
0.0
 30
0.0
  3

  1

  0
LINE
  5
1CB
100
AcDbEntity
  8
LAYER11
 62
         3
100
AcDbLine
 10
-45.8012874232
 20
-18.2446492047
 30
0.0
 11
-45.8012874232
 21
-17.4626554607
 31
0.0
  0
LINE
  5
1CC
100
AcDbEntity
  8
LAYER11
 62
         3
100
AcDbLine
 10
-38.8451048494
 20
-18.2446492047
 30
0.0
 11
-38.8451048494
 21
-17.4626554607
 31
0.0
  0
LINE
  5
1CD
100
AcDbEntity
  8
LAYER11
 62
         3
100
AcDbLine
 10
-45.8012874232
 20
-18.2446492047
 30
0.0
 11
-42.7141961363
 21
-18.2446492047
 31
0.0
  0
LINE
  5
1CE
100
AcDbEntity
  8
LAYER11
 62
         3
100
AcDbLine
 10
-41.9321961363
 20
-18.2446492047
 30
0.0
 11
-38.8451048494
 21
-18.2446492047
 31
0.0
  0
LINE
  5
1CF
100
AcDbEntity
  8
LAYER11
 62
         3
100
AcDbLine
 10
-41.9321961363
 20
-21.3317157949
 30
0.0
 11
-42.7141961363
 21
-21.3317157949
 31
0.0
  0
LINE
  5
1D0
100
AcDbEntity
  8
LAYER11
 62
         3
100
AcDbLine
 10
-42.7141961363
 20
-18.2446492047
 30
0.0
 11
-42.7141961363
 21
-21.3317157949
 31
0.0
  0
LINE
  5
1D1
100
AcDbEntity
  8
LAYER11
 62
         3
100
AcDbLine
 10
-41.9321961363
 20
-18.2446492047
 30
0.0
 11
-41.9321961363
 21
-21.3317157949
 31
0.0
  0
LINE
  5
1D2
100
AcDbEntity
  8
LAYER11
 62
         3
100
AcDbLine
 10
-45.8012874232
 20
-17.4626554607
 30
0.0
 11
-42.7141961363
 21
-17.4626554607
 31
0.0
  0
LINE
  5
1D3
100
AcDbEntity
  8
LAYER11
 62
         3
100
AcDbLine
 10
-41.9321961363
 20
-17.4626554607
 30
0.0
 11
-38.8451048494
 21
-17.4626554607
 31
0.0
  0
LINE
  5
1D4
100
AcDbEntity
  8
LAYER11
 62
         3
100
AcDbLine
 10
-41.9321961363
 20
-14.3755888706
 30
0.0
 11
-42.7141961363
 21
-14.3755888706
 31
0.0
  0
LINE
  5
1D5
100
AcDbEntity
  8
LAYER11
 62
         3
100
AcDbLine
 10
-41.9321961363
 20
-14.3755888706
 30
0.0
 11
-41.9321961363
 21
-17.4626554607
 31
0.0
  0
LINE
  5
1D6
100
AcDbEntity
  8
LAYER11
 62
         3
100
AcDbLine
 10
-42.7141961363
 20
-14.3755888706
 30
0.0
 11
-42.7141961363
 21
-17.4626554607
 31
0.0
  0
LINE
  5
1D8
100
AcDbEntity
  8
LAYER4
 62
         3
100
AcDbLine
 10
-41.8231961363
 20
-18.1423251579
 30
0.0
 11
-42.3231961363
 21
-18.4309979831
 31
0.0
  0
LINE
  5
1D9
100
AcDbEntity
  8
LAYER4
 62
         3
100
AcDbLine
 10
-42.3231961363
 20
-18.4309979831
 30
0.0
 11
-42.8231961363
 21
-18.1423251579
 31
0.0
  0
LINE
  5
1DA
100
AcDbEntity
  8
LAYER4
 62
         3
100
AcDbLine
 10
-42.8231961363
 20
-18.1423251579
 30
0.0
 11
-42.8231961363
 21
-17.5649795075
 31
0.0
  0
LINE
  5
1DB
100
AcDbEntity
  8
LAYER4
 62
         3
100
AcDbLine
 10
-42.8231961363
 20
-17.5649795075
 30
0.0
 11
-42.3231961363
 21
-17.2763066824
 31
0.0
  0
LINE
  5
1DC
100
AcDbEntity
  8
LAYER4
 62
         3
100
AcDbLine
 10
-42.3231961363
 20
-17.2763066824
 30
0.0
 11
-41.8231961363
 21
-17.5649795075
 31
0.0
  0
LINE
  5
1DD
100
AcDbEntity
  8
LAYER4
 62
         3
100
AcDbLine
 10
-41.8231961363
 20
-17.5649795075
 30
0.0
 11
-41.8231961363
 21
-18.1423251579
 31
0.0
  0
ENDBLK
  5
1DE
100
AcDbEntity
  8
0
100
AcDbBlockEnd
  0
ENDSEC
  0
SECTION
  2
ENTITIES
  0
LINE
  5
2F
100
AcDbEntity
  8
LAYER1
 62
         3
100
AcDbLine
 10
38.138235294
 20
59.05
 30
0.0
 11
37.738235294
 21
59.05
 31
0.0
  0
LINE
  5
30
100
AcDbEntity
  8
LAYER1
 62
         3
100
AcDbLine
 10
38.138235294
 20
59.05
 30
0.0
 11
38.138235294
 21
59.75
 31
0.0
  0
LINE
  5
32
100
AcDbEntity
  8
LAYER3
 62
         4
100
AcDbLine
 10
31.9382352941
 20
13.1463476673
 30
0.0
 11
71.0586244541
 21
13.1463476673
 31
0.0
  0
LINE
  5
33
100
AcDbEntity
  8
LAYER3
 62
         4
100
AcDbLine
 10
70.0586244541
 20
13.1463476673
 30
0.0
 11
70.6823595266
 21
10.2119048651
 31
0.0
  0
LINE
  5
34
100
AcDbEntity
  8
LAYER3
 62
         4
100
AcDbLine
 10
70.0586244541
 20
13.1463476673
 30
0.0
 11
69.4348893817
 21
10.2119048651
 31
0.0
  0
LINE
  5
35
100
AcDbEntity
  8
LAYER1
 62
         3
100
AcDbLine
 10
37.338235294
 20
63.4696826377
 30
0.0
 11
38.638235294
 21
63.7460061679
 31
0.0
  0
LINE
  5
36
100
AcDbEntity
  8
LAYER1
 62
         3
100
AcDbLine
 10
36.838235294
 20
65.3365956431
 30
0.0
 11
36.838235294
 21
65.95
 31
0.0
  0
LINE
  5
37
100
AcDbEntity
  8
LAYER1
 62
         3
100
AcDbLine
 10
37.338235294
 20
64.6776703019
 30
0.0
 11
38.638235294
 21
64.9539938321
 31
0.0
  0
LINE
  5
38
100
AcDbEntity
  8
LAYER1
 62
         3
100
AcDbLine
 10
36.838235294
 20
65.3365956431
 30
0.0
 11
38.638235294
 21
64.9539938321
 31
0.0
  0
LINE
  5
39
100
AcDbEntity
  8
LAYER1
 62
         3
100
AcDbLine
 10
37.338235294
 20
64.0223296981
 30
0.0
 11
38.638235294
 21
63.7460061679
 31
0.0
  0
ARC
  5
3A
100
AcDbEntity
  8
LAYER1
 62
         3
100
AcDbCircle
 10
39.938235294
 20
61.95
 30
0.0
 40
0.5
210
0.0
220
-0.0
230
1.0
100
AcDbArc
 50
0.0000000002
 51
90.0000015346
  0
LINE
  5
3B
100
AcDbEntity
  8
LAYER1
 62
         3
100
AcDbLine
 10
40.4382352941
 20
63.9768087138
 30
0.0
 11
40.4382352941
 21
63.515203622
 31
0.0
  0
LINE
  5
3C
100
AcDbEntity
  8
LAYER1
 62
         3
100
AcDbLine
 10
40.4382352941
 20
65.184796378
 30
0.0
 11
40.4382352941
 21
64.7231912862
 31
0.0
  0
LINE
  5
3D
100
AcDbEntity
  8
LAYER1
 62
         3
100
AcDbLine
 10
37.338235294
 20
62.45
 30
0.0
 11
39.9382352941
 21
62.45
 31
0.0
  0
LINE
  5
3E
100
AcDbEntity
  8
LAYER1
 62
         3
100
AcDbLine
 10
38.6825083326
 20
64.35
 30
0.0
 11
40.4382352941
 21
64.7231912862
 31
0.0
  0
LINE
  5
3F
100
AcDbEntity
  8
LAYER1
 62
         3
100
AcDbLine
 10
36.838235294
 20
65.95
 30
0.0
 11
40.4382352941
 21
65.184796378
 31
0.0
  0
INSERT
  5
41
100
AcDbEntity
  8
0
100
AcDbBlockReference
  2
CLUMP0
 10
0.0
 20
0.0
 30
0.0
  0
INSERT
  5
4F
100
AcDbEntity
  8
0
100
AcDbBlockReference
  2
CLUMP2
 10
0.0
 20
0.0
 30
0.0
  0
INSERT
  5
5E
100
AcDbEntity
  8
0
100
AcDbBlockReference
  2
CLUMP4
 10
0.0
 20
0.0
 30
0.0
  0
INSERT
  5
6D
100
AcDbEntity
  8
0
100
AcDbBlockReference
  2
CLUMP6
 10
0.0
 20
0.0
 30
0.0
  0
INSERT
  5
7E
100
AcDbEntity
  8
0
100
AcDbBlockReference
  2
CLUMP8
 10
0.0
 20
0.0
 30
0.0
  0
ARC
  5
8F
100
AcDbEntity
  8
LAYER1
 62
         3
100
AcDbCircle
 10
37.738235294
 20
61.35
 30
0.0
 40
0.4
210
0.0
220
0.0
230
1.0
100
AcDbArc
 50
90.0000015352
 51
269.9999984648
  0
LINE
  5
90
100
AcDbEntity
  8
LAYER1
 62
         3
100
AcDbLine
 10
39.538235294
 20
60.95
 30
0.0
 11
37.738235294
 21
60.95
 31
0.0
  0
LINE
  5
91
100
AcDbEntity
  8
LAYER1
 62
         3
100
AcDbLine
 10
39.538235294
 20
58.25
 30
0.0
 11
37.738235294
 21
58.25
 31
0.0
  0
ARC
  5
92
100
AcDbEntity
  8
LAYER1
 62
         3
100
AcDbCircle
 10
37.738235294
 20
58.65
 30
0.0
 40
0.4
210
0.0
220
0.0
230
1.0
100
AcDbArc
 50
90.0000015352
 51
269.9999984648
  0
LINE
  5
93
100
AcDbEntity
  8
LAYER1
 62
         3
100
AcDbLine
 10
36.838235294
 20
58.05
 30
0.0
 11
36.838235294
 21
58.75
 31
0.0
  0
LINE
  5
94
100
AcDbEntity
  8
LAYER1
 62
         3
100
AcDbLine
 10
25.338235294
 20
55.9765
 30
0.0
 11
25.3382352941
 21
67.5235
 31
0.0
  0
LINE
  5
95
100
AcDbEntity
  8
LAYER1
 62
         3
100
AcDbLine
 10
25.338235294
 20
55.75
 30
0.0
 11
25.338235294
 21
67.75
 31
0.0
  0
LINE
  5
96
100
AcDbEntity
  8
LAYER1
 62
         3
100
AcDbLine
 10
25.338235294
 20
67.75
 30
0.0
 11
26.338235294
 21
67.75
 31
0.0
  0
LINE
  5
97
100
AcDbEntity
  8
LAYER1
 62
         3
100
AcDbLine
 10
25.338235294
 20
55.75
 30
0.0
 11
26.338235294
 21
55.75
 31
0.0
  0
LINE
  5
98
100
AcDbEntity
  8
LAYER1
 62
         3
100
AcDbLine
 10
18.5939622555
 20
59.15
 30
0.0
 11
16.8382352941
 21
59.5231912861
 31
0.0
  0
LINE
  5
99
100
AcDbEntity
  8
LAYER1
 62
         3
100
AcDbLine
 10
20.4382352941
 20
57.55
 30
0.0
 11
16.8382352941
 21
58.315203622
 31
0.0
  0
LINE
  5
9A
100
AcDbEntity
  8
LAYER1
 62
         3
100
AcDbLine
 10
18.5939622555
 20
59.15
 30
0.0
 11
16.8382352941
 21
58.7768087138
 31
0.0
  0
LINE
  5
9B
100
AcDbEntity
  8
LAYER1
 62
         3
100
AcDbLine
 10
38.6825083326
 20
64.35
 30
0.0
 11
40.4382352941
 21
63.9768087138
 31
0.0
  0
LINE
  5
9C
100
AcDbEntity
  8
LAYER1
 62
         3
100
AcDbLine
 10
40.4382352941
 20
61.95
 30
0.0
 11
40.4382352941
 21
60.75
 31
0.0
  0
LINE
  5
9D
100
AcDbEntity
  8
LAYER1
 62
         3
100
AcDbLine
 10
38.138235294
 20
59.75
 30
0.0
 11
37.338235294
 21
59.75
 31
0.0
  0
LINE
  5
9E
100
AcDbEntity
  8
LAYER1
 62
         3
100
AcDbLine
 10
21.338267294
 20
56.85
 30
0.0
 11
21.338267294
 21
66.65
 31
0.0
  0
LINE
  5
9F
100
AcDbEntity
  8
LAYER1
 62
         3
100
AcDbLine
 10
26.338235294
 20
55.9765
 30
0.0
 11
26.3382352941
 21
67.5235
 31
0.0
  0
LINE
  5
A0
100
AcDbEntity
  8
LAYER1
 62
         3
100
AcDbLine
 10
23.338251294
 20
55.9765
 30
0.0
 11
21.8425784845
 21
55.9765
 31
0.0
  0
LINE
  5
A1
100
AcDbEntity
  8
LAYER1
 62
         3
100
AcDbLine
 10
23.338251294
 20
58.86325
 30
0.0
 11
21.8425784845
 21
58.86325
 31
0.0
  0
LINE
  5
A2
100
AcDbEntity
  8
LAYER1
 62
         3
100
AcDbLine
 10
21.8425784845
 20
55.9765
 30
0.0
 11
21.338267294
 21
56.85
 31
0.0
  0
LINE
  5
A3
100
AcDbEntity
  8
LAYER1
 62
         3
100
AcDbLine
 10
23.338251294
 20
55.9765
 30
0.0
 11
25.338235294
 21
55.9765
 31
0.0
  0
ARC
  5
A4
100
AcDbEntity
  8
LAYER1
 62
         3
100
AcDbCircle
 10
37.3382352941
 20
58.05
 30
0.0
 40
0.5
210
0.0
220
0.0
230
1.0
100
AcDbArc
 50
179.9999969301
 51
269.9999984646
  0
LINE
  5
A5
100
AcDbEntity
  8
LAYER1
 62
         3
100
AcDbLine
 10
39.538235294
 20
59.05
 30
0.0
 11
39.138235294
 21
59.05
 31
0.0
  0
LINE
  5
A6
100
AcDbEntity
  8
LAYER1
 62
         3
100
AcDbLine
 10
39.138235294
 20
59.05
 30
0.0
 11
39.138235294
 21
59.75
 31
0.0
  0
LINE
  5
A7
100
AcDbEntity
  8
LAYER1
 62
         3
100
AcDbLine
 10
39.538235294
 20
61.75
 30
0.0
 11
37.738235294
 21
61.75
 31
0.0
  0
LINE
  5
A8
100
AcDbEntity
  8
LAYER1
 62
         3
100
AcDbLine
 10
40.4382352941
 20
58.05
 30
0.0
 11
40.4382352941
 21
59.25
 31
0.0
  0
ARC
  5
A9
100
AcDbEntity
  8
LAYER1
 62
         3
100
AcDbCircle
 10
39.938235294
 20
60.75
 30
0.0
 40
0.5
210
0.0
220
0.0
230
1.0
100
AcDbArc
 50
269.999998465
 51
359.9999999996
  0
ARC
  5
AA
100
AcDbEntity
  8
LAYER1
 62
         3
100
AcDbCircle
 10
39.938235294
 20
59.25
 30
0.0
 40
0.5
210
0.0
220
-0.0
230
1.0
100
AcDbArc
 50
0.0000000006
 51
90.0000015346
  0
ARC
  5
AB
100
AcDbEntity
  8
LAYER1
 62
         3
100
AcDbCircle
 10
39.938235294
 20
58.05
 30
0.0
 40
0.5
210
0.0
220
0.0
230
1.0
100
AcDbArc
 50
269.9999984654
 51
359.9999999994
  0
ARC
  5
AC
100
AcDbEntity
  8
LAYER1
 62
         3
100
AcDbCircle
 10
39.538235294
 20
61.35
 30
0.0
 40
0.4
210
0.0
220
0.0
230
1.0
100
AcDbArc
 50
269.9999984648
 51
90.0000015352
  0
LINE
  5
AD
100
AcDbEntity
  8
LAYER1
 62
         3
100
AcDbLine
 10
37.338235294
 20
57.55
 30
0.0
 11
39.9382352941
 21
57.55
 31
0.0
  0
LINE
  5
AE
100
AcDbEntity
  8
LAYER1
 62
         3
100
AcDbLine
 10
37.338235294
 20
60.25
 30
0.0
 11
39.9382352941
 21
60.25
 31
0.0
  0
LINE
  5
AF
100
AcDbEntity
  8
LAYER1
 62
         3
100
AcDbLine
 10
39.9382352941
 20
59.75
 30
0.0
 11
39.1382352941
 21
59.75
 31
0.0
  0
ARC
  5
B0
100
AcDbEntity
  8
LAYER1
 62
         3
100
AcDbCircle
 10
39.538235294
 20
58.65
 30
0.0
 40
0.4
210
0.0
220
0.0
230
1.0
100
AcDbArc
 50
269.9999984648
 51
90.0000015352
  0
LINE
  5
B1
100
AcDbEntity
  8
LAYER1
 62
         3
100
AcDbLine
 10
17.7382352941
 20
65.25
 30
0.0
 11
19.5382352941
 21
65.25
 31
0.0
  0
LINE
  5
B2
100
AcDbEntity
  8
LAYER1
 62
         3
100
AcDbLine
 10
17.7382352941
 20
62.55
 30
0.0
 11
19.5382352941
 21
62.55
 31
0.0
  0
LINE
  5
B3
100
AcDbEntity
  8
LAYER1
 62
         3
100
AcDbLine
 10
19.9382352941
 20
63.25
 30
0.0
 11
17.3382352941
 21
63.25
 31
0.0
  0
LINE
  5
B4
100
AcDbEntity
  8
LAYER1
 62
         3
100
AcDbLine
 10
23.338251294
 20
58.86325
 30
0.0
 11
25.338235294
 21
58.86325
 31
0.0
  0
LINE
  5
B5
100
AcDbEntity
  8
LAYER1
 62
         3
100
AcDbLine
 10
23.338251294
 20
64.63675
 30
0.0
 11
21.8425784845
 21
64.63675
 31
0.0
  0
LINE
  5
B6
100
AcDbEntity
  8
LAYER1
 62
         3
100
AcDbLine
 10
23.338251294
 20
67.5235
 30
0.0
 11
21.8425784845
 21
67.5235
 31
0.0
  0
LINE
  5
B7
100
AcDbEntity
  8
LAYER1
 62
         3
100
AcDbLine
 10
21.8425784845
 20
67.5235
 30
0.0
 11
21.338267294
 21
66.65
 31
0.0
  0
LINE
  5
B8
100
AcDbEntity
  8
LAYER1
 62
         3
100
AcDbLine
 10
23.338251294
 20
67.5235
 30
0.0
 11
25.338235294
 21
67.5235
 31
0.0
  0
LINE
  5
B9
100
AcDbEntity
  8
LAYER1
 62
         3
100
AcDbLine
 10
23.338251294
 20
64.63675
 30
0.0
 11
25.338235294
 21
64.63675
 31
0.0
  0
LINE
  5
BB
100
AcDbEntity
  8
LAYER2
 62
         4
100
AcDbLine
 10
30.9382352941
 20
64.15
 30
0.0
 11
37.338235294
 21
64.15
 31
0.0
  0
LINE
  5
BC
100
AcDbEntity
  8
LAYER1
 62
         3
100
AcDbLine
 10
30.9382352941
 20
64.75
 30
0.0
 11
37.338235294
 21
64.75
 31
0.0
  0
LINE
  5
BD
100
AcDbEntity
  8
LAYER2
 62
         4
100
AcDbLine
 10
30.9382352941
 20
59.35
 30
0.0
 11
37.338235294
 21
59.35
 31
0.0
  0
LINE
  5
BE
100
AcDbEntity
  8
LAYER1
 62
         3
100
AcDbLine
 10
37.338235294
 20
62.8562782808
 30
0.0
 11
40.4382352941
 21
63.515203622
 31
0.0
  0
LINE
  5
BF
100
AcDbEntity
  8
LAYER1
 62
         3
100
AcDbLine
 10
16.8382352941
 20
58.315203622
 30
0.0
 11
16.8382352941
 21
58.7768087138
 31
0.0
  0
LINE
  5
C0
100
AcDbEntity
  8
LAYER1
 62
         3
100
AcDbLine
 10
16.8382352941
 20
59.5231912861
 30
0.0
 11
16.8382352941
 21
59.984796378
 31
0.0
  0
ARC
  5
C1
100
AcDbEntity
  8
LAYER1
 62
         3
100
AcDbCircle
 10
17.3382352941
 20
61.55
 30
0.0
 40
0.5
210
0.0
220
0.0
230
1.0
100
AcDbArc
 50
179.9999969297
 51
269.9999984642
  0
LINE
  5
C2
100
AcDbEntity
  8
LAYER1
 62
         3
100
AcDbLine
 10
20.4382352941
 20
59.3713920211
 30
0.0
 11
18.6382352941
 21
59.7539938321
 31
0.0
  0
LINE
  5
C3
100
AcDbEntity
  8
LAYER1
 62
         3
100
AcDbLine
 10
20.4382352941
 20
58.1634043569
 30
0.0
 11
18.6382352941
 21
58.5460061679
 31
0.0
  0
LINE
  5
C4
100
AcDbEntity
  8
LAYER1
 62
         3
100
AcDbLine
 10
20.4382352941
 20
58.9286079789
 30
0.0
 11
18.6382352941
 21
58.5460061679
 31
0.0
  0
LINE
  5
C5
100
AcDbEntity
  8
LAYER1
 62
         3
100
AcDbLine
 10
20.4382352941
 20
58.1634043569
 30
0.0
 11
20.4382352941
 21
57.55
 31
0.0
  0
LINE
  5
C6
100
AcDbEntity
  8
LAYER1
 62
         3
100
AcDbLine
 10
20.4382352941
 20
59.3713920211
 30
0.0
 11
20.4382352941
 21
58.9286079789
 31
0.0
  0
LINE
  5
C7
100
AcDbEntity
  8
LAYER1
 62
         3
100
AcDbLine
 10
20.4382352941
 20
60.1365956431
 30
0.0
 11
18.6382352941
 21
59.7539938321
 31
0.0
  0
LINE
  5
C8
100
AcDbEntity
  8
LAYER1
 62
         3
100
AcDbLine
 10
20.4382352941
 20
60.75
 30
0.0
 11
20.4382352941
 21
60.1365956431
 31
0.0
  0
ARC
  5
C9
100
AcDbEntity
  8
LAYER1
 62
         3
100
AcDbCircle
 10
19.9382352941
 20
61.55
 30
0.0
 40
0.5
210
0.0
220
0.0
230
1.0
100
AcDbArc
 50
269.999998465
 51
359.9999999998
  0
LINE
  5
CA
100
AcDbEntity
  8
LAYER1
 62
         3
100
AcDbLine
 10
17.7382352941
 20
61.75
 30
0.0
 11
19.5382352941
 21
61.75
 31
0.0
  0
LINE
  5
CB
100
AcDbEntity
  8
LAYER1
 62
         3
100
AcDbLine
 10
20.4382352941
 20
62.75
 30
0.0
 11
20.4382352941
 21
61.55
 31
0.0
  0
LINE
  5
CC
100
AcDbEntity
  8
LAYER1
 62
         3
100
AcDbLine
 10
28.6382352941
 20
13.1463476673
 30
0.0
 11
26.3382352941
 21
13.1463476673
 31
0.0
  0
LINE
  5
CD
100
AcDbEntity
  8
LAYER1
 62
         3
100
AcDbLine
 10
28.6382352941
 20
13.1463476673
 30
0.0
 11
30.9382352941
 21
13.1463476673
 31
0.0
  0
LINE
  5
CF
100
AcDbEntity
  8
LAYER7
 62
         4
100
AcDbLine
 10
28.6382352941
 20
3.6463476673
 30
0.0
 11
26.3382352941
 21
3.6463476673
 31
0.0
  0
LINE
  5
D0
100
AcDbEntity
  8
LAYER7
 62
         4
100
AcDbLine
 10
28.638235294
 20
3.6463476673
 30
0.0
 11
30.938235294
 21
3.6463476673
 31
0.0
  0
LINE
  5
D1
100
AcDbEntity
  8
LAYER1
 62
         3
100
AcDbLine
 10
19.9382352941
 20
61.05
 30
0.0
 11
17.3382352941
 21
61.05
 31
0.0
  0
LINE
  5
D2
100
AcDbEntity
  8
LAYER1
 62
         3
100
AcDbLine
 10
20.4382352941
 20
60.75
 30
0.0
 11
16.8382352941
 21
59.984796378
 31
0.0
  0
ARC
  5
D3
100
AcDbEntity
  8
LAYER1
 62
         3
100
AcDbCircle
 10
17.3382352941
 20
65.45
 30
0.0
 40
0.5
210
0.0
220
0.0
230
1.0
100
AcDbArc
 50
90.0000015358
 51
180.0000030699
  0
LINE
  5
D4
100
AcDbEntity
  8
LAYER1
 62
         3
100
AcDbLine
 10
18.1382352941
 20
64.45
 30
0.0
 11
18.1382352941
 21
63.75
 31
0.0
  0
LINE
  5
D5
100
AcDbEntity
  8
LAYER1
 62
         3
100
AcDbLine
 10
30.9382352941
 20
58.75
 30
0.0
 11
37.338235294
 21
58.75
 31
0.0
  0
LINE
  5
D6
100
AcDbEntity
  8
LAYER1
 62
         3
100
AcDbLine
 10
37.338235294
 20
58.75
 30
0.0
 11
37.338235294
 21
64.75
 31
0.0
  0
LINE
  5
D7
100
AcDbEntity
  8
LAYER1
 62
         3
100
AcDbLine
 10
17.7382352941
 20
64.45
 30
0.0
 11
18.1382352941
 21
64.45
 31
0.0
  0
ARC
  5
D8
100
AcDbEntity
  8
LAYER1
 62
         3
100
AcDbCircle
 10
17.3382352941
 20
64.25
 30
0.0
 40
0.5
210
0.0
220
0.0
230
1.0
100
AcDbArc
 50
179.9999969301
 51
269.9999984642
  0
ARC
  5
D9
100
AcDbEntity
  8
LAYER1
 62
         3
100
AcDbCircle
 10
17.3382352941
 20
62.75
 30
0.0
 40
0.5
210
0.0
220
0.0
230
1.0
100
AcDbArc
 50
90.0000015354
 51
180.0000030701
  0
LINE
  5
DA
100
AcDbEntity
  8
LAYER1
 62
         3
100
AcDbLine
 10
16.8382352941
 20
65.45
 30
0.0
 11
16.8382352941
 21
64.25
 31
0.0
  0
ARC
  5
DB
100
AcDbEntity
  8
LAYER1
 62
         3
100
AcDbCircle
 10
17.7382352941
 20
64.85
 30
0.0
 40
0.4
210
0.0
220
0.0
230
1.0
100
AcDbArc
 50
90.0000015352
 51
269.9999984648
  0
LINE
  5
DC
100
AcDbEntity
  8
LAYER1
 62
         3
100
AcDbLine
 10
17.3382352941
 20
63.75
 30
0.0
 11
18.1382352941
 21
63.75
 31
0.0
  0
ARC
  5
DD
100
AcDbEntity
  8
LAYER1
 62
         3
100
AcDbCircle
 10
19.9382352941
 20
65.45
 30
0.0
 40
0.5
210
0.0
220
-0.0
230
1.0
100
AcDbArc
 50
0.0000000006
 51
90.000001535
  0
ARC
  5
DE
100
AcDbEntity
  8
LAYER1
 62
         3
100
AcDbCircle
 10
19.9382352941
 20
64.25
 30
0.0
 40
0.5
210
0.0
220
0.0
230
1.0
100
AcDbArc
 50
269.999998465
 51
359.9999999996
  0
ARC
  5
DF
100
AcDbEntity
  8
LAYER1
 62
         3
100
AcDbCircle
 10
19.9382352941
 20
62.75
 30
0.0
 40
0.5
210
0.0
220
-0.0
230
1.0
100
AcDbArc
 50
0.0000000004
 51
90.0000015352
  0
LINE
  5
E0
100
AcDbEntity
  8
LAYER1
 62
         3
100
AcDbLine
 10
19.1382352941
 20
64.45
 30
0.0
 11
19.1382352941
 21
63.75
 31
0.0
  0
LINE
  5
E1
100
AcDbEntity
  8
LAYER1
 62
         3
100
AcDbLine
 10
19.1382352941
 20
64.45
 30
0.0
 11
19.5382352941
 21
64.45
 31
0.0
  0
LINE
  5
E2
100
AcDbEntity
  8
LAYER1
 62
         3
100
AcDbLine
 10
19.1382352941
 20
63.75
 30
0.0
 11
19.9382352941
 21
63.75
 31
0.0
  0
LINE
  5
E3
100
AcDbEntity
  8
LAYER1
 62
         3
100
AcDbLine
 10
20.4382352941
 20
65.45
 30
0.0
 11
20.4382352941
 21
64.25
 31
0.0
  0
ARC
  5
E4
100
AcDbEntity
  8
LAYER1
 62
         3
100
AcDbCircle
 10
19.5382352941
 20
64.85
 30
0.0
 40
0.4
210
0.0
220
0.0
230
1.0
100
AcDbArc
 50
269.9999984648
 51
90.0000015352
  0
LINE
  5
E5
100
AcDbEntity
  8
LAYER7
 62
         4
100
AcDbLine
 10
23.3382512941
 20
-14.9669023327
 30
0.0
 11
25.3382352941
 21
-14.9669023327
 31
0.0
  0
CIRCLE
  5
E6
100
AcDbEntity
  8
LAYER1
 62
         3
100
AcDbCircle
 10
45.1382352941
 20
-17.8536523327
 30
0.0
 40
2.75
210
0.0
220
0.0
230
1.0
  0
INSERT
  5
E8
100
AcDbEntity
  8
0
100
AcDbBlockReference
  2
CLUMP10
 10
0.0
 20
0.0
 30
0.0
  0
CIRCLE
  5
F6
100
AcDbEntity
  8
LAYER1
 62
         3
100
AcDbCircle
 10
12.138235294
 20
-17.8536523327
 30
0.0
 40
2.75
210
0.0
220
0.0
230
1.0
  0
LINE
  5
F7
100
AcDbEntity
  8
LAYER7
 62
         4
100
AcDbLine
 10
25.3382352941
 20
-23.8536523327
 30
0.0
 11
26.3382352941
 21
-23.8536523327
 31
0.0
  0
LINE
  5
F8
100
AcDbEntity
  8
LAYER7
 62
         4
100
AcDbLine
 10
25.3382352941
 20
-11.8536523327
 30
0.0
 11
26.3382352941
 21
-11.8536523327
 31
0.0
  0
LINE
  5
F9
100
AcDbEntity
  8
LAYER7
 62
         4
100
AcDbLine
 10
25.3382352941
 20
-23.8536523327
 30
0.0
 11
25.3382352941
 21
-11.8536523327
 31
0.0
  0
LINE
  5
FA
100
AcDbEntity
  8
LAYER3
 62
         4
100
AcDbLine
 10
49.6382352941
 20
-40.1536523327
 30
0.0
 11
71.0586244541
 21
-40.1536523327
 31
0.0
  0
MTEXT
  5
FB
100
AcDbEntity
  8
LAYER3
100
AcDbMText
 10
23.8382352941
 20
-57.0274504789
 30
0.0
 40
2.1473683357
 41
5.1292919922
 71
         1
 72
         1
  1
\W0.8;44.6
  0
LINE
  5
FC
100
AcDbEntity
  8
LAYER3
 62
         4
100
AcDbLine
 10
50.9382352941
 20
-60.8151091703
 30
0.0
 11
48.0037924919
 21
-61.4388442428
 31
0.0
  0
LINE
  5
FD
100
AcDbEntity
  8
LAYER3
 62
         4
100
AcDbLine
 10
50.9382352941
 20
-60.8151091703
 30
0.0
 11
48.0037924919
 21
-60.1913740979
 31
0.0
  0
LINE
  5
FE
100
AcDbEntity
  8
LAYER3
 62
         4
100
AcDbLine
 10
6.3382352941
 20
-60.8151091703
 30
0.0
 11
9.2726780963
 21
-60.1913740979
 31
0.0
  0
LINE
  5
FF
100
AcDbEntity
  8
LAYER3
 62
         4
100
AcDbLine
 10
6.3382352941
 20
-60.8151091703
 30
0.0
 11
9.2726780963
 21
-61.4388442428
 31
0.0
  0
LINE
  5
100
100
AcDbEntity
  8
LAYER3
 62
         4
100
AcDbLine
 10
6.3382352941
 20
-60.8151091703
 30
0.0
 11
50.9382352941
 21
-60.8151091703
 31
0.0
  0
LINE
  5
101
100
AcDbEntity
  8
LAYER3
 62
         4
100
AcDbLine
 10
50.9382352941
 20
-38.8536523327
 30
0.0
 11
50.9382352941
 21
-61.8151091703
 31
0.0
  0
LINE
  5
102
100
AcDbEntity
  8
LAYER3
 62
         4
100
AcDbLine
 10
6.3382352941
 20
-38.8536523327
 30
0.0
 11
6.3382352941
 21
-61.8151091703
 31
0.0
  0
INSERT
  5
104
100
AcDbEntity
  8
0
100
AcDbBlockReference
  2
CLUMP12
 10
0.0
 20
0.0
 30
0.0
  0
INSERT
  5
111
100
AcDbEntity
  8
0
100
AcDbBlockReference
  2
CLUMP14
 10
0.0
 20
0.0
 30
0.0
  0
MTEXT
  5
11F
100
AcDbEntity
  8
LAYER3
100
AcDbMText
 10
66.2709657627
 20
-18.3036524074
 30
0.0
 40
2.1473683357
 41
5.1292919922
 71
         1
 72
         1
  1
\W0.8;53.3
 11
-0.0000000268
 21
1.0
 31
0.0
  0
LINE
  5
120
100
AcDbEntity
  8
LAYER3
 62
         4
100
AcDbLine
 10
70.0586244541
 20
-40.1536523327
 30
0.0
 11
69.4348893817
 21
-37.2192095305
 31
0.0
  0
LINE
  5
121
100
AcDbEntity
  8
LAYER3
 62
         4
100
AcDbLine
 10
70.0586244541
 20
-40.1536523327
 30
0.0
 11
70.6823595266
 21
-37.2192095305
 31
0.0
  0
LINE
  5
122
100
AcDbEntity
  8
LAYER1
 62
         3
100
AcDbLine
 10
19.9382352941
 20
65.95
 30
0.0
 11
17.3382352941
 21
65.95
 31
0.0
  0
LINE
  5
123
100
AcDbEntity
  8
LAYER1
 62
         3
100
AcDbLine
 10
16.8382352941
 20
61.55
 30
0.0
 11
16.8382352941
 21
62.75
 31
0.0
  0
ARC
  5
124
100
AcDbEntity
  8
LAYER1
 62
         3
100
AcDbCircle
 10
17.7382352941
 20
62.15
 30
0.0
 40
0.4
210
0.0
220
0.0
230
1.0
100
AcDbArc
 50
90.0000015352
 51
269.9999984648
  0
ARC
  5
125
100
AcDbEntity
  8
LAYER1
 62
         3
100
AcDbCircle
 10
19.5382352941
 20
62.15
 30
0.0
 40
0.4
210
0.0
220
0.0
230
1.0
100
AcDbArc
 50
269.9999984648
 51
90.0000015352
  0
LINE
  5
126
100
AcDbEntity
  8
LAYER1
 62
         3
100
AcDbLine
 10
13.6382352941
 20
-37.8536523327
 30
0.0
 11
8.6382352941
 21
-37.8536523327
 31
0.0
  0
ARC
  5
127
100
AcDbEntity
  8
LAYER1
 62
         3
100
AcDbCircle
 10
48.6382352941
 20
-37.8536523327
 30
0.0
 40
2.3
210
-0.0
220
0.0
230
1.0
100
AcDbArc
 50
269.9999984648
 51
0.0
  0
LINE
  5
128
100
AcDbEntity
  8
LAYER1
 62
         3
100
AcDbLine
 10
43.6382352941
 20
-37.8536523327
 30
0.0
 11
43.6382352941
 21
-40.1536523327
 31
0.0
  0
LINE
  5
129
100
AcDbEntity
  8
LAYER1
 62
         3
100
AcDbLine
 10
43.6382352941
 20
-37.8536523327
 30
0.0
 11
48.6382352941
 21
-37.8536523327
 31
0.0
  0
LINE
  5
12A
100
AcDbEntity
  8
LAYER1
 62
         3
100
AcDbLine
 10
43.6382352941
 20
-40.1536523327
 30
0.0
 11
48.6382352941
 21
-40.1536523327
 31
0.0
  0
LINE
  5
12B
100
AcDbEntity
  8
LAYER7
 62
         4
100
AcDbLine
 10
30.9382352941
 20
-2.3536523327
 30
0.0
 11
28.6382352941
 21
-2.3536523327
 31
0.0
  0
LINE
  5
12C
100
AcDbEntity
  8
LAYER1
 62
         3
100
AcDbLine
 10
45.1382352941
 20
-7.8536523327
 30
0.0
 11
30.9382352941
 21
-7.8536523327
 31
0.0
  0
ARC
  5
12D
100
AcDbEntity
  8
LAYER1
 62
         3
100
AcDbCircle
 10
48.6382352941
 20
-34.3536523327
 30
0.0
 40
2.3
210
0.0
220
-0.0
230
1.0
100
AcDbArc
 50
0.0
 51
90.0000015352
  0
LINE
  5
12E
100
AcDbEntity
  8
LAYER7
 62
         4
100
AcDbLine
 10
23.3382512941
 20
-14.9669023327
 30
0.0
 11
21.8425784845
 21
-14.9669023327
 31
0.0
  0
LINE
  5
12F
100
AcDbEntity
  8
LAYER7
 62
         4
100
AcDbLine
 10
26.3382352941
 20
-2.3536523327
 30
0.0
 11
28.6382352941
 21
-2.3536523327
 31
0.0
  0
LINE
  5
130
100
AcDbEntity
  8
LAYER1
 62
         3
100
AcDbLine
 10
37.3382352941
 20
-20.8536523327
 30
0.0
 11
37.3382352941
 21
-14.8536523327
 31
0.0
  0
LINE
  5
131
100
AcDbEntity
  8
LAYER1
 62
         3
100
AcDbLine
 10
30.938235294
 20
-20.8536523327
 30
0.0
 11
37.3382352941
 21
-20.8536523327
 31
0.0
  0
LINE
  5
132
100
AcDbEntity
  8
LAYER2
 62
         4
100
AcDbLine
 10
30.938235294
 20
-20.2536523327
 30
0.0
 11
37.3382352941
 21
-20.2536523327
 31
0.0
  0
LINE
  5
133
100
AcDbEntity
  8
LAYER1
 62
         3
100
AcDbLine
 10
30.938235294
 20
-14.8536523327
 30
0.0
 11
37.3382352941
 21
-14.8536523327
 31
0.0
  0
LINE
  5
134
100
AcDbEntity
  8
LAYER2
 62
         4
100
AcDbLine
 10
30.938235294
 20
-15.4536523327
 30
0.0
 11
37.3382352941
 21
-15.4536523327
 31
0.0
  0
LINE
  5
135
100
AcDbEntity
  8
LAYER7
 62
         4
100
AcDbLine
 10
21.3382672941
 20
-22.7536523327
 30
0.0
 11
21.3382672941
 21
-12.9536523327
 31
0.0
  0
LINE
  5
136
100
AcDbEntity
  8
LAYER7
 62
         4
100
AcDbLine
 10
25.3382352941
 20
-23.6271523327
 30
0.0
 11
25.3382352941
 21
-12.0801523327
 31
0.0
  0
LINE
  5
137
100
AcDbEntity
  8
LAYER7
 62
         4
100
AcDbLine
 10
23.3382512941
 20
-23.6271523327
 30
0.0
 11
21.8425784845
 21
-23.6271523327
 31
0.0
  0
LINE
  5
138
100
AcDbEntity
  8
LAYER7
 62
         4
100
AcDbLine
 10
23.3382512941
 20
-20.7404023327
 30
0.0
 11
21.8425784845
 21
-20.7404023327
 31
0.0
  0
LINE
  5
139
100
AcDbEntity
  8
LAYER7
 62
         4
100
AcDbLine
 10
21.8425784845
 20
-23.6271523327
 30
0.0
 11
21.3382672941
 21
-22.7536523327
 31
0.0
  0
LINE
  5
13A
100
AcDbEntity
  8
LAYER7
 62
         4
100
AcDbLine
 10
23.3382512941
 20
-23.6271523327
 30
0.0
 11
25.3382352941
 21
-23.6271523327
 31
0.0
  0
LINE
  5
13B
100
AcDbEntity
  8
LAYER7
 62
         4
100
AcDbLine
 10
23.3382512941
 20
-20.7404023327
 30
0.0
 11
25.3382352941
 21
-20.7404023327
 31
0.0
  0
LINE
  5
13C
100
AcDbEntity
  8
LAYER7
 62
         4
100
AcDbLine
 10
23.3382512941
 20
-12.0801523327
 30
0.0
 11
21.8425784845
 21
-12.0801523327
 31
0.0
  0
LINE
  5
13D
100
AcDbEntity
  8
LAYER7
 62
         4
100
AcDbLine
 10
21.8425784845
 20
-12.0801523327
 30
0.0
 11
21.3382672941
 21
-12.9536523327
 31
0.0
  0
LINE
  5
13E
100
AcDbEntity
  8
LAYER7
 62
         4
100
AcDbLine
 10
23.3382512941
 20
-12.0801523327
 30
0.0
 11
25.3382352941
 21
-12.0801523327
 31
0.0
  0
LINE
  5
13F
100
AcDbEntity
  8
LAYER0
 62
         3
100
AcDbLine
 10
95.0
 20
-138.5
 30
0.0
 11
95.0
 21
-125.5
 31
0.0
  0
LINE
  5
140
100
AcDbEntity
  8
LAYER1
 62
         3
100
AcDbLine
 10
50.9382352941
 20
-34.3536523327
 30
0.0
 11
50.9382352941
 21
-37.8536523327
 31
0.0
  0
LINE
  5
141
100
AcDbEntity
  8
LAYER1
 62
         3
100
AcDbLine
 10
48.6382352941
 20
-34.3536523327
 30
0.0
 11
48.638235294
 21
-37.8536523327
 31
0.0
  0
LINE
  5
142
100
AcDbEntity
  8
LAYER1
 62
         3
100
AcDbLine
 10
28.6382352941
 20
-27.8536523327
 30
0.0
 11
28.6382352941
 21
-32.0536523327
 31
0.0
  0
LINE
  5
143
100
AcDbEntity
  8
LAYER1
 62
         3
100
AcDbLine
 10
28.6382352941
 20
-27.8536523327
 30
0.0
 11
28.6382352941
 21
-32.0536523327
 31
0.0
  0
LINE
  5
144
100
AcDbEntity
  8
LAYER1
 62
         3
100
AcDbLine
 10
26.3382352941
 20
-27.8536523327
 30
0.0
 11
26.3382352941
 21
-32.0536523327
 31
0.0
  0
ARC
  5
145
100
AcDbEntity
  8
LAYER1
 62
         3
100
AcDbCircle
 10
30.9382352941
 20
-32.0536523327
 30
0.0
 40
2.3
210
0.0
220
0.0
230
1.0
100
AcDbArc
 50
179.9999969295
 51
269.9999984648
  0
ARC
  5
146
100
AcDbEntity
  8
LAYER1
 62
         3
100
AcDbCircle
 10
26.3382352941
 20
-32.0536523327
 30
0.0
 40
2.3
210
-0.0
220
0.0
230
1.0
100
AcDbArc
 50
269.9999984648
 51
0.0
  0
LINE
  5
147
100
AcDbEntity
  8
LAYER1
 62
         3
100
AcDbLine
 10
30.9382352941
 20
-32.0536523327
 30
0.0
 11
48.6382352941
 21
-32.0536523327
 31
0.0
  0
LINE
  5
148
100
AcDbEntity
  8
LAYER1
 62
         3
100
AcDbLine
 10
30.9382352941
 20
-34.3536523327
 30
0.0
 11
48.6382352941
 21
-34.3536523327
 31
0.0
  0
LINE
  5
149
100
AcDbEntity
  8
LAYER1
 62
         3
100
AcDbLine
 10
45.1382352941
 20
-27.8536523327
 30
0.0
 11
30.9382352941
 21
-27.8536523327
 31
0.0
  0
LINE
  5
14A
100
AcDbEntity
  8
LAYER7
 62
         4
100
AcDbLine
 10
28.6382352941
 20
-7.8536523327
 30
0.0
 11
28.6382352941
 21
-27.8536523327
 31
0.0
  0
LINE
  5
14B
100
AcDbEntity
  8
LAYER1
 62
         3
100
AcDbLine
 10
30.9382352941
 20
-14.3536523327
 30
0.0
 11
30.9382352941
 21
-32.0536523327
 31
0.0
  0
ARC
  5
14C
100
AcDbEntity
  8
LAYER1
 62
         3
100
AcDbCircle
 10
45.1382352941
 20
-17.8536523327
 30
0.0
 40
10.0
210
0.0
220
0.0
230
1.0
100
AcDbArc
 50
269.9999984648
 51
90.0000015352
  0
LINE
  5
14D
100
AcDbEntity
  8
LAYER7
 62
         4
100
AcDbLine
 10
28.6382352941
 20
-7.8536523327
 30
0.0
 11
28.6382352941
 21
-27.8536523327
 31
0.0
  0
LINE
  5
14E
100
AcDbEntity
  8
LAYER7
 62
         4
100
AcDbLine
 10
26.3382352941
 20
-7.8536523327
 30
0.0
 11
26.3382352941
 21
-27.8536523327
 31
0.0
  0
ARC
  5
14F
100
AcDbEntity
  8
LAYER1
 62
         3
100
AcDbCircle
 10
8.6382352941
 20
-34.3536523327
 30
0.0
 40
2.3
210
0.0
220
0.0
230
1.0
100
AcDbArc
 50
90.0000015352
 51
179.9999969295
  0
LINE
  5
150
100
AcDbEntity
  8
LAYER1
 62
         3
100
AcDbLine
 10
8.6382352941
 20
-34.3536523327
 30
0.0
 11
8.6382352941
 21
-37.8536523327
 31
0.0
  0
LINE
  5
151
100
AcDbEntity
  8
LAYER1
 62
         3
100
AcDbLine
 10
6.3382352941
 20
-34.3536523327
 30
0.0
 11
6.3382352941
 21
-37.8536523327
 31
0.0
  0
ARC
  5
152
100
AcDbEntity
  8
LAYER1
 62
         3
100
AcDbCircle
 10
12.138235294
 20
-17.8536523327
 30
0.0
 40
10.0
210
0.0
220
0.0
230
1.0
100
AcDbArc
 50
90.0000015352
 51
269.9999984648
  0
LINE
  5
153
100
AcDbEntity
  8
LAYER1
 62
         3
100
AcDbLine
 10
12.1382352941
 20
-27.8536523327
 30
0.0
 11
30.9382352941
 21
-27.8536523327
 31
0.0
  0
LINE
  5
154
100
AcDbEntity
  8
LAYER1
 62
         3
100
AcDbLine
 10
12.138235294
 20
-7.8536523327
 30
0.0
 11
30.9382352941
 21
-7.8536523327
 31
0.0
  0
ARC
  5
155
100
AcDbEntity
  8
LAYER1
 62
         3
100
AcDbCircle
 10
8.6382352941
 20
-37.8536523327
 30
0.0
 40
2.3
210
0.0
220
0.0
230
1.0
100
AcDbArc
 50
179.9999969295
 51
269.9999984648
  0
LINE
  5
156
100
AcDbEntity
  8
LAYER1
 62
         3
100
AcDbLine
 10
13.6382352941
 20
-37.8536523327
 30
0.0
 11
13.6382352941
 21
-40.1536523327
 31
0.0
  0
LINE
  5
157
100
AcDbEntity
  8
LAYER1
 62
         3
100
AcDbLine
 10
13.6382352941
 20
-40.1536523327
 30
0.0
 11
8.6382352941
 21
-40.1536523327
 31
0.0
  0
LINE
  5
158
100
AcDbEntity
  8
LAYER1
 62
         3
100
AcDbLine
 10
-54.8231961363
 20
-32.0536523327
 30
0.0
 11
-29.8231961363
 21
-32.0536523327
 31
0.0
  0
LINE
  5
159
100
AcDbEntity
  8
LAYER7
 62
         4
100
AcDbLine
 10
-54.8231961363
 20
-7.8536523327
 30
0.0
 11
-54.8231961363
 21
-27.8536523327
 31
0.0
  0
CIRCLE
  5
15A
100
AcDbEntity
  8
LAYER1
 62
         3
100
AcDbCircle
 10
-42.3231961363
 20
-17.8536523327
 30
0.0
 40
6.0
210
0.0
220
0.0
230
1.0
  0
LINE
  5
15C
100
AcDbEntity
  8
LAYER6
 62
         3
100
AcDbLine
 10
-41.4458458671
 20
-17.8536523327
 30
0.0
 11
-43.2005464054
 21
-17.8536523327
 31
0.0
  0
LINE
  5
15D
100
AcDbEntity
  8
LAYER6
 62
         3
100
AcDbLine
 10
-42.3231961363
 20
-16.9763090824
 30
0.0
 11
-42.3231961363
 21
-18.7309955831
 31
0.0
  0
MTEXT
  5
15E
100
AcDbEntity
  8
LAYER3
100
AcDbMText
 10
-44.7231961363
 20
-59.1198522256
 30
0.0
 40
2.1473683357
 41
2.5646459961
 71
         1
 72
         1
  1
\W0.8;25
  0
LINE
  5
15F
100
AcDbEntity
  8
LAYER3
 62
         4
100
AcDbLine
 10
-29.8231961363
 20
-62.907510917
 30
0.0
 11
-32.7576389385
 21
-63.5312459895
 31
0.0
  0
LINE
  5
160
100
AcDbEntity
  8
LAYER3
 62
         4
100
AcDbLine
 10
-29.8231961363
 20
-62.907510917
 30
0.0
 11
-32.7576389385
 21
-62.2837758446
 31
0.0
  0
LINE
  5
161
100
AcDbEntity
  8
LAYER3
 62
         4
100
AcDbLine
 10
-54.8231961363
 20
-62.907510917
 30
0.0
 11
-51.8887533341
 21
-62.2837758446
 31
0.0
  0
LINE
  5
162
100
AcDbEntity
  8
LAYER3
 62
         4
100
AcDbLine
 10
-54.8231961363
 20
-62.907510917
 30
0.0
 11
-51.8887533341
 21
-63.5312459895
 31
0.0
  0
LINE
  5
163
100
AcDbEntity
  8
LAYER3
 62
         4
100
AcDbLine
 10
-54.8231961363
 20
-62.907510917
 30
0.0
 11
-29.8231961363
 21
-62.907510917
 31
0.0
  0
LINE
  5
164
100
AcDbEntity
  8
LAYER3
 62
         4
100
AcDbLine
 10
-29.8231961363
 20
-41.1536523327
 30
0.0
 11
-29.8231961363
 21
-63.907510917
 31
0.0
  0
LINE
  5
165
100
AcDbEntity
  8
LAYER3
 62
         4
100
AcDbLine
 10
-54.8231961363
 20
-41.1536523327
 30
0.0
 11
-54.8231961363
 21
-63.907510917
 31
0.0
  0
INSERT
  5
167
100
AcDbEntity
  8
0
100
AcDbBlockReference
  2
CLUMP16
 10
0.0
 20
0.0
 30
0.0
  0
INSERT
  5
18F
100
AcDbEntity
  8
0
100
AcDbBlockReference
  2
CLUMP18
 10
0.0
 20
0.0
 30
0.0
  0
INSERT
  5
19E
100
AcDbEntity
  8
0
100
AcDbBlockReference
  2
CLUMP20
 10
0.0
 20
0.0
 30
0.0
  0
INSERT
  5
1C6
100
AcDbEntity
  8
0
100
AcDbBlockReference
  2
CLUMP22
 10
0.0
 20
0.0
 30
0.0
  0
LINE
  5
1E0
100
AcDbEntity
  8
LAYER1
 62
         3
100
AcDbLine
 10
26.3382352941
 20
-34.3536523327
 30
0.0
 11
8.6382352941
 21
-34.3536523327
 31
0.0
  0
LINE
  5
1E1
100
AcDbEntity
  8
LAYER1
 62
         3
100
AcDbLine
 10
26.3382352941
 20
-32.0536523327
 30
0.0
 11
8.6382352941
 21
-32.0536523327
 31
0.0
  0
MTEXT
  5
1E2
100
AcDbEntity
  8
LAYER0
100
AcDbMText
 10
23.7313242544
 20
-132.945938603
 30
0.0
 40
2.3748176455
 41
22.6903469322
 71
         1
 72
         1
  1
\W0.8;40用吊ブラケット
  0
MTEXT
  5
1E3
100
AcDbEntity
  8
LAYER0
100
AcDbMText
 10
69.2920019132
 20
-133.1354167344
 30
0.0
 40
2.4737683892
 41
8.8634168007
 71
         1
 72
         1
  1
\W0.8;D56656
  0
LINE
  5
1E4
100
AcDbEntity
  8
LAYER0
 62
         3
100
AcDbLine
 10
60.0
 20
-125.5
 30
0.0
 11
60.0
 21
-138.5
 31
0.0
  0
MTEXT
  5
1E5
100
AcDbEntity
  8
LAYER0
100
AcDbMText
 10
72.5158633528
 20
-126.7970201517
 30
0.0
 40
2.1473683357
 41
10.2585839844
 71
         1
 72
         1
  1
\W0.8;管理図番
  0
MTEXT
  5
1E6
100
AcDbEntity
  8
LAYER0
100
AcDbMText
 10
32.0542682872
 20
-126.7970201517
 30
0.0
 40
2.1473683357
 41
7.6538653946
 71
         1
 72
         1
  1
\W0.8;品　名
  0
LINE
  5
1E7
100
AcDbEntity
  8
LAYER0
 62
         3
100
AcDbLine
 10
10.0
 20
-138.5
 30
0.0
 11
10.0
 21
-125.5
 31
0.0
  0
LINE
  5
1E8
100
AcDbEntity
  8
LAYER0
 62
         3
100
AcDbLine
 10
95.0
 20
-125.5
 30
0.0
 11
-40.0
 21
-125.5
 31
0.0
  0
LINE
  5
1E9
100
AcDbEntity
  8
LAYER0
 62
         3
100
AcDbLine
 10
95.0
 20
-130.5
 30
0.0
 11
-40.0
 21
-130.5
 31
0.0
  0
LINE
  5
1EA
100
AcDbEntity
  8
LAYER0
 62
         3
100
AcDbLine
 10
95.0
 20
-138.5
 30
0.0
 11
-40.0
 21
-138.5
 31
0.0
  0
ARC
  5
1EB
100
AcDbEntity
  8
LAYER1
 62
         3
100
AcDbCircle
 10
-42.3231961363
 20
0.6463476673
 30
0.0
 40
12.5
210
0.0
220
-0.0
230
1.0
100
AcDbArc
 50
0.0
 51
179.9999969295
  0
LINE
  5
1EC
100
AcDbEntity
  8
LAYER1
 62
         3
100
AcDbLine
 10
-54.8231961363
 20
0.4463476673
 30
0.0
 11
-54.8231961363
 21
-7.8536523327
 31
0.0
  0
LINE
  5
1ED
100
AcDbEntity
  8
LAYER1
 62
         3
100
AcDbLine
 10
-29.8231961363
 20
0.4463476673
 30
0.0
 11
-29.8231961363
 21
-40.1536523327
 31
0.0
  0
CIRCLE
  5
1EE
100
AcDbEntity
  8
LAYER1
 62
         3
100
AcDbCircle
 10
-42.3231961363
 20
0.6463476673
 30
0.0
 40
2.75
210
0.0
220
0.0
230
1.0
  0
LINE
  5
1EF
100
AcDbEntity
  8
LAYER1
 62
         3
100
AcDbLine
 10
28.6382352941
 20
13.1463476673
 30
0.0
 11
28.638235294
 21
-7.8536523327
 31
0.0
  0
LINE
  5
1F0
100
AcDbEntity
  8
LAYER1
 62
         3
100
AcDbLine
 10
30.9382352941
 20
13.1463476673
 30
0.0
 11
30.9382352941
 21
-14.3536523327
 31
0.0
  0
LINE
  5
1F1
100
AcDbEntity
  8
LAYER1
 62
         3
100
AcDbLine
 10
28.6382352941
 20
13.1463476673
 30
0.0
 11
28.6382352941
 21
-7.8536523327
 31
0.0
  0
LINE
  5
1F2
100
AcDbEntity
  8
LAYER1
 62
         3
100
AcDbLine
 10
26.3382352941
 20
13.1463476673
 30
0.0
 11
26.3382352941
 21
-7.8536523327
 31
0.0
  0
LINE
  5
1F3
100
AcDbEntity
  8
LAYER3
 62
         4
100
AcDbLine
 10
70.0586244541
 20
-40.1536523327
 30
0.0
 11
70.0586244541
 21
13.1463476673
 31
0.0
  0
LINE
  5
1F4
100
AcDbEntity
  8
LAYER1
 62
         3
100
AcDbLine
 10
-54.8231961363
 20
-27.8536523327
 30
0.0
 11
-54.8231961363
 21
-40.1536523327
 31
0.0
  0
LINE
  5
1F5
100
AcDbEntity
  8
LAYER1
 62
         3
100
AcDbLine
 10
-54.8231961363
 20
-7.8536523327
 30
0.0
 11
-57.1231961363
 21
-7.8536523327
 31
0.0
  0
LINE
  5
1F6
100
AcDbEntity
  8
LAYER1
 62
         3
100
AcDbLine
 10
-54.8231961363
 20
-27.8536523327
 30
0.0
 11
-57.1231961363
 21
-27.8536523327
 31
0.0
  0
LINE
  5
1F7
100
AcDbEntity
  8
LAYER1
 62
         3
100
AcDbLine
 10
-57.1231961363
 20
-7.8536523327
 30
0.0
 11
-57.1231961363
 21
-27.8536523327
 31
0.0
  0
MTEXT
  5
1F8
100
AcDbEntity
  8
LAYER0
100
AcDbMText
 10
-15.6501737419
 20
-132.5157576176
 30
0.0
 40
3.0922104359
 41
9.2327256828
 71
         1
 72
         1
  1
\W0.8;S-122
  0
MTEXT
  5
1F9
100
AcDbEntity
  8
LAYER0
100
AcDbMText
 10
-35.7051459079
 20
-126.6461242782
 30
0.0
 40
2.1473683357
 41
6.4116149902
 71
         1
 72
         1
  1
\W0.8;Ｎｏ.
  0
LINE
  5
1FA
100
AcDbEntity
  8
LAYER0
 62
         3
100
AcDbLine
 10
-25.0
 20
-125.5
 30
0.0
 11
-25.0
 21
-138.5
 31
0.0
  0
MTEXT
  5
1FB
100
AcDbEntity
  8
LAYER0
100
AcDbMText
 10
-10.6564309049
 20
-126.7970201517
 30
0.0
 40
2.1473683357
 41
7.6538653946
 71
         1
 72
         1
  1
\W0.8;品　番
  0
LINE
  5
1FC
100
AcDbEntity
  8
LAYER0
 62
         3
100
AcDbLine
 10
-40.0
 20
-138.5
 30
0.0
 11
-40.0
 21
-125.5
 31
0.0
  0
LINE
  5
1FD
100
AcDbEntity
  8
LAYER1
 62
         3
100
AcDbLine
 10
-27.5231961363
 20
-7.8536523327
 30
0.0
 11
-29.8231961363
 21
-7.8536523327
 31
0.0
  0
LINE
  5
1FE
100
AcDbEntity
  8
LAYER1
 62
         3
100
AcDbLine
 10
-27.5231961363
 20
-27.8536523327
 30
0.0
 11
-29.8231961363
 21
-27.8536523327
 31
0.0
  0
LINE
  5
1FF
100
AcDbEntity
  8
LAYER1
 62
         3
100
AcDbLine
 10
-27.5231961363
 20
-7.8536523327
 30
0.0
 11
-27.5231961363
 21
-27.8536523327
 31
0.0
  0
LINE
  5
200
100
AcDbEntity
  8
LAYER1
 62
         3
100
AcDbLine
 10
-54.8231961363
 20
-40.1536523327
 30
0.0
 11
-29.8231961363
 21
-40.1536523327
 31
0.0
  0
ENDSEC
  0
SECTION
  2
OBJECTS
  0
DICTIONARY
  5
19
100
AcDbDictionary
280
         0
281
         1
  3
ACAD_GROUP
350
1A
  3
ACAD_MLINESTYLE
350
1B
  3
ACAD_LAYOUT
350
1E
  3
ACAD_PLOTSETTINGS
350
22
  3
ACAD_PLOTSTYLENAME
350
1F
  3
ACAD_WIPEOUT_VARS
350
23
  0
DICTIONARY
  5
1A
102
{ACAD_REACTORS
330
19
102
}
100
AcDbDictionary
280
         0
281
         1
  0
DICTIONARY
  5
1B
102
{ACAD_REACTORS
330
19
102
}
100
AcDbDictionary
280
         0
281
         1
  3
Standard
350
1C
  0
MLINESTYLE
  5
1C
102
{ACAD_REACTORS
330
1B
102
}
100
AcDbMlineStyle
  2
Standard
 70
         0
  3

 62
         0
 51
90.0
 52
90.0
 71
         2
 49
0.5
 62
       256
  6
BYLAYER
 49
-0.5
 62
       256
  6
BYLAYER
  0
ACDBDICTIONARYWDFLT
  5
1F
102
{ACAD_REACTORS
330
19
102
}
100
AcDbDictionary
281
         1
  3
Normal
350
1D
100
AcDbDictionaryWithDefault
340
1D
  0
ACDBPLACEHOLDER
  5
1D
102
{ACAD_REACTORS
330
1F
102
}
  0
LAYOUT
  5
20
102
{ACAD_REACTORS
330
1E
102
}
100
AcDbPlotSettings
  1

  2

  4

  6

 40
0.0
 41
0.0
 42
0.0
 43
0.0
 44
0.0
 45
0.0
 46
0.0
 47
0.0
 48
0.0
 49
0.0
140
0.0
141
0.0
142
1.0
143
1.0
 70
         0
 72
         0
 73
         0
 74
         0
  7

 75
         0
147
1.0
148
0.0
149
0.0
100
AcDbLayout
  1
Model
 70
         0
 71
         0
 10
0.0
 20
0.0
 11
0.0
 21
0.0
 12
0.0
 22
0.0
 32
0.0
 14
0.0
 24
0.0
 34
0.0
 15
0.0
 25
0.0
 35
0.0
146
0.0
 13
0.0
 23
0.0
 33
0.0
 16
0.0
 26
0.0
 36
0.0
 17
0.0
 27
0.0
 37
0.0
 76
         0
330
A
331
0
345
0
346
0
  0
LAYOUT
  5
21
102
{ACAD_REACTORS
330
1E
102
}
100
AcDbPlotSettings
  1

  2

  4

  6

 40
0.0
 41
0.0
 42
0.0
 43
0.0
 44
0.0
 45
0.0
 46
0.0
 47
0.0
 48
0.0
 49
0.0
140
0.0
141
0.0
142
1.0
143
1.0
 70
         0
 72
         0
 73
         0
 74
         0
  7

 75
         0
147
1.0
148
0.0
149
0.0
100
AcDbLayout
  1
Layout1
 70
         0
 71
         0
 10
0.0
 20
0.0
 11
0.0
 21
0.0
 12
0.0
 22
0.0
 32
0.0
 14
0.0
 24
0.0
 34
0.0
 15
0.0
 25
0.0
 35
0.0
146
0.0
 13
0.0
 23
0.0
 33
0.0
 16
0.0
 26
0.0
 36
0.0
 17
0.0
 27
0.0
 37
0.0
 76
         0
330
B
331
0
345
0
346
0
  0
DICTIONARY
  5
1E
102
{ACAD_REACTORS
330
19
102
}
100
AcDbDictionary
280
         0
281
         1
  3
Layout1
350
21
  3
Model
350
20
  0
DICTIONARY
  5
22
102
{ACAD_REACTORS
330
19
102
}
100
AcDbDictionary
280
         0
281
         1
  0
WIPEOUTVARIABLES
  5
23
100
AcDbWipeoutVariables
 70
         1
  0
ENDSEC
  0
EOF
