  0
SECTION
  2
HEADER
  9
$ACADVER
  1
AC1015
  9
$ACADMAINTVER
 70
         6
  9
$DWGCODEPAGE
  3
ANSI_932
  9
$INSBASE
 10
0.0
 20
0.0
 30
0.0
  9
$EXTMIN
 10
1.0000000000E+20
 20
1.0000000000E+20
 30
1.0000000000E+20
  9
$EXTMAX
 10
-1.0000000000E+20
 20
-1.0000000000E+20
 30
-1.0000000000E+20
  9
$LIMMIN
 10
0.0
 20
0.0
  9
$LIMMAX
 10
0.0
 20
0.0
  9
$ORTHOMODE
 70
         0
  9
$REGENMODE
 70
         1
  9
$FILLMODE
 70
         1
  9
$QTEXTMODE
 70
         0
  9
$MIRRTEXT
 70
         1
  9
$LTSCALE
 40
1.0
  9
$ATTMODE
 70
         1
  9
$TEXTSIZE
 40
0.2
  9
$TRACEWID
 40
0.05
  9
$TEXTSTYLE
  7
Standard
  9
$CLAYER
  8
0
  9
$CELTYPE
  6
Continuous
  9
$CECOLOR
 62
       256
  9
$CELTSCALE
 40
1.0
  9
$DISPSILH
 70
         0
  9
$DIMSCALE
 40
1.0
  9
$DIMASZ
 40
0.18
  9
$DIMEXO
 40
0.0625
  9
$DIMDLI
 40
0.38
  9
$DIMRND
 40
0.0
  9
$DIMDLE
 40
0.0
  9
$DIMEXE
 40
0.18
  9
$DIMTP
 40
0.0
  9
$DIMTM
 40
0.0
  9
$DIMTXT
 40
0.18
  9
$DIMCEN
 40
0.09
  9
$DIMTSZ
 40
0.0
  9
$DIMTOL
 70
         0
  9
$DIMLIM
 70
         0
  9
$DIMTIH
 70
         1
  9
$DIMTOH
 70
         1
  9
$DIMSE1
 70
         0
  9
$DIMSE2
 70
         0
  9
$DIMTAD
 70
         0
  9
$DIMZIN
 70
         0
  9
$DIMBLK
  1

  9
$DIMASO
 70
         1
  9
$DIMSHO
 70
         1
  9
$DIMPOST
  1

  9
$DIMAPOST
  1

  9
$DIMALT
 70
         0
  9
$DIMALTD
 70
         2
  9
$DIMALTF
 40
25.4
  9
$DIMLFAC
 40
1.0
  9
$DIMTOFL
 70
         0
  9
$DIMTVP
 40
0.0
  9
$DIMTIX
 70
         0
  9
$DIMSOXD
 70
         0
  9
$DIMSAH
 70
         0
  9
$DIMBLK1
  1

  9
$DIMBLK2
  1

  9
$DIMSTYLE
  2
Standard
  9
$DIMCLRD
 70
         0
  9
$DIMCLRE
 70
         0
  9
$DIMCLRT
 70
         0
  9
$DIMTFAC
 40
1.0
  9
$DIMGAP
 40
0.09
  9
$DIMJUST
 70
         0
  9
$DIMSD1
 70
         0
  9
$DIMSD2
 70
         0
  9
$DIMTOLJ
 70
         1
  9
$DIMTZIN
 70
         0
  9
$DIMALTZ
 70
         0
  9
$DIMALTTZ
 70
         0
  9
$DIMUPT
 70
         0
  9
$DIMDEC
 70
         4
  9
$DIMTDEC
 70
         4
  9
$DIMALTU
 70
         2
  9
$DIMALTTD
 70
         2
  9
$DIMTXSTY
  7
Standard
  9
$DIMAUNIT
 70
         0
  9
$DIMADEC
 70
         0
  9
$DIMALTRND
 40
0.0
  9
$DIMAZIN
 70
         0
  9
$DIMDSEP
 70
         0
  9
$DIMATFIT
 70
         3
  9
$DIMFRAC
 70
         0
  9
$DIMLDRBLK
  1

  9
$DIMLUNIT
 70
         2
  9
$DIMLWD
 70
         0
  9
$DIMLWE
 70
         0
  9
$DIMTMOVE
 70
         0
  9
$LUNITS
 70
         2
  9
$LUPREC
 70
         4
  9
$SKETCHINC
 40
0.1
  9
$FILLETRAD
 40
0.0
  9
$AUNITS
 70
         0
  9
$AUPREC
 70
         0
  9
$MENU
  1
acad
  9
$ELEVATION
 40
0.0
  9
$PELEVATION
 40
0.0
  9
$THICKNESS
 40
0.0
  9
$LIMCHECK
 70
         0
  9
$CHAMFERA
 40
0.0
  9
$CHAMFERB
 40
0.0
  9
$CHAMFERC
 40
0.0
  9
$CHAMFERD
 40
0.0
  9
$SKPOLY
 70
         0
  9
$TDCREATE
 40
0.000000000
  9
$TDUCREATE
 40
0.000000000
  9
$TDUPDATE
 40
0.000000000
  9
$TDUUPDATE
 40
0.000000000
  9
$TDINDWG
 40
0.0000000000
  9
$TDUSRTIMER
 40
0.0000000000
  9
$USRTIMER
 70
         1
  9
$ANGBASE
 50
0.0
  9
$ANGDIR
 70
         0
  9
$PDMODE
 70
         3
  9
$PDSIZE
 40
-1.0
  9
$PLINEWID
 40
0.0
  9
$SPLFRAME
 70
         0
  9
$SPLINETYPE
 70
         6
  9
$SPLINESEGS
 70
         8
  9
$HANDSEED
  5
11F
  9
$SURFTAB1
 70
         6
  9
$SURFTAB2
 70
         6
  9
$SURFTYPE
 70
         6
  9
$SURFU
 70
         6
  9
$SURFV
 70
         6
  9
$UCSBASE
  2

  9
$UCSNAME
  2

  9
$UCSORG
 10
0.0
 20
0.0
 30
0.0
  9
$UCSXDIR
 10
1.0
 20
0.0
 30
0.0
  9
$UCSYDIR
 10
0.0
 20
1.0
 30
0.0
  9
$UCSORTHOREF
  2

  9
$UCSORTHOVIEW
 70
         0
  9
$UCSORGTOP
 10
0.0
 20
0.0
 30
0.0
  9
$UCSORGBOTTOM
 10
0.0
 20
0.0
 30
0.0
  9
$UCSORGLEFT
 10
0.0
 20
0.0
 30
0.0
  9
$UCSORGRIGHT
 10
0.0
 20
0.0
 30
0.0
  9
$UCSORGFRONT
 10
0.0
 20
0.0
 30
0.0
  9
$UCSORGBACK
 10
0.0
 20
0.0
 30
0.0
  9
$PUCSBASE
  2

  9
$PUCSNAME
  2

  9
$PUCSORG
 10
0.0
 20
0.0
 30
0.0
  9
$PUCSXDIR
 10
1.0
 20
0.0
 30
0.0
  9
$PUCSYDIR
 10
0.0
 20
1.0
 30
0.0
  9
$PUCSORTHOREF
  2

  9
$PUCSORTHOVIEW
 70
         0
  9
$PUCSORGTOP
 10
0.0
 20
0.0
 30
0.0
  9
$PUCSORGBOTTOM
 10
0.0
 20
0.0
 30
0.0
  9
$PUCSORGLEFT
 10
0.0
 20
0.0
 30
0.0
  9
$PUCSORGRIGHT
 10
0.0
 20
0.0
 30
0.0
  9
$PUCSORGFRONT
 10
0.0
 20
0.0
 30
0.0
  9
$PUCSORGBACK
 10
0.0
 20
0.0
 30
0.0
  9
$USERI1
 70
         0
  9
$USERI2
 70
         0
  9
$USERI3
 70
         0
  9
$USERI4
 70
         0
  9
$USERI5
 70
         0
  9
$USERR1
 40
0.0
  9
$USERR2
 40
0.0
  9
$USERR3
 40
0.0
  9
$USERR4
 40
0.0
  9
$USERR5
 40
0.0
  9
$WORLDVIEW
 70
         1
  9
$SHADEDGE
 70
         3
  9
$SHADEDIF
 70
        70
  9
$TILEMODE
 70
         1
  9
$MAXACTVP
 70
        16
  9
$PINSBASE
 10
0.0
 20
0.0
 30
0.0
  9
$PLIMCHECK
 70
         0
  9
$PEXTMIN
 10
1.0000000000E+20
 20
1.0000000000E+20
 30
1.0000000000E+20
  9
$PEXTMAX
 10
-1.0000000000E+20
 20
-1.0000000000E+20
 30
-1.0000000000E+20
  9
$PLIMMIN
 10
0.0
 20
0.0
  9
$PLIMMAX
 10
12.0
 20
9.0
  9
$UNITMODE
 70
         0
  9
$VISRETAIN
 70
         0
  9
$PLINEGEN
 70
         1
  9
$PSLTSCALE
 70
         0
  9
$TREEDEPTH
 70
      3020
  9
$CMLSTYLE
  2
Standard
  9
$CMLJUST
 70
         0
  9
$CMLSCALE
 40
1.0
  9
$PROXYGRAPHICS
 70
         0
  9
$MEASUREMENT
 70
         0
  9
$CELWEIGHT
370
         0
  9
$ENDCAPS
280
         0
  9
$JOINSTYLE
280
         0
  9
$LWDISPLAY
290
         0
  9
$INSUNITS
 70
         0
  9
$HYPERLINKBASE
  1

  9
$XEDIT
290
         1
  9
$CEPSNTYPE
380
         0
  9
$PSTYLEMODE
290
         0
  9
$FINGERPRINTGUID
  2

  9
$VERSIONGUID
  2

  9
$EXTNAMES
290
         1
  9
$PSVPSCALE
 40
0.0
  0
ENDSEC
  0
SECTION
  2
CLASSES
  0
CLASS
  1
LWPOLYLINE
  2
AcDbPolyline
  3
"AutoCAD"
 90
        0
280
         0
281
         1
  0
CLASS
  1
IMAGE
  2
AcDbRasterImage
  3
ISM
 90
      127
280
         0
281
         1
  0
CLASS
  1
OLE2FRAME
  2
AcDbOle2Frame
  3
""
 90
        0
280
         0
281
         1
  0
CLASS
  1
HATCH
  2
AcDbHatch
  3
"ACAD_SEDONA"
 90
        0
280
         0
281
         1
  0
CLASS
  1
DICTIONARYVAR
  2
AcDbDictionaryVar
  3
"AutoCAD"
 90
        0
280
         0
281
         0
  0
CLASS
  1
RASTERVARIABLES
  2
AcDbRasterVariables
  3
ISM
 90
        0
280
         0
281
         0
  0
CLASS
  1
IMAGEDEF
  2
AcDbRasterImageDef
  3
ISM
 90
        0
280
         0
281
         0
  0
CLASS
  1
IMAGEDEF_REACTOR
  2
AcDbRasterImageDefReactor
  3
ISM
 90
        1
280
         0
281
         0
  0
CLASS
  1
IDBUFFER
  2
AcDbIdBuffer
  3
"Acad"
 90
        0
280
         0
281
         0
  0
CLASS
  1
SPATIAL_FILTER
  2
AcDbSpatialFilter
  3
"Acad"
 90
        0
280
         0
281
         0
  0
CLASS
  1
XRECORD
  2
AcDbXrecord
  3
"<Built In>"
 90
        0
280
         0
281
         0
  0
CLASS
  1
SORTENTSTABLE
  2
AcDbSortentsTable
  3
"AutoCAD"
 90
        0
280
         0
281
         0
  0
CLASS
  1
LAYER_INDEX
  2
AcDbLayerIndex
  3
"Acad"
 90
        0
280
         0
281
         0
  0
CLASS
  1
SPATIAL_INDEX
  2
AcDbSpatialIndex
  3
"Acad"
 90
        0
280
         0
281
         0
  0
CLASS
  1
OBJECT_PTR
  2
CAseDLPNTableRecord
  3
"ASE-LPNTableRecord"
 90
        1
280
         0
281
         0
  0
CLASS
  1
LAYOUT
  2
AcDbLayout
  3
"AutoCAD 2000"
 90
        1
280
         0
281
         0
  0
CLASS
  1
PLOTSETTINGS
  2
AcDbPlotSettings
  3
"AutoCAD 2000"
 90
        1
280
         0
281
         0
  0
CLASS
  1
ACDBDICTIONARYWDFLT
  2
AcDbDictionaryWithDefault
  3
"AutoCAD 2000"
 90
        1
280
         0
281
         0
  0
CLASS
  1
ACDBPLACEHOLDER
  2
AcDbPlaceHolder
  3
"AutoCAD 2000"
 90
        1
280
         0
281
         0
  0
CLASS
  1
VBA_PROJECT
  2
AcDbVbaProject
  3
"acadvba"
 90
        1
280
         0
281
         0
  0
CLASS
  1
WIPEOUT
  2
AcDbWipeout
  3
WipeOut|AutoCAD Express Tool|expresstools@autodesk.com
 90
      127
280
         0
281
         1
  0
CLASS
  1
WIPEOUTVARIABLES
  2
AcDbWipeoutVariables
  3
WipeOut|AutoCAD Express Tool|expresstools@autodesk.com
 90
        0
280
         0
281
         0
  0
CLASS
  1
RTEXT
  2
RText
  3
RText|AutoCAD Express Tool|expresstools@autodesk.com
 90
        0
280
         0
281
         1
  0
CLASS
  1
ARCALIGNEDTEXT
  2
AcDbArcAlignedText
  3
ATEXT|AutoCAD Express Tool|expresstools@autodesk.com
 90
        0
280
         0
281
         1
  0
ENDSEC
  0
SECTION
  2
TABLES
  0
TABLE
  2
VPORT
  5
7
100
AcDbSymbolTable
 70
         1
  0
VPORT
  5
15
100
AcDbSymbolTableRecord
100
AcDbViewportTableRecord
  2
*ACTIVE
 70
         0
 10
0.0
 20
0.0
 11
1.0
 21
1.0
 12
6.591288
 22
4.579184
 13
0.0
 23
0.0
 14
1.0
 24
1.0
 15
0.0
 25
0.0
 16
0.0
 26
0.0
 36
1.0
 17
0.0
 27
0.0
 37
0.0
 40
9.158369
 41
0.688564
 42
50.0
 43
0.0
 44
0.0
 50
0.0
 51
0.0
 71
         0
 72
       100
 73
         1
 74
         1
 75
         0
 76
         0
 77
         0
 78
         0
281
         0
 65
         0
110
0.0
120
0.0
130
0.0
111
1.0
121
0.0
131
0.0
112
0.0
122
1.0
132
0.0
345
0
346
0
 79
         0
146
0.0
  0
ENDTAB
  0
TABLE
  2
LTYPE
  5
4
100
AcDbSymbolTable
 70
        13
  0
LTYPE
  5
11
100
AcDbSymbolTableRecord
100
AcDbLinetypeTableRecord
  2
ByBlock
 70
        64
  3

 72
        65
 73
         0
 40
0.0
  0
LTYPE
  5
12
100
AcDbSymbolTableRecord
100
AcDbLinetypeTableRecord
  2
ByLayer
 70
        64
  3

 72
        65
 73
         0
 40
0.0
  0
LTYPE
  5
13
100
AcDbSymbolTableRecord
100
AcDbLinetypeTableRecord
  2
Continuous
 70
        64
  3
Solid line
 72
        65
 73
         0
 40
0.0
  0
LTYPE
  5
24
100
AcDbSymbolTableRecord
100
AcDbLinetypeTableRecord
  2
DOT
 70
        64
  3
. . . . . . . . 
 72
        65
 73
         2
 40
1.0
 49
0.0
 74
         0
 49
-1.0
 74
         0
  0
LTYPE
  5
25
100
AcDbSymbolTableRecord
100
AcDbLinetypeTableRecord
  2
DASHED
 70
        64
  3
___  ___  ___  ___  
 72
        65
 73
         2
 40
4.0
 49
3.0
 74
         0
 49
-1.0
 74
         0
  0
LTYPE
  5
26
100
AcDbSymbolTableRecord
100
AcDbLinetypeTableRecord
  2
HIDDEN
 70
        64
  3
__ __ __ __ 
 72
        65
 73
         2
 40
3.0
 49
2.0
 74
         0
 49
-1.0
 74
         0
  0
LTYPE
  5
27
100
AcDbSymbolTableRecord
100
AcDbLinetypeTableRecord
  2
STITCH
 70
        64
  3
_ _ _ _ 
 72
        65
 73
         2
 40
2.0
 49
1.0
 74
         0
 49
-1.0
 74
         0
  0
LTYPE
  5
28
100
AcDbSymbolTableRecord
100
AcDbLinetypeTableRecord
  2
CENTER
 70
        64
  3
______  __  ______  __  
 72
        65
 73
         4
 40
43.0
 49
40.0
 74
         0
 49
-1.0
 74
         0
 49
1.0
 74
         0
 49
-1.0
 74
         0
  0
LTYPE
  5
29
100
AcDbSymbolTableRecord
100
AcDbLinetypeTableRecord
  2
DASHDOT
 70
        64
  3
____ . ____ . 
 72
        65
 73
         4
 40
32.0
 49
30.0
 74
         0
 49
-1.0
 74
         0
 49
0.0
 74
         0
 49
-1.0
 74
         0
  0
LTYPE
  5
2A
100
AcDbSymbolTableRecord
100
AcDbLinetypeTableRecord
  2
BORDER
 70
        64
  3
__ . __ . 
 72
        65
 73
         4
 40
22.0
 49
20.0
 74
         0
 49
-1.0
 74
         0
 49
0.0
 74
         0
 49
-1.0
 74
         0
  0
LTYPE
  5
2B
100
AcDbSymbolTableRecord
100
AcDbLinetypeTableRecord
  2
CUTTING
 70
        64
  3
________   ___   ___   
 72
        65
 73
         6
 40
45.0
 49
40.0
 74
         0
 49
-1.0
 74
         0
 49
1.0
 74
         0
 49
-1.0
 74
         0
 49
1.0
 74
         0
 49
-1.0
 74
         0
  0
LTYPE
  5
2C
100
AcDbSymbolTableRecord
100
AcDbLinetypeTableRecord
  2
PHANTOM
 70
        64
  3
______  __  __  
 72
        65
 73
         6
 40
35.0
 49
30.0
 74
         0
 49
-1.0
 74
         0
 49
1.0
 74
         0
 49
-1.0
 74
         0
 49
1.0
 74
         0
 49
-1.0
 74
         0
  0
LTYPE
  5
2D
100
AcDbSymbolTableRecord
100
AcDbLinetypeTableRecord
  2
DIVIDE
 70
        64
  3
____ . . ____ . . 
 72
        65
 73
         6
 40
23.0
 49
20.0
 74
         0
 49
-1.0
 74
         0
 49
0.0
 74
         0
 49
-1.0
 74
         0
 49
0.0
 74
         0
 49
-1.0
 74
         0
  0
ENDTAB
  0
TABLE
  2
LAYER
  5
2
100
AcDbSymbolTable
 70
         5
  0
LAYER
  5
14
100
AcDbSymbolTableRecord
100
AcDbLayerTableRecord
  2
0
 70
         0
 62
         7
  6
Continuous
290
         1
370
        -3
390
1D
  0
LAYER
  5
2E
100
AcDbSymbolTableRecord
100
AcDbLayerTableRecord
  2
LAYER3
 70
         0
 62
         7
  6
Continuous
290
         1
370
        -3
390
1F
  0
LAYER
  5
3B
100
AcDbSymbolTableRecord
100
AcDbLayerTableRecord
  2
LAYER4
 70
         0
 62
         7
  6
Continuous
290
         1
370
        -3
390
1F
  0
LAYER
  5
41
100
AcDbSymbolTableRecord
100
AcDbLayerTableRecord
  2
LAYER0
 70
         0
 62
         7
  6
Continuous
290
         1
370
        -3
390
1F
  0
LAYER
  5
5E
100
AcDbSymbolTableRecord
100
AcDbLayerTableRecord
  2
LAYER240
 70
         0
 62
         7
  6
Continuous
290
         1
370
        -3
390
1F
  0
ENDTAB
  0
TABLE
  2
STYLE
  5
3
100
AcDbSymbolTable
 70
         1
  0
STYLE
  5
17
100
AcDbSymbolTableRecord
100
AcDbTextStyleTableRecord
  2
Standard
 70
         0
 40
0.0
 41
1.0
 50
0.0
 71
         0
 42
0.0
  3
txt
  4
extfont
  0
ENDTAB
  0
TABLE
  2
VIEW
  5
5
100
AcDbSymbolTable
 70
         0
  0
ENDTAB
  0
TABLE
  2
UCS
  5
6
100
AcDbSymbolTable
 70
         0
  0
ENDTAB
  0
TABLE
  2
APPID
  5
8
100
AcDbSymbolTable
 70
         1
  0
APPID
  5
16
100
AcDbSymbolTableRecord
100
AcDbRegAppTableRecord
  2
ACAD
 70
         0
  0
ENDTAB
  0
TABLE
  2
DIMSTYLE
  5
9
100
AcDbSymbolTable
 70
         1
100
AcDbDimStyleTable
 71
         0
  0
DIMSTYLE
105
18
100
AcDbSymbolTableRecord
100
AcDbDimStyleTableRecord
  2
Standard
 70
         0
  3

  4

 40
1.0
 41
0.18
 42
0.0625
 43
0.38
 44
0.18
 45
0.0
 46
0.0
 47
0.0
 48
0.0
 71
         0
 72
         0
 73
         1
 74
         1
 75
         0
 76
         0
 77
         0
 78
         0
 79
         0
140
0.18
141
0.09
142
0.0
143
25.4
144
1.0
145
0.0
146
1.0
147
0.09
148
0.0
170
         0
171
         2
172
         0
173
         0
174
         0
175
         0
176
         0
177
         0
178
         0
179
         0
271
         4
272
         4
273
         2
274
         2
275
         0
276
         0
277
         2
278
        46
279
         0
280
         0
281
         0
282
         0
283
         1
284
         0
285
         0
286
         0
288
         0
340
17
341
0
342
0
343
0
344
0
371
        -2
372
        -2
  0
ENDTAB
  0
TABLE
  2
BLOCK_RECORD
  5
1
100
AcDbSymbolTable
 70
         0
  0
BLOCK_RECORD
  5
A
100
AcDbSymbolTableRecord
100
AcDbBlockTableRecord
  2
*MODEL_SPACE
340
20
  0
BLOCK_RECORD
  5
B
100
AcDbSymbolTableRecord
100
AcDbBlockTableRecord
  2
*PAPER_SPACE
340
21
  0
ENDTAB
  0
ENDSEC
  0
SECTION
  2
BLOCKS
  0
BLOCK
  5
D
100
AcDbEntity
  8
0
100
AcDbBlockBegin
  2
*MODEL_SPACE
 70
         0
 10
0.0
 20
0.0
 30
0.0
  3
*MODEL_SPACE
  1

  0
ENDBLK
  5
E
100
AcDbEntity
  8
0
100
AcDbBlockEnd
  0
BLOCK
  5
F
100
AcDbEntity
 67
         1
  8
0
100
AcDbBlockBegin
  2
*PAPER_SPACE
 70
         0
 10
0.0
 20
0.0
 30
0.0
  3
*PAPER_SPACE
  1

  0
ENDBLK
  5
10
100
AcDbEntity
 67
         1
  8
0
100
AcDbBlockEnd
  0
ENDSEC
  0
SECTION
  2
ENTITIES
  0
LINE
  5
2F
100
AcDbEntity
  8
LAYER3
 62
         4
100
AcDbLine
 10
68.8048707645
 20
27.4483705414
 30
0.0
 11
68.8048707645
 21
37.2489133653
 31
0.0
  0
LINE
  5
30
100
AcDbEntity
  8
LAYER3
 62
         4
100
AcDbLine
 10
63.7048707645
 20
21.0483705414
 30
0.0
 11
63.7048707645
 21
37.2489133653
 31
0.0
  0
MTEXT
  5
31
100
AcDbEntity
  8
LAYER3
100
AcDbMText
 10
48.3048707645
 20
40.0365720567
 30
0.0
 40
2.1473683357
 41
2.5646459961
 71
         1
 72
         1
  1
\W0.8;26
  0
LINE
  5
32
100
AcDbEntity
  8
LAYER3
 62
         4
100
AcDbLine
 10
63.7048707645
 20
36.2489133653
 30
0.0
 11
60.7704279623
 21
35.6251782928
 31
0.0
  0
LINE
  5
33
100
AcDbEntity
  8
LAYER3
 62
         4
100
AcDbLine
 10
63.7048707645
 20
36.2489133653
 30
0.0
 11
60.7704279623
 21
36.8726484377
 31
0.0
  0
LINE
  5
34
100
AcDbEntity
  8
LAYER3
 62
         4
100
AcDbLine
 10
37.7048707645
 20
36.2489133653
 30
0.0
 11
40.6393135667
 21
36.8726484377
 31
0.0
  0
LINE
  5
35
100
AcDbEntity
  8
LAYER3
 62
         4
100
AcDbLine
 10
37.7048707645
 20
36.2489133653
 30
0.0
 11
40.6393135667
 21
35.6251782928
 31
0.0
  0
LINE
  5
36
100
AcDbEntity
  8
LAYER3
 62
         4
100
AcDbLine
 10
37.7048707645
 20
36.2489133653
 30
0.0
 11
63.7048707645
 21
36.2489133653
 31
0.0
  0
MTEXT
  5
37
100
AcDbEntity
  8
LAYER3
100
AcDbMText
 10
70.506683027
 20
11.0483704667
 30
0.0
 40
2.1473683357
 41
2.5646459961
 71
         1
 72
         1
  1
\W0.8;28
 11
-0.0000000268
 21
1.0
 31
0.0
  0
LINE
  5
38
100
AcDbEntity
  8
LAYER3
 62
         4
100
AcDbLine
 10
74.2943417184
 20
27.4483705414
 30
0.0
 11
74.9180767908
 21
24.5139277392
 31
0.0
  0
LINE
  5
39
100
AcDbEntity
  8
LAYER3
 62
         4
100
AcDbLine
 10
74.2943417184
 20
27.4483705414
 30
0.0
 11
73.6706066459
 21
24.5139277392
 31
0.0
  0
LINE
  5
3A
100
AcDbEntity
  8
LAYER3
 62
         4
100
AcDbLine
 10
68.8048707645
 20
27.4483705414
 30
0.0
 11
75.2943417184
 21
27.4483705414
 31
0.0
  0
LINE
  5
3C
100
AcDbEntity
  8
LAYER4
 62
         3
100
AcDbLine
 10
63.0155185471
 20
25.0614340295
 30
0.0
 11
63.0925380993
 21
25.1642443313
 31
0.0
  0
ARC
  5
3D
100
AcDbEntity
  8
LAYER4
 62
         3
100
AcDbCircle
 10
63.8803829285
 20
24.5483705414
 30
0.0
 40
1.0
210
0.0
220
0.0
230
1.0
100
AcDbArc
 50
90.0000015352
 51
141.9845635362
  0
ARC
  5
3E
100
AcDbEntity
  8
LAYER4
 62
         3
100
AcDbCircle
 10
63.8048707645
 20
21.3625841038
 30
0.0
 40
1.0
210
0.0
220
0.0
230
1.0
100
AcDbArc
 50
180.0000030705
 51
224.9999976971
  0
ARC
  5
3F
100
AcDbEntity
  8
LAYER4
 62
         3
100
AcDbCircle
 10
63.8048707645
 20
24.4474934159
 30
0.0
 40
1.0
210
0.0
220
0.0
230
1.0
100
AcDbArc
 50
142.1250187733
 51
180.0000030705
  0
LINE
  5
40
100
AcDbEntity
  8
LAYER4
 62
         3
100
AcDbLine
 10
41.6350611387
 20
5.0631405815
 30
0.0
 11
63.7048707645
 21
5.4483705414
 31
0.0
  0
LINE
  5
42
100
AcDbEntity
  8
LAYER0
 62
         6
100
AcDbLine
 10
65.3048707645
 20
2.0983705414
 30
0.0
 11
65.3048707645
 21
3.9483705414
 31
0.0
  0
LINE
  5
43
100
AcDbEntity
  8
LAYER0
 62
         6
100
AcDbLine
 10
66.8048707645
 20
3.9483705414
 30
0.0
 11
65.3048707645
 21
3.9483705414
 31
0.0
  0
LINE
  5
44
100
AcDbEntity
  8
LAYER3
 62
         4
100
AcDbLine
 10
63.7048707645
 20
21.0483705414
 30
0.0
 11
63.7048707645
 21
37.2489133653
 31
0.0
  0
LINE
  5
45
100
AcDbEntity
  8
LAYER3
 62
         4
100
AcDbLine
 10
37.7048707645
 20
2.0637498008
 30
0.0
 11
37.7048707645
 21
37.2489133653
 31
0.0
  0
LINE
  5
46
100
AcDbEntity
  8
LAYER3
 62
         4
100
AcDbLine
 10
29.8438145534
 20
27.4483705414
 30
0.0
 11
30.4675496259
 21
24.5139277392
 31
0.0
  0
LINE
  5
47
100
AcDbEntity
  8
LAYER3
 62
         4
100
AcDbLine
 10
29.8438145534
 20
27.4483705414
 30
0.0
 11
29.220079481
 21
24.5139277392
 31
0.0
  0
LINE
  5
48
100
AcDbEntity
  8
LAYER3
 62
         4
100
AcDbLine
 10
61.7048707645
 20
27.4483705414
 30
0.0
 11
28.8438145534
 21
27.4483705414
 31
0.0
  0
MTEXT
  5
49
100
AcDbEntity
  8
LAYER3
100
AcDbMText
 10
48.4548707645
 20
46.7753583633
 30
0.0
 40
2.1473683357
 41
5.1292919922
 71
         1
 72
         1
  1
\W0.8;31.1
  0
LINE
  5
4A
100
AcDbEntity
  8
LAYER3
 62
         4
100
AcDbLine
 10
37.7048707645
 20
42.9876996719
 30
0.0
 11
40.6393135667
 21
43.6114347444
 31
0.0
  0
LINE
  5
4B
100
AcDbEntity
  8
LAYER3
 62
         4
100
AcDbLine
 10
37.7048707645
 20
42.9876996719
 30
0.0
 11
40.6393135667
 21
42.3639645994
 31
0.0
  0
LINE
  5
4C
100
AcDbEntity
  8
LAYER3
 62
         4
100
AcDbLine
 10
68.8048707645
 20
42.9876996719
 30
0.0
 11
65.8704279623
 21
42.3639645994
 31
0.0
  0
LINE
  5
4D
100
AcDbEntity
  8
LAYER3
 62
         4
100
AcDbLine
 10
68.8048707645
 20
42.9876996719
 30
0.0
 11
65.8704279623
 21
43.6114347444
 31
0.0
  0
LINE
  5
4E
100
AcDbEntity
  8
LAYER3
 62
         4
100
AcDbLine
 10
68.8048707645
 20
42.9876996719
 30
0.0
 11
37.7048707645
 21
42.9876996719
 31
0.0
  0
LINE
  5
4F
100
AcDbEntity
  8
LAYER3
 62
         4
100
AcDbLine
 10
37.7048707645
 20
37.2489133653
 30
0.0
 11
37.7048707645
 21
43.9876996719
 31
0.0
  0
LINE
  5
50
100
AcDbEntity
  8
LAYER3
 62
         4
100
AcDbLine
 10
68.8048707645
 20
37.2489133653
 30
0.0
 11
68.8048707645
 21
43.9876996719
 31
0.0
  0
LINE
  5
51
100
AcDbEntity
  8
LAYER3
 62
         4
100
AcDbLine
 10
68.8048707645
 20
36.2489133653
 30
0.0
 11
71.7393135667
 21
36.8726484377
 31
0.0
  0
LINE
  5
52
100
AcDbEntity
  8
LAYER3
 62
         4
100
AcDbLine
 10
68.8048707645
 20
36.2489133653
 30
0.0
 11
71.7393135667
 21
35.6251782928
 31
0.0
  0
LINE
  5
53
100
AcDbEntity
  8
LAYER3
 62
         4
100
AcDbLine
 10
81.0048707645
 20
36.2489133653
 30
0.0
 11
68.8048707645
 21
36.2489133653
 31
0.0
  0
MTEXT
  5
54
100
AcDbEntity
  8
LAYER3
100
AcDbMText
 10
72.8048707645
 20
40.0365720567
 30
0.0
 40
2.1473683357
 41
3.8469689941
 71
         1
 72
         1
  1
\W0.8;5.1
  0
LINE
  5
55
100
AcDbEntity
  8
LAYER3
 62
         4
100
AcDbLine
 10
63.7048707645
 20
36.2489133653
 30
0.0
 11
68.8048707645
 21
36.2489133653
 31
0.0
  0
LINE
  5
56
100
AcDbEntity
  8
LAYER3
 62
         4
100
AcDbLine
 10
54.3048707645
 20
-67.9429347494
 30
0.0
 11
57.2393135667
 21
-68.5666698219
 31
0.0
  0
LINE
  5
57
100
AcDbEntity
  8
LAYER3
 62
         4
100
AcDbLine
 10
63.7048707645
 20
-67.9429347494
 30
0.0
 11
60.7704279623
 21
-68.5666698219
 31
0.0
  0
LINE
  5
58
100
AcDbEntity
  8
LAYER3
 62
         4
100
AcDbLine
 10
63.7048707645
 20
-67.9429347494
 30
0.0
 11
60.7704279623
 21
-67.319199677
 31
0.0
  0
LINE
  5
59
100
AcDbEntity
  8
LAYER3
 62
         4
100
AcDbLine
 10
63.7048707645
 20
-67.9429347494
 30
0.0
 11
54.3048707645
 21
-67.9429347494
 31
0.0
  0
LINE
  5
5A
100
AcDbEntity
  8
LAYER3
 62
         4
100
AcDbLine
 10
54.3048707645
 20
-42.0516294586
 30
0.0
 11
54.3048707645
 21
-68.9429347494
 31
0.0
  0
MTEXT
  5
5B
100
AcDbEntity
  8
LAYER3
100
AcDbMText
 10
70.506683027
 20
-26.9516295333
 30
0.0
 40
2.1473683357
 41
2.5646459961
 71
         1
 72
         1
  1
\W0.8;48
 11
-0.0000000268
 21
1.0
 31
0.0
  0
LINE
  5
5C
100
AcDbEntity
  8
LAYER3
 62
         4
100
AcDbLine
 10
74.2943417184
 20
-48.5516294586
 30
0.0
 11
73.6706066459
 21
-45.6171866564
 31
0.0
  0
LINE
  5
5D
100
AcDbEntity
  8
LAYER3
 62
         4
100
AcDbLine
 10
74.2943417184
 20
-48.5516294586
 30
0.0
 11
74.9180767908
 21
-45.6171866564
 31
0.0
  0
MTEXT
  5
5F
100
AcDbEntity
  8
LAYER240
100
AcDbMText
 10
68.9915281493
 20
-132.8823877081
 30
0.0
 40
2.576842165
 41
9.1846390514
 71
         1
 72
         1
  1
\W0.8; 55884
  0
MTEXT
  5
60
100
AcDbEntity
  8
LAYER3
100
AcDbMText
 10
41.2048707645
 20
-64.155276058
 30
0.0
 40
2.1473683357
 41
5.1292919922
 71
         1
 72
         1
  1
\W0.8;16.6
  0
LINE
  5
61
100
AcDbEntity
  8
LAYER3
 62
         4
100
AcDbLine
 10
37.7048707645
 20
-67.9429347494
 30
0.0
 11
40.6393135667
 21
-67.319199677
 31
0.0
  0
LINE
  5
62
100
AcDbEntity
  8
LAYER3
 62
         4
100
AcDbLine
 10
37.7048707645
 20
-67.9429347494
 30
0.0
 11
40.6393135667
 21
-68.5666698219
 31
0.0
  0
LINE
  5
63
100
AcDbEntity
  8
LAYER4
 62
         3
100
AcDbLine
 10
62.8048707645
 20
21.3625841038
 30
0.0
 11
62.8048707645
 21
24.4474934159
 31
0.0
  0
LINE
  5
64
100
AcDbEntity
  8
LAYER4
 62
         3
100
AcDbLine
 10
63.0977639833
 20
20.6554773226
 30
0.0
 11
63.7048707645
 21
20.0483705414
 31
0.0
  0
ARC
  5
65
100
AcDbEntity
  8
LAYER0
 62
         3
100
AcDbCircle
 10
64.3048707645
 20
24.5483705414
 30
0.0
 40
1.0
210
0.0
220
-0.0
230
1.0
100
AcDbArc
 50
0.0
 51
90.0000015352
  0
LINE
  5
66
100
AcDbEntity
  8
LAYER0
 62
         3
100
AcDbLine
 10
65.3048707645
 20
24.5483705414
 30
0.0
 11
65.3048707645
 21
22.9483705414
 31
0.0
  0
LINE
  5
67
100
AcDbEntity
  8
LAYER0
 62
         3
100
AcDbLine
 10
66.8048707645
 20
22.9483705414
 30
0.0
 11
68.8048707645
 21
25.9483705414
 31
0.0
  0
LINE
  5
68
100
AcDbEntity
  8
LAYER0
 62
         3
100
AcDbLine
 10
63.8803829285
 20
25.5483705414
 30
0.0
 11
64.3048707645
 21
25.5483705414
 31
0.0
  0
LINE
  5
69
100
AcDbEntity
  8
LAYER0
 62
         3
100
AcDbLine
 10
66.8048707645
 20
22.9483705414
 30
0.0
 11
65.3048707645
 21
22.9483705414
 31
0.0
  0
LINE
  5
6A
100
AcDbEntity
  8
LAYER0
 62
         3
100
AcDbLine
 10
68.8048707645
 20
26.4483705414
 30
0.0
 11
68.8048707645
 21
25.9483705414
 31
0.0
  0
ARC
  5
6B
100
AcDbEntity
  8
LAYER4
 62
         3
100
AcDbCircle
 10
63.6526543846
 20
23.4483705414
 30
0.0
 40
4.0
210
0.0
220
0.0
230
1.0
100
AcDbArc
 50
90.0000015352
 51
141.9271560971
  0
POINT
  5
6C
100
AcDbEntity
  8
LAYER4
 62
         2
100
AcDbPoint
 10
61.7048707645
 20
27.4483705414
 30
0.0
  0
ARC
  5
6D
100
AcDbEntity
  8
LAYER0
 62
         3
100
AcDbCircle
 10
67.8048707645
 20
26.4483705414
 30
0.0
 40
1.0
210
0.0
220
-0.0
230
1.0
100
AcDbArc
 50
0.0
 51
90.0000015352
  0
LINE
  5
6E
100
AcDbEntity
  8
LAYER0
 62
         3
100
AcDbLine
 10
63.6526543846
 20
27.4483705414
 30
0.0
 11
67.8048707645
 21
27.4483705414
 31
0.0
  0
LINE
  5
6F
100
AcDbEntity
  8
LAYER4
 62
         3
100
AcDbLine
 10
44.2048707645
 20
5.1079967753
 30
0.0
 11
60.5037449451
 21
25.9150219846
 31
0.0
  0
ARC
  5
70
100
AcDbEntity
  8
LAYER0
 62
         2
100
AcDbCircle
 10
52.8048707645
 20
-4.0516294586
 30
0.0
 40
1.5
210
0.0
220
-0.0
230
1.0
100
AcDbArc
 50
0.0
 51
90.0000015352
  0
ARC
  5
71
100
AcDbEntity
  8
LAYER0
 62
         6
100
AcDbCircle
 10
42.2048707645
 20
-44.0516294586
 30
0.0
 40
4.5
210
0.0
220
0.0
230
1.0
100
AcDbArc
 50
179.9999969295
 51
269.9999984648
  0
ARC
  5
72
100
AcDbEntity
  8
LAYER0
 62
         6
100
AcDbCircle
 10
52.5048707645
 20
-48.2516294586
 30
0.0
 40
0.3
210
-0.0
220
0.0
230
1.0
100
AcDbArc
 50
269.9999984648
 51
0.0
  0
LINE
  5
73
100
AcDbEntity
  8
LAYER3
 62
         4
100
AcDbLine
 10
29.7846870333
 20
-48.5516294586
 30
0.0
 11
29.1609519608
 21
-45.6171866564
 31
0.0
  0
LINE
  5
74
100
AcDbEntity
  8
LAYER3
 62
         4
100
AcDbLine
 10
29.7846870333
 20
-48.5516294586
 30
0.0
 11
30.4084221057
 21
-45.6171866564
 31
0.0
  0
LINE
  5
75
100
AcDbEntity
  8
LAYER3
 62
         4
100
AcDbLine
 10
29.7846870333
 20
-43.5516294586
 30
0.0
 11
29.7846870333
 21
-48.5516294586
 31
0.0
  0
LINE
  5
76
100
AcDbEntity
  8
LAYER3
 62
         4
100
AcDbLine
 10
29.7846870333
 20
-54.0516294586
 30
0.0
 11
30.4084221057
 21
-56.9860722608
 31
0.0
  0
LINE
  5
77
100
AcDbEntity
  8
LAYER3
 62
         4
100
AcDbLine
 10
29.7846870333
 20
-54.0516294586
 30
0.0
 11
29.1609519608
 21
-56.9860722608
 31
0.0
  0
LINE
  5
78
100
AcDbEntity
  8
LAYER3
 62
         4
100
AcDbLine
 10
29.7846870333
 20
-66.2516294586
 30
0.0
 11
29.7846870333
 21
-54.0516294586
 31
0.0
  0
MTEXT
  5
79
100
AcDbEntity
  8
LAYER3
100
AcDbMText
 10
25.9970283419
 20
-65.2516295333
 30
0.0
 40
2.1473683357
 41
3.8469689941
 71
         1
 72
         1
  1
\W0.8;5.5
 11
-0.0000000268
 21
1.0
 31
0.0
  0
LINE
  5
7A
100
AcDbEntity
  8
LAYER3
 62
         4
100
AcDbLine
 10
29.7846870333
 20
-48.5516294586
 30
0.0
 11
29.7846870333
 21
-54.0516294586
 31
0.0
  0
LINE
  5
7B
100
AcDbEntity
  8
LAYER3
 62
         4
100
AcDbLine
 10
46.1048707645
 20
-54.0516294586
 30
0.0
 11
28.7846870333
 21
-54.0516294586
 31
0.0
  0
LINE
  5
7C
100
AcDbEntity
  8
LAYER3
 62
         4
100
AcDbLine
 10
41.2048707645
 20
-48.5516294586
 30
0.0
 11
28.7846870333
 21
-48.5516294586
 31
0.0
  0
MTEXT
  5
7D
100
AcDbEntity
  8
LAYER3
100
AcDbMText
 10
26.056155862
 20
-12.9516295333
 30
0.0
 40
2.1473683357
 41
2.5646459961
 71
         1
 72
         1
  1
\W0.8;76
 11
-0.0000000268
 21
1.0
 31
0.0
  0
LINE
  5
7E
100
AcDbEntity
  8
LAYER3
 62
         4
100
AcDbLine
 10
29.8438145534
 20
-48.5516294586
 30
0.0
 11
29.220079481
 21
-45.6171866564
 31
0.0
  0
LINE
  5
7F
100
AcDbEntity
  8
LAYER3
 62
         4
100
AcDbLine
 10
29.8438145534
 20
-48.5516294586
 30
0.0
 11
30.4675496259
 21
-45.6171866564
 31
0.0
  0
LINE
  5
80
100
AcDbEntity
  8
LAYER3
 62
         4
100
AcDbLine
 10
41.2048707645
 20
-48.5516294586
 30
0.0
 11
28.8438145534
 21
-48.5516294586
 31
0.0
  0
LINE
  5
81
100
AcDbEntity
  8
LAYER3
 62
         4
100
AcDbLine
 10
53.5048707645
 20
-48.5516294586
 30
0.0
 11
75.2943417184
 21
-48.5516294586
 31
0.0
  0
LINE
  5
82
100
AcDbEntity
  8
LAYER3
 62
         4
100
AcDbLine
 10
54.3048707645
 20
-67.9429347494
 30
0.0
 11
51.3704279623
 21
-68.5666698219
 31
0.0
  0
LINE
  5
83
100
AcDbEntity
  8
LAYER3
 62
         4
100
AcDbLine
 10
54.3048707645
 20
-67.9429347494
 30
0.0
 11
51.3704279623
 21
-67.319199677
 31
0.0
  0
LINE
  5
84
100
AcDbEntity
  8
LAYER3
 62
         4
100
AcDbLine
 10
54.3048707645
 20
-67.9429347494
 30
0.0
 11
37.7048707645
 21
-67.9429347494
 31
0.0
  0
LINE
  5
85
100
AcDbEntity
  8
LAYER3
 62
         4
100
AcDbLine
 10
37.7048707645
 20
-45.0516294586
 30
0.0
 11
37.7048707645
 21
-68.9429347494
 31
0.0
  0
LINE
  5
86
100
AcDbEntity
  8
LAYER3
 62
         4
100
AcDbLine
 10
54.3048707645
 20
-42.0516294586
 30
0.0
 11
54.3048707645
 21
-68.9429347494
 31
0.0
  0
MTEXT
  5
87
100
AcDbEntity
  8
LAYER3
100
AcDbMText
 10
55.4048707645
 20
-64.155276058
 30
0.0
 40
2.1473683357
 41
3.8469689941
 71
         1
 72
         1
  1
\W0.8;9.4
  0
LINE
  5
88
100
AcDbEntity
  8
LAYER3
 62
         4
100
AcDbLine
 10
54.3048707645
 20
-67.9429347494
 30
0.0
 11
57.2393135667
 21
-67.319199677
 31
0.0
  0
LINE
  5
89
100
AcDbEntity
  8
LAYER3
 62
         4
100
AcDbLine
 10
-6.9804849885
 20
107.6112535958
 30
0.0
 11
-9.9149277907
 21
108.2349886682
 31
0.0
  0
LINE
  5
8A
100
AcDbEntity
  8
LAYER3
 62
         4
100
AcDbLine
 10
-55.7804849885
 20
107.6112535958
 30
0.0
 11
-52.8460421863
 21
108.2349886682
 31
0.0
  0
LINE
  5
8B
100
AcDbEntity
  8
LAYER3
 62
         4
100
AcDbLine
 10
-55.7804849885
 20
107.6112535958
 30
0.0
 11
-52.8460421863
 21
106.9875185233
 31
0.0
  0
LINE
  5
8C
100
AcDbEntity
  8
LAYER3
 62
         4
100
AcDbLine
 10
-55.7804849885
 20
107.6112535958
 30
0.0
 11
-6.9804849885
 21
107.6112535958
 31
0.0
  0
LINE
  5
8D
100
AcDbEntity
  8
LAYER3
 62
         4
100
AcDbLine
 10
-6.9804849885
 20
90.103926097
 30
0.0
 11
-6.9804849885
 21
108.6112535958
 31
0.0
  0
LINE
  5
8E
100
AcDbEntity
  8
LAYER3
 62
         4
100
AcDbLine
 10
-55.7804849885
 20
90.103926097
 30
0.0
 11
-55.7804849885
 21
108.6112535958
 31
0.0
  0
MTEXT
  5
8F
100
AcDbEntity
  8
LAYER0
100
AcDbMText
 10
13.7023708105
 20
-132.8529305586
 30
0.0
 40
2.4737683892
 41
44.2709203741
 71
         1
 72
         1
  1
\W0.8;レクト24　マグネットブラケット
  0
LINE
  5
90
100
AcDbEntity
  8
LAYER0
 62
         3
100
AcDbLine
 10
60.0
 20
-125.5
 30
0.0
 11
60.0
 21
-138.5
 31
0.0
  0
MTEXT
  5
91
100
AcDbEntity
  8
LAYER0
100
AcDbMText
 10
72.5158633528
 20
-126.7970201517
 30
0.0
 40
2.1473683357
 41
10.2585839844
 71
         1
 72
         1
  1
\W0.8;管理図番
  0
MTEXT
  5
92
100
AcDbEntity
  8
LAYER0
100
AcDbMText
 10
32.0542682872
 20
-126.7970201517
 30
0.0
 40
2.1473683357
 41
7.6538653946
 71
         1
 72
         1
  1
\W0.8;品　名
  0
LINE
  5
93
100
AcDbEntity
  8
LAYER0
 62
         3
100
AcDbLine
 10
10.0
 20
-138.5
 30
0.0
 11
10.0
 21
-125.5
 31
0.0
  0
LINE
  5
94
100
AcDbEntity
  8
LAYER0
 62
         3
100
AcDbLine
 10
95.0
 20
-138.5
 30
0.0
 11
95.0
 21
-125.5
 31
0.0
  0
LINE
  5
95
100
AcDbEntity
  8
LAYER4
 62
         3
100
AcDbLine
 10
42.1263349355
 20
-48.1749747146
 30
0.0
 11
52.8048707645
 21
-48.3613692508
 31
0.0
  0
ARC
  5
96
100
AcDbEntity
  8
LAYER4
 62
         3
100
AcDbCircle
 10
42.2048707645
 20
-43.6756600864
 30
0.0
 40
4.5
210
0.0
220
0.0
230
1.0
100
AcDbArc
 50
180.0000030705
 51
268.9999984477
  0
ARC
  5
97
100
AcDbEntity
  8
LAYER0
 62
         6
100
AcDbCircle
 10
49.3048707645
 20
-49.5516294586
 30
0.0
 40
1.0
210
0.0
220
0.0
230
1.0
100
AcDbArc
 50
90.0000015352
 51
179.9999969295
  0
ARC
  5
98
100
AcDbEntity
  8
LAYER0
 62
         6
100
AcDbCircle
 10
45.8048707645
 20
-49.5516294586
 30
0.0
 40
1.0
210
0.0
220
-0.0
230
1.0
100
AcDbArc
 50
0.0
 51
90.0000015352
  0
LINE
  5
99
100
AcDbEntity
  8
LAYER0
 62
         6
100
AcDbLine
 10
45.8048707645
 20
-48.5516294586
 30
0.0
 11
42.2048707645
 21
-48.5516294586
 31
0.0
  0
LINE
  5
9A
100
AcDbEntity
  8
LAYER0
 62
         6
100
AcDbLine
 10
52.5048707645
 20
-48.5516294586
 30
0.0
 11
49.3048707645
 21
-48.5516294586
 31
0.0
  0
LINE
  5
9B
100
AcDbEntity
  8
LAYER0
 62
         6
100
AcDbLine
 10
49.1048707645
 20
-53.0516294586
 30
0.0
 11
48.3048707645
 21
-53.0516294586
 31
0.0
  0
LINE
  5
9C
100
AcDbEntity
  8
LAYER0
 62
         6
100
AcDbLine
 10
46.8048707645
 20
-54.0516294586
 30
0.0
 11
49.1048707645
 21
-54.0516294586
 31
0.0
  0
LINE
  5
9D
100
AcDbEntity
  8
LAYER0
 62
         6
100
AcDbLine
 10
48.3048707645
 20
-54.0516294586
 30
0.0
 11
48.3048707645
 21
-49.5516294586
 31
0.0
  0
LINE
  5
9E
100
AcDbEntity
  8
LAYER0
 62
         6
100
AcDbLine
 10
46.8048707645
 20
-49.5516294586
 30
0.0
 11
46.8048707645
 21
-54.0516294586
 31
0.0
  0
LINE
  5
9F
100
AcDbEntity
  8
LAYER0
 62
         6
100
AcDbLine
 10
49.1048707645
 20
-53.0516294586
 30
0.0
 11
49.1048707645
 21
-54.0516294586
 31
0.0
  0
ARC
  5
A0
100
AcDbEntity
  8
LAYER0
 62
         2
100
AcDbCircle
 10
52.8048707645
 20
-41.0516294586
 30
0.0
 40
1.5
210
-0.0
220
0.0
230
1.0
100
AcDbArc
 50
269.9999984648
 51
0.0
  0
LINE
  5
A1
100
AcDbEntity
  8
LAYER0
 62
         2
100
AcDbLine
 10
54.3048707645
 20
-41.0516294586
 30
0.0
 11
54.3048707645
 21
-4.0516294586
 31
0.0
  0
ARC
  5
A2
100
AcDbEntity
  8
LAYER0
 62
         3
100
AcDbCircle
 10
-46.8804849885
 20
25.9483705414
 30
0.0
 40
1.5
210
0.0
220
0.0
230
1.0
100
AcDbArc
 50
90.0000015352
 51
179.9999969295
  0
LINE
  5
A3
100
AcDbEntity
  8
LAYER0
 62
         3
100
AcDbLine
 10
-14.3804849885
 20
5.4483705414
 30
0.0
 11
-14.3804849885
 21
25.9483705414
 31
0.0
  0
LINE
  5
A4
100
AcDbEntity
  8
LAYER0
 62
         3
100
AcDbLine
 10
-48.3804849885
 20
5.4483705414
 30
0.0
 11
-48.3804849885
 21
25.9483705414
 31
0.0
  0
LINE
  5
A5
100
AcDbEntity
  8
LAYER0
 62
         3
100
AcDbLine
 10
-24.3804849885
 20
16.4483705414
 30
0.0
 11
-38.3804849885
 21
16.4483705414
 31
0.0
  0
LINE
  5
A6
100
AcDbEntity
  8
LAYER0
 62
         3
100
AcDbLine
 10
-23.8804849885
 20
5.4483705414
 30
0.0
 11
-9.4804849885
 21
5.4483705414
 31
0.0
  0
LINE
  5
A7
100
AcDbEntity
  8
LAYER0
 62
         3
100
AcDbLine
 10
-53.2804849885
 20
5.4483705414
 30
0.0
 11
-38.8804849885
 21
5.4483705414
 31
0.0
  0
LINE
  5
A8
100
AcDbEntity
  8
LAYER0
 62
         3
100
AcDbLine
 10
-38.3804849885
 20
13.4483705414
 30
0.0
 11
-24.3804849885
 21
13.4483705414
 31
0.0
  0
LINE
  5
A9
100
AcDbEntity
  8
LAYER0
 62
         3
100
AcDbLine
 10
-23.8804849885
 20
5.4483705414
 30
0.0
 11
-24.1804849885
 21
5.4483705414
 31
0.0
  0
LINE
  5
AA
100
AcDbEntity
  8
LAYER0
 62
         3
100
AcDbLine
 10
-15.8804849885
 20
27.4483705414
 30
0.0
 11
-31.3804849885
 21
27.4483705414
 31
0.0
  0
LINE
  5
AB
100
AcDbEntity
  8
LAYER0
 62
         3
100
AcDbLine
 10
-38.8804849885
 20
5.4483705414
 30
0.0
 11
-38.5804849885
 21
5.4483705414
 31
0.0
  0
LINE
  5
AC
100
AcDbEntity
  8
LAYER0
 62
         3
100
AcDbLine
 10
-46.8804849885
 20
27.4483705414
 30
0.0
 11
-31.3804849885
 21
27.4483705414
 31
0.0
  0
LINE
  5
AD
100
AcDbEntity
  8
LAYER3
 62
         4
100
AcDbLine
 10
-48.3804849885
 20
101.8839275271
 30
0.0
 11
-14.3804849885
 21
101.8839275271
 31
0.0
  0
LINE
  5
AE
100
AcDbEntity
  8
LAYER3
 62
         4
100
AcDbLine
 10
-14.3804849885
 20
95.203926097
 30
0.0
 11
-14.3804849885
 21
102.8839275271
 31
0.0
  0
LINE
  5
AF
100
AcDbEntity
  8
LAYER3
 62
         4
100
AcDbLine
 10
-48.3804849885
 20
95.203926097
 30
0.0
 11
-48.3804849885
 21
102.8839275271
 31
0.0
  0
LINE
  5
B0
100
AcDbEntity
  8
LAYER0
 62
         6
100
AcDbLine
 10
-38.5804849885
 20
4.9483705414
 30
0.0
 11
-24.1804849885
 21
4.9483705414
 31
0.0
  0
LINE
  5
B1
100
AcDbEntity
  8
LAYER0
 62
         6
100
AcDbLine
 10
-38.5804849885
 20
8.4483705414
 30
0.0
 11
-24.1804849885
 21
8.4483705414
 31
0.0
  0
ARC
  5
B2
100
AcDbEntity
  8
LAYER0
 62
         3
100
AcDbCircle
 10
-24.3804849885
 20
15.9483705414
 30
0.0
 40
0.5
210
0.0
220
-0.0
230
1.0
100
AcDbArc
 50
0.0
 51
90.0000015352
  0
ARC
  5
B3
100
AcDbEntity
  8
LAYER0
 62
         3
100
AcDbCircle
 10
-38.3804849885
 20
15.9483705414
 30
0.0
 40
0.5
210
0.0
220
0.0
230
1.0
100
AcDbArc
 50
90.0000015352
 51
179.9999969295
  0
MTEXT
  5
B4
100
AcDbEntity
  8
LAYER3
100
AcDbMText
 10
-33.7026883928
 20
105.6715862185
 30
0.0
 40
2.1473683357
 41
2.5646459961
 71
         1
 72
         1
  1
\W0.8;34
  0
LINE
  5
B5
100
AcDbEntity
  8
LAYER3
 62
         4
100
AcDbLine
 10
-14.3804849885
 20
101.8839275271
 30
0.0
 11
-17.3149277907
 21
101.2601924546
 31
0.0
  0
LINE
  5
B6
100
AcDbEntity
  8
LAYER3
 62
         4
100
AcDbLine
 10
-14.3804849885
 20
101.8839275271
 30
0.0
 11
-17.3149277907
 21
102.5076625995
 31
0.0
  0
LINE
  5
B7
100
AcDbEntity
  8
LAYER3
 62
         4
100
AcDbLine
 10
-48.3804849885
 20
101.8839275271
 30
0.0
 11
-45.4460421863
 21
102.5076625995
 31
0.0
  0
LINE
  5
B8
100
AcDbEntity
  8
LAYER3
 62
         4
100
AcDbLine
 10
-48.3804849885
 20
101.8839275271
 30
0.0
 11
-45.4460421863
 21
101.2601924546
 31
0.0
  0
MTEXT
  5
B9
100
AcDbEntity
  8
LAYER3
100
AcDbMText
 10
-36.8348724905
 20
111.3989122872
 30
0.0
 40
2.1473683357
 41
5.1292919922
 71
         1
 72
         1
  1
\W0.8;48.8
  0
LINE
  5
BA
100
AcDbEntity
  8
LAYER3
 62
         4
100
AcDbLine
 10
-6.9804849885
 20
107.6112535958
 30
0.0
 11
-9.9149277907
 21
106.9875185233
 31
0.0
  0
LINE
  5
BB
100
AcDbEntity
  8
LAYER0
 62
         3
100
AcDbLine
 10
-23.8804849885
 20
63.103926097
 30
0.0
 11
-23.8804849885
 21
77.5483705414
 31
0.0
  0
ARC
  5
BC
100
AcDbEntity
  8
LAYER0
 62
         3
100
AcDbCircle
 10
-15.8425164656
 20
71.103926097
 30
0.0
 40
1.5
210
0.0
220
0.0
230
1.0
100
AcDbArc
 50
269.9999984648
 51
358.5311992606
  0
LINE
  5
BD
100
AcDbEntity
  8
LAYER0
 62
         3
100
AcDbLine
 10
-14.3430093193
 20
71.0654771958
 30
0.0
 11
-13.8804849885
 21
89.103926097
 31
0.0
  0
ARC
  5
BE
100
AcDbEntity
  8
LAYER0
 62
         3
100
AcDbCircle
 10
-9.8910598344
 20
65.603926097
 30
0.0
 40
2.5
210
0.0
220
0.0
230
1.0
100
AcDbArc
 50
269.9999984648
 51
358.9999999829
  0
LINE
  5
BF
100
AcDbEntity
  8
LAYER0
 62
         3
100
AcDbLine
 10
-6.9804849885
 20
89.103926097
 30
0.0
 11
-7.3914405965
 21
65.5602950809
 31
0.0
  0
ARC
  5
C0
100
AcDbEntity
  8
LAYER0
 62
         3
100
AcDbCircle
 10
-15.3804849885
 20
93.203926097
 30
0.0
 40
1.0
210
0.0
220
-0.0
230
1.0
100
AcDbArc
 50
0.0
 51
90.0000015352
  0
LINE
  5
C1
100
AcDbEntity
  8
LAYER0
 62
         3
100
AcDbLine
 10
-14.3804849885
 20
89.103926097
 30
0.0
 11
-6.9804849885
 21
89.103926097
 31
0.0
  0
LINE
  5
C2
100
AcDbEntity
  8
LAYER0
 62
         3
100
AcDbLine
 10
-14.3804849885
 20
69.603926097
 30
0.0
 11
-14.3804849885
 21
93.203926097
 31
0.0
  0
LINE
  5
C3
100
AcDbEntity
  8
LAYER0
 62
         3
100
AcDbLine
 10
-38.8804849885
 20
63.103926097
 30
0.0
 11
-52.8699101425
 21
63.103926097
 31
0.0
  0
ARC
  5
C4
100
AcDbEntity
  8
LAYER0
 62
         3
100
AcDbCircle
 10
-46.9184535113
 20
71.103926097
 30
0.0
 40
1.5
210
0.0
220
0.0
230
1.0
100
AcDbArc
 50
181.468797669
 51
269.9999984648
  0
LINE
  5
C5
100
AcDbEntity
  8
LAYER0
 62
         3
100
AcDbLine
 10
-48.4179606577
 20
71.0654771958
 30
0.0
 11
-48.8804849885
 21
89.103926097
 31
0.0
  0
ARC
  5
C6
100
AcDbEntity
  8
LAYER0
 62
         3
100
AcDbCircle
 10
-52.8699101425
 20
65.603926097
 30
0.0
 40
2.5
210
0.0
220
0.0
230
1.0
100
AcDbArc
 50
180.9999969466
 51
269.9999984648
  0
LINE
  5
C7
100
AcDbEntity
  8
LAYER0
 62
         3
100
AcDbLine
 10
-55.7804849885
 20
89.103926097
 30
0.0
 11
-55.3695293804
 21
65.5602950809
 31
0.0
  0
ARC
  5
C8
100
AcDbEntity
  8
LAYER0
 62
         3
100
AcDbCircle
 10
-47.3804849885
 20
93.203926097
 30
0.0
 40
1.0
210
0.0
220
0.0
230
1.0
100
AcDbArc
 50
90.0000015352
 51
180.0000030705
  0
LINE
  5
C9
100
AcDbEntity
  8
LAYER0
 62
         3
100
AcDbLine
 10
-48.3804849885
 20
69.603926097
 30
0.0
 11
-48.3804849885
 21
93.203926097
 31
0.0
  0
LINE
  5
CA
100
AcDbEntity
  8
LAYER0
 62
         3
100
AcDbLine
 10
-24.1804849885
 20
65.103926097
 30
0.0
 11
-23.8804849885
 21
65.103926097
 31
0.0
  0
LINE
  5
CB
100
AcDbEntity
  8
LAYER0
 62
         3
100
AcDbLine
 10
-38.8804849885
 20
65.103926097
 30
0.0
 11
-38.5804849885
 21
65.103926097
 31
0.0
  0
LINE
  5
CC
100
AcDbEntity
  8
LAYER0
 62
         6
100
AcDbLine
 10
-24.1804849885
 20
63.103926097
 30
0.0
 11
-38.5804849885
 21
63.103926097
 31
0.0
  0
LINE
  5
CD
100
AcDbEntity
  8
LAYER0
 62
         6
100
AcDbLine
 10
-24.1804849885
 20
78.2625133843
 30
0.0
 11
-24.1804849885
 21
63.103926097
 31
0.0
  0
LINE
  5
CE
100
AcDbEntity
  8
LAYER0
 62
         6
100
AcDbLine
 10
-38.5804849885
 20
63.103926097
 30
0.0
 11
-38.5804849885
 21
78.2625133843
 31
0.0
  0
ARC
  5
CF
100
AcDbEntity
  8
LAYER0
 62
         3
100
AcDbCircle
 10
-24.3804849885
 20
12.9483705414
 30
0.0
 40
0.5
210
0.0
220
-0.0
230
1.0
100
AcDbArc
 50
0.0
 51
90.0000015352
  0
ARC
  5
D0
100
AcDbEntity
  8
LAYER0
 62
         3
100
AcDbCircle
 10
-38.3804849885
 20
12.9483705414
 30
0.0
 40
0.5
210
0.0
220
0.0
230
1.0
100
AcDbArc
 50
90.0000015352
 51
179.9999969295
  0
ARC
  5
D1
100
AcDbEntity
  8
LAYER0
 62
         3
100
AcDbCircle
 10
-9.4804849885
 20
2.9483705414
 30
0.0
 40
2.5
210
0.0
220
-0.0
230
1.0
100
AcDbArc
 50
0.0
 51
90.0000015352
  0
ARC
  5
D2
100
AcDbEntity
  8
LAYER0
 62
         3
100
AcDbCircle
 10
-53.2804849885
 20
2.9483705414
 30
0.0
 40
2.5
210
0.0
220
0.0
230
1.0
100
AcDbArc
 50
90.0000015352
 51
179.9999969295
  0
ARC
  5
D3
100
AcDbEntity
  8
LAYER0
 62
         3
100
AcDbCircle
 10
-15.8804849885
 20
25.9483705414
 30
0.0
 40
1.5
210
0.0
220
-0.0
230
1.0
100
AcDbArc
 50
0.0
 51
90.0000015352
  0
ARC
  5
D4
100
AcDbEntity
  8
LAYER0
 62
         6
100
AcDbCircle
 10
-26.1804849885
 20
-52.0516294586
 30
0.0
 40
2.0
210
-0.0
220
0.0
230
1.0
100
AcDbArc
 50
269.9999984648
 51
0.0
  0
LINE
  5
D5
100
AcDbEntity
  8
LAYER0
 62
         6
100
AcDbLine
 10
-36.5804849885
 20
-54.0516294586
 30
0.0
 11
-26.1804849885
 21
-54.0516294586
 31
0.0
  0
LINE
  5
D6
100
AcDbEntity
  8
LAYER4
 62
         3
100
AcDbLine
 10
-48.6304849885
 20
-45.8613692508
 30
0.0
 11
-46.6304849885
 21
-45.8613692508
 31
0.0
  0
LINE
  5
D7
100
AcDbEntity
  8
LAYER4
 62
         3
100
AcDbLine
 10
-46.6304849885
 20
-42.5516294586
 30
0.0
 11
-48.6304849885
 21
-42.5516294586
 31
0.0
  0
LINE
  5
D8
100
AcDbEntity
  8
LAYER4
 62
         3
100
AcDbLine
 10
-48.6304849885
 20
-48.3613692508
 30
0.0
 11
-48.6304849885
 21
-42.5516294586
 31
0.0
  0
LINE
  5
D9
100
AcDbEntity
  8
LAYER4
 62
         3
100
AcDbLine
 10
-46.6304849885
 20
-42.5516294586
 30
0.0
 11
-46.6304849885
 21
-48.3613692508
 31
0.0
  0
LINE
  5
DA
100
AcDbEntity
  8
LAYER4
 62
         3
100
AcDbLine
 10
-14.1304849885
 20
-45.8613692508
 30
0.0
 11
-16.1304849885
 21
-45.8613692508
 31
0.0
  0
LINE
  5
DB
100
AcDbEntity
  8
LAYER4
 62
         3
100
AcDbLine
 10
-16.1304849885
 20
-42.5516294586
 30
0.0
 11
-14.1304849885
 21
-42.5516294586
 31
0.0
  0
LINE
  5
DC
100
AcDbEntity
  8
LAYER4
 62
         3
100
AcDbLine
 10
-14.1304849885
 20
-48.3613692508
 30
0.0
 11
-14.1304849885
 21
-42.5516294586
 31
0.0
  0
LINE
  5
DD
100
AcDbEntity
  8
LAYER4
 62
         3
100
AcDbLine
 10
-16.1304849885
 20
-42.5516294586
 30
0.0
 11
-16.1304849885
 21
-48.3613692508
 31
0.0
  0
LINE
  5
DE
100
AcDbEntity
  8
LAYER0
 62
         3
100
AcDbLine
 10
-48.3804849885
 20
89.103926097
 30
0.0
 11
-55.7804849885
 21
89.103926097
 31
0.0
  0
LINE
  5
DF
100
AcDbEntity
  8
LAYER0
 62
         3
100
AcDbLine
 10
-38.8804849885
 20
63.103926097
 30
0.0
 11
-53.3699101425
 21
63.103926097
 31
0.0
  0
LINE
  5
E0
100
AcDbEntity
  8
LAYER0
  6
CENTER
 62
         5
100
AcDbLine
 10
-31.3804849885
 20
87.103926097
 30
0.0
 11
-48.3804849885
 21
87.103926097
 31
0.0
  0
LINE
  5
E1
100
AcDbEntity
  8
LAYER0
 62
         3
100
AcDbLine
 10
-31.3804849885
 20
94.203926097
 30
0.0
 11
-47.3804849885
 21
94.203926097
 31
0.0
  0
LINE
  5
E2
100
AcDbEntity
  8
LAYER0
  6
CENTER
100
AcDbLine
 10
-31.3804849885
 20
60.7015158448
 30
0.0
 11
-31.3804849885
 21
96.2229576929
 31
0.0
  0
LINE
  5
E3
100
AcDbEntity
  8
LAYER0
 62
         3
100
AcDbLine
 10
-23.8804849885
 20
63.103926097
 30
0.0
 11
-9.8910598344
 21
63.103926097
 31
0.0
  0
LINE
  5
E4
100
AcDbEntity
  8
LAYER0
 62
         3
100
AcDbLine
 10
-23.8804849885
 20
69.603926097
 30
0.0
 11
-15.8425164656
 21
69.603926097
 31
0.0
  0
LINE
  5
E5
100
AcDbEntity
  8
LAYER0
  6
CENTER
 62
         5
100
AcDbLine
 10
-31.3804849885
 20
87.103926097
 30
0.0
 11
-14.3804849885
 21
87.103926097
 31
0.0
  0
LINE
  5
E6
100
AcDbEntity
  8
LAYER0
 62
         3
100
AcDbLine
 10
-31.3804849885
 20
94.203926097
 30
0.0
 11
-15.3804849885
 21
94.203926097
 31
0.0
  0
LINE
  5
E7
100
AcDbEntity
  8
LAYER0
 62
         6
100
AcDbLine
 10
-24.1804849885
 20
77.6495700397
 30
0.0
 11
-38.5804849885
 21
77.6495700397
 31
0.0
  0
ARC
  5
E8
100
AcDbEntity
  8
LAYER0
 62
         3
100
AcDbCircle
 10
-24.8804849885
 20
77.5483705414
 30
0.0
 40
1.0
210
0.0
220
-0.0
230
1.0
100
AcDbArc
 50
0.0
 51
90.0000015352
  0
ARC
  5
E9
100
AcDbEntity
  8
LAYER0
 62
         3
100
AcDbCircle
 10
-37.8804849885
 20
77.5483705414
 30
0.0
 40
1.0
210
0.0
220
0.0
230
1.0
100
AcDbArc
 50
90.0000015352
 51
180.0000030705
  0
LINE
  5
EA
100
AcDbEntity
  8
LAYER0
 62
         3
100
AcDbLine
 10
-38.8804849885
 20
69.603926097
 30
0.0
 11
-46.8804849885
 21
69.603926097
 31
0.0
  0
LINE
  5
EB
100
AcDbEntity
  8
LAYER0
 62
         3
100
AcDbLine
 10
-37.8804849885
 20
78.5483705414
 30
0.0
 11
-24.8804849885
 21
78.5483705414
 31
0.0
  0
LINE
  5
EC
100
AcDbEntity
  8
LAYER0
 62
         3
100
AcDbLine
 10
-38.8804849885
 20
63.103926097
 30
0.0
 11
-38.8804849885
 21
77.5483705414
 31
0.0
  0
LINE
  5
ED
100
AcDbEntity
  8
LAYER0
 62
         6
100
AcDbLine
 10
62.2119775457
 20
-0.5516294586
 30
0.0
 11
67.8048707645
 21
-0.5516294586
 31
0.0
  0
LINE
  5
EE
100
AcDbEntity
  8
LAYER0
 62
         6
100
AcDbLine
 10
68.8048707645
 20
0.4483705414
 30
0.0
 11
68.8048707645
 21
0.792074528
 31
0.0
  0
LINE
  5
EF
100
AcDbEntity
  8
LAYER3
 62
         4
100
AcDbLine
 10
29.8438145534
 20
27.4483705414
 30
0.0
 11
29.8438145534
 21
-48.5516294586
 31
0.0
  0
LINE
  5
F0
100
AcDbEntity
  8
LAYER3
 62
         4
100
AcDbLine
 10
74.2943417184
 20
-0.5516294586
 30
0.0
 11
73.6706066459
 21
-3.4860722608
 31
0.0
  0
LINE
  5
F1
100
AcDbEntity
  8
LAYER3
 62
         4
100
AcDbLine
 10
74.2943417184
 20
-0.5516294586
 30
0.0
 11
74.2943417184
 21
-48.5516294586
 31
0.0
  0
LINE
  5
F2
100
AcDbEntity
  8
LAYER3
 62
         4
100
AcDbLine
 10
68.8048707645
 20
-0.5516294586
 30
0.0
 11
75.2943417184
 21
-0.5516294586
 31
0.0
  0
LINE
  5
F3
100
AcDbEntity
  8
LAYER3
 62
         4
100
AcDbLine
 10
63.7048707645
 20
-0.3786719877
 30
0.0
 11
63.7048707645
 21
-68.9429347494
 31
0.0
  0
LINE
  5
F4
100
AcDbEntity
  8
LAYER3
 62
         4
100
AcDbLine
 10
74.2943417184
 20
-0.5516294586
 30
0.0
 11
73.6706066459
 21
2.3828133436
 31
0.0
  0
LINE
  5
F5
100
AcDbEntity
  8
LAYER3
 62
         4
100
AcDbLine
 10
74.2943417184
 20
-0.5516294586
 30
0.0
 11
74.9180767908
 21
2.3828133436
 31
0.0
  0
LINE
  5
F6
100
AcDbEntity
  8
LAYER3
 62
         4
100
AcDbLine
 10
74.2943417184
 20
-0.5516294586
 30
0.0
 11
74.2943417184
 21
27.4483705414
 31
0.0
  0
LINE
  5
F7
100
AcDbEntity
  8
LAYER3
 62
         4
100
AcDbLine
 10
68.8048707645
 20
-0.5516294586
 30
0.0
 11
75.2943417184
 21
-0.5516294586
 31
0.0
  0
LINE
  5
F8
100
AcDbEntity
  8
LAYER3
 62
         4
100
AcDbLine
 10
74.2943417184
 20
-0.5516294586
 30
0.0
 11
74.9180767908
 21
-3.4860722608
 31
0.0
  0
MTEXT
  5
F9
100
AcDbEntity
  8
LAYER0
100
AcDbMText
 10
-19.1061737419
 20
-132.5157576176
 30
0.0
 40
3.0922104359
 41
12.9258159559
 71
         1
 72
         1
  1
\W0.8;O-521MG
  0
MTEXT
  5
FA
100
AcDbEntity
  8
LAYER0
100
AcDbMText
 10
-35.7051459079
 20
-126.6461242782
 30
0.0
 40
2.1473683357
 41
6.4116149902
 71
         1
 72
         1
  1
\W0.8;Ｎｏ.
  0
LINE
  5
FB
100
AcDbEntity
  8
LAYER0
 62
         3
100
AcDbLine
 10
-25.0
 20
-125.5
 30
0.0
 11
-25.0
 21
-138.5
 31
0.0
  0
MTEXT
  5
FC
100
AcDbEntity
  8
LAYER0
100
AcDbMText
 10
-10.6564309049
 20
-126.7970201517
 30
0.0
 40
2.1473683357
 41
7.6538653946
 71
         1
 72
         1
  1
\W0.8;品　番
  0
LINE
  5
FD
100
AcDbEntity
  8
LAYER0
 62
         3
100
AcDbLine
 10
-40.0
 20
-138.5
 30
0.0
 11
-40.0
 21
-125.5
 31
0.0
  0
ARC
  5
FE
100
AcDbEntity
  8
LAYER0
 62
         3
100
AcDbCircle
 10
-9.4804849885
 20
-45.8613692508
 30
0.0
 40
2.5
210
-0.0
220
0.0
230
1.0
100
AcDbArc
 50
269.9999984648
 51
0.0
  0
ARC
  5
FF
100
AcDbEntity
  8
LAYER0
 62
         3
100
AcDbCircle
 10
-53.2804849885
 20
-45.8613692508
 30
0.0
 40
2.5
210
0.0
220
0.0
230
1.0
100
AcDbArc
 50
179.9999969295
 51
269.9999984648
  0
LINE
  5
100
100
AcDbEntity
  8
LAYER0
 62
         3
100
AcDbLine
 10
-38.8804849885
 20
-48.3613692508
 30
0.0
 11
-53.2804849885
 21
-48.3613692508
 31
0.0
  0
LINE
  5
101
100
AcDbEntity
  8
LAYER0
 62
         3
100
AcDbLine
 10
-9.4804849885
 20
-48.3613692508
 30
0.0
 11
-23.8804849885
 21
-48.3613692508
 31
0.0
  0
LINE
  5
102
100
AcDbEntity
  8
LAYER0
 62
         3
100
AcDbLine
 10
-24.1804849885
 20
-45.8613692508
 30
0.0
 11
-23.8804849885
 21
-45.8613692508
 31
0.0
  0
LINE
  5
103
100
AcDbEntity
  8
LAYER0
 62
         3
100
AcDbLine
 10
-38.8804849885
 20
-45.8613692508
 30
0.0
 11
-38.5804849885
 21
-45.8613692508
 31
0.0
  0
ARC
  5
104
100
AcDbEntity
  8
LAYER0
 62
         6
100
AcDbCircle
 10
-36.5804849885
 20
-52.0516294586
 30
0.0
 40
2.0
210
0.0
220
0.0
230
1.0
100
AcDbArc
 50
179.9999969295
 51
269.9999984648
  0
LINE
  5
105
100
AcDbEntity
  8
LAYER0
 62
         6
100
AcDbLine
 10
-38.5804849885
 20
-48.5516294586
 30
0.0
 11
-24.1804849885
 21
-48.5516294586
 31
0.0
  0
LINE
  5
106
100
AcDbEntity
  8
LAYER0
 62
         3
100
AcDbLine
 10
95.0
 20
-125.5
 30
0.0
 11
-40.0
 21
-125.5
 31
0.0
  0
LINE
  5
107
100
AcDbEntity
  8
LAYER0
 62
         3
100
AcDbLine
 10
95.0
 20
-130.5
 30
0.0
 11
-40.0
 21
-130.5
 31
0.0
  0
LINE
  5
108
100
AcDbEntity
  8
LAYER0
 62
         3
100
AcDbLine
 10
95.0
 20
-138.5
 30
0.0
 11
-40.0
 21
-138.5
 31
0.0
  0
LINE
  5
109
100
AcDbEntity
  8
LAYER0
 62
         3
100
AcDbLine
 10
-6.9804849885
 20
-45.8613692508
 30
0.0
 11
-6.9804849885
 21
2.9483705414
 31
0.0
  0
LINE
  5
10A
100
AcDbEntity
  8
LAYER0
 62
         3
100
AcDbLine
 10
-55.7804849885
 20
-45.8613692508
 30
0.0
 11
-55.7804849885
 21
2.9483705414
 31
0.0
  0
LINE
  5
10B
100
AcDbEntity
  8
LAYER0
 62
         3
100
AcDbLine
 10
-23.8804849885
 20
-48.3613692508
 30
0.0
 11
-23.8804849885
 21
15.9483705414
 31
0.0
  0
LINE
  5
10C
100
AcDbEntity
  8
LAYER0
 62
         3
100
AcDbLine
 10
-38.8804849885
 20
-48.3613692508
 30
0.0
 11
-38.8804849885
 21
15.9483705414
 31
0.0
  0
LINE
  5
10D
100
AcDbEntity
  8
LAYER3
  6
CENTER
100
AcDbLine
 10
-31.3804849885
 20
31.1952607732
 30
0.0
 11
-31.3804849885
 21
-60.9074456806
 31
0.0
  0
LINE
  5
10E
100
AcDbEntity
  8
LAYER0
 62
         3
100
AcDbLine
 10
-24.1804849885
 20
0.9483705414
 30
0.0
 11
-23.8804849885
 21
0.9483705414
 31
0.0
  0
LINE
  5
10F
100
AcDbEntity
  8
LAYER0
 62
         3
100
AcDbLine
 10
-38.8804849885
 20
0.9483705414
 30
0.0
 11
-38.5804849885
 21
0.9483705414
 31
0.0
  0
LINE
  5
110
100
AcDbEntity
  8
LAYER0
 62
         6
100
AcDbLine
 10
-38.5804849885
 20
8.4483705414
 30
0.0
 11
-38.5804849885
 21
-52.0516294586
 31
0.0
  0
LINE
  5
111
100
AcDbEntity
  8
LAYER0
 62
         6
100
AcDbLine
 10
-24.1804849885
 20
8.4483705414
 30
0.0
 11
-24.1804849885
 21
-52.0516294586
 31
0.0
  0
ARC
  5
112
100
AcDbEntity
  8
LAYER4
 62
         3
100
AcDbCircle
 10
41.7048707645
 20
1.0637498008
 30
0.0
 40
4.0
210
0.0
220
0.0
230
1.0
100
AcDbArc
 50
91.0000015523
 51
180.0000030705
  0
LINE
  5
113
100
AcDbEntity
  8
LAYER0
 62
         3
100
AcDbLine
 10
37.7048707645
 20
-43.6294917745
 30
0.0
 11
37.7048707645
 21
1.0637498008
 31
0.0
  0
LINE
  5
114
100
AcDbEntity
  8
LAYER0
 62
         3
100
AcDbLine
 10
52.8048707645
 20
-48.3613692508
 30
0.0
 11
52.8048707645
 21
-0.5516294586
 31
0.0
  0
ARC
  5
115
100
AcDbEntity
  8
LAYER4
 62
         3
100
AcDbCircle
 10
62.7048707645
 20
0.6213280123
 30
0.0
 40
1.0
210
0.0
220
0.0
230
1.0
100
AcDbArc
 50
270.9999984818
 51
360.0
  0
LINE
  5
116
100
AcDbEntity
  8
LAYER4
 62
         3
100
AcDbLine
 10
52.8048707645
 20
-0.5516294586
 30
0.0
 11
62.7223231709
 21
-0.3785196829
 31
0.0
  0
POINT
  5
117
100
AcDbEntity
  8
LAYER4
 62
         2
100
AcDbPoint
 10
52.8048707645
 20
-0.5516294586
 30
0.0
  0
LINE
  5
118
100
AcDbEntity
  8
LAYER0
 62
         3
100
AcDbLine
 10
63.7048707645
 20
20.0483705414
 30
0.0
 11
63.7048707645
 21
0.6213280123
 31
0.0
  0
ARC
  5
119
100
AcDbEntity
  8
LAYER0
 62
         6
100
AcDbCircle
 10
62.2119775457
 20
-0.0516294586
 30
0.0
 40
0.5
210
0.0
220
0.0
230
1.0
100
AcDbArc
 50
223.1825054881
 51
269.9999984648
  0
ARC
  5
11A
100
AcDbEntity
  8
LAYER0
 62
         6
100
AcDbCircle
 10
67.8048707645
 20
0.4483705414
 30
0.0
 40
1.0
210
-0.0
220
0.0
230
1.0
100
AcDbArc
 50
269.9999984648
 51
0.0
  0
ARC
  5
11B
100
AcDbEntity
  8
LAYER0
 62
         6
100
AcDbCircle
 10
64.5548707645
 20
2.0983705414
 30
0.0
 40
0.75
210
-0.0
220
0.0
230
1.0
100
AcDbArc
 50
269.9999984648
 51
0.0
  0
LINE
  5
11C
100
AcDbEntity
  8
LAYER0
 62
         6
100
AcDbLine
 10
68.8048707645
 20
0.792074528
 30
0.0
 11
66.8048707645
 21
3.9483705414
 31
0.0
  0
ARC
  5
11D
100
AcDbEntity
  8
LAYER0
 62
         6
100
AcDbCircle
 10
63.9548707645
 20
2.0983705414
 30
0.0
 40
0.75
210
0.0
220
0.0
230
1.0
100
AcDbArc
 50
250.5287774981
 51
269.9999984648
  0
LINE
  5
11E
100
AcDbEntity
  8
LAYER0
 62
         6
100
AcDbLine
 10
64.5548707645
 20
1.3483705414
 30
0.0
 11
63.9548707645
 21
1.3483705414
 31
0.0
  0
ENDSEC
  0
SECTION
  2
OBJECTS
  0
DICTIONARY
  5
19
100
AcDbDictionary
280
         0
281
         1
  3
ACAD_GROUP
350
1A
  3
ACAD_MLINESTYLE
350
1B
  3
ACAD_LAYOUT
350
1E
  3
ACAD_PLOTSETTINGS
350
22
  3
ACAD_PLOTSTYLENAME
350
1F
  3
ACAD_WIPEOUT_VARS
350
23
  0
DICTIONARY
  5
1A
102
{ACAD_REACTORS
330
19
102
}
100
AcDbDictionary
280
         0
281
         1
  0
DICTIONARY
  5
1B
102
{ACAD_REACTORS
330
19
102
}
100
AcDbDictionary
280
         0
281
         1
  3
Standard
350
1C
  0
MLINESTYLE
  5
1C
102
{ACAD_REACTORS
330
1B
102
}
100
AcDbMlineStyle
  2
Standard
 70
         0
  3

 62
         0
 51
90.0
 52
90.0
 71
         2
 49
0.5
 62
       256
  6
BYLAYER
 49
-0.5
 62
       256
  6
BYLAYER
  0
ACDBDICTIONARYWDFLT
  5
1F
102
{ACAD_REACTORS
330
19
102
}
100
AcDbDictionary
281
         1
  3
Normal
350
1D
100
AcDbDictionaryWithDefault
340
1D
  0
ACDBPLACEHOLDER
  5
1D
102
{ACAD_REACTORS
330
1F
102
}
  0
LAYOUT
  5
20
102
{ACAD_REACTORS
330
1E
102
}
100
AcDbPlotSettings
  1

  2

  4

  6

 40
0.0
 41
0.0
 42
0.0
 43
0.0
 44
0.0
 45
0.0
 46
0.0
 47
0.0
 48
0.0
 49
0.0
140
0.0
141
0.0
142
1.0
143
1.0
 70
         0
 72
         0
 73
         0
 74
         0
  7

 75
         0
147
1.0
148
0.0
149
0.0
100
AcDbLayout
  1
Model
 70
         0
 71
         0
 10
0.0
 20
0.0
 11
0.0
 21
0.0
 12
0.0
 22
0.0
 32
0.0
 14
0.0
 24
0.0
 34
0.0
 15
0.0
 25
0.0
 35
0.0
146
0.0
 13
0.0
 23
0.0
 33
0.0
 16
0.0
 26
0.0
 36
0.0
 17
0.0
 27
0.0
 37
0.0
 76
         0
330
A
331
0
345
0
346
0
  0
LAYOUT
  5
21
102
{ACAD_REACTORS
330
1E
102
}
100
AcDbPlotSettings
  1

  2

  4

  6

 40
0.0
 41
0.0
 42
0.0
 43
0.0
 44
0.0
 45
0.0
 46
0.0
 47
0.0
 48
0.0
 49
0.0
140
0.0
141
0.0
142
1.0
143
1.0
 70
         0
 72
         0
 73
         0
 74
         0
  7

 75
         0
147
1.0
148
0.0
149
0.0
100
AcDbLayout
  1
Layout1
 70
         0
 71
         0
 10
0.0
 20
0.0
 11
0.0
 21
0.0
 12
0.0
 22
0.0
 32
0.0
 14
0.0
 24
0.0
 34
0.0
 15
0.0
 25
0.0
 35
0.0
146
0.0
 13
0.0
 23
0.0
 33
0.0
 16
0.0
 26
0.0
 36
0.0
 17
0.0
 27
0.0
 37
0.0
 76
         0
330
B
331
0
345
0
346
0
  0
DICTIONARY
  5
1E
102
{ACAD_REACTORS
330
19
102
}
100
AcDbDictionary
280
         0
281
         1
  3
Layout1
350
21
  3
Model
350
20
  0
DICTIONARY
  5
22
102
{ACAD_REACTORS
330
19
102
}
100
AcDbDictionary
280
         0
281
         1
  0
WIPEOUTVARIABLES
  5
23
100
AcDbWipeoutVariables
 70
         1
  0
ENDSEC
  0
EOF
