  0
SECTION
  2
HEADER
  9
$ACADVER
  1
AC1015
  9
$ACADMAINTVER
 70
         6
  9
$DWGCODEPAGE
  3
ANSI_932
  9
$INSBASE
 10
0.0
 20
0.0
 30
0.0
  9
$EXTMIN
 10
1.0000000000E+20
 20
1.0000000000E+20
 30
1.0000000000E+20
  9
$EXTMAX
 10
-1.0000000000E+20
 20
-1.0000000000E+20
 30
-1.0000000000E+20
  9
$LIMMIN
 10
0.0
 20
0.0
  9
$LIMMAX
 10
0.0
 20
0.0
  9
$ORTHOMODE
 70
         0
  9
$REGENMODE
 70
         1
  9
$FILLMODE
 70
         1
  9
$QTEXTMODE
 70
         0
  9
$MIRRTEXT
 70
         1
  9
$LTSCALE
 40
1.0
  9
$ATTMODE
 70
         1
  9
$TEXTSIZE
 40
0.2
  9
$TRACEWID
 40
0.05
  9
$TEXTSTYLE
  7
Standard
  9
$CLAYER
  8
0
  9
$CELTYPE
  6
Continuous
  9
$CECOLOR
 62
       256
  9
$CELTSCALE
 40
1.0
  9
$DISPSILH
 70
         0
  9
$DIMSCALE
 40
1.0
  9
$DIMASZ
 40
0.18
  9
$DIMEXO
 40
0.0625
  9
$DIMDLI
 40
0.38
  9
$DIMRND
 40
0.0
  9
$DIMDLE
 40
0.0
  9
$DIMEXE
 40
0.18
  9
$DIMTP
 40
0.0
  9
$DIMTM
 40
0.0
  9
$DIMTXT
 40
0.18
  9
$DIMCEN
 40
0.09
  9
$DIMTSZ
 40
0.0
  9
$DIMTOL
 70
         0
  9
$DIMLIM
 70
         0
  9
$DIMTIH
 70
         1
  9
$DIMTOH
 70
         1
  9
$DIMSE1
 70
         0
  9
$DIMSE2
 70
         0
  9
$DIMTAD
 70
         0
  9
$DIMZIN
 70
         0
  9
$DIMBLK
  1

  9
$DIMASO
 70
         1
  9
$DIMSHO
 70
         1
  9
$DIMPOST
  1

  9
$DIMAPOST
  1

  9
$DIMALT
 70
         0
  9
$DIMALTD
 70
         2
  9
$DIMALTF
 40
25.4
  9
$DIMLFAC
 40
1.0
  9
$DIMTOFL
 70
         0
  9
$DIMTVP
 40
0.0
  9
$DIMTIX
 70
         0
  9
$DIMSOXD
 70
         0
  9
$DIMSAH
 70
         0
  9
$DIMBLK1
  1

  9
$DIMBLK2
  1

  9
$DIMSTYLE
  2
Standard
  9
$DIMCLRD
 70
         0
  9
$DIMCLRE
 70
         0
  9
$DIMCLRT
 70
         0
  9
$DIMTFAC
 40
1.0
  9
$DIMGAP
 40
0.09
  9
$DIMJUST
 70
         0
  9
$DIMSD1
 70
         0
  9
$DIMSD2
 70
         0
  9
$DIMTOLJ
 70
         1
  9
$DIMTZIN
 70
         0
  9
$DIMALTZ
 70
         0
  9
$DIMALTTZ
 70
         0
  9
$DIMUPT
 70
         0
  9
$DIMDEC
 70
         4
  9
$DIMTDEC
 70
         4
  9
$DIMALTU
 70
         2
  9
$DIMALTTD
 70
         2
  9
$DIMTXSTY
  7
Standard
  9
$DIMAUNIT
 70
         0
  9
$DIMADEC
 70
         0
  9
$DIMALTRND
 40
0.0
  9
$DIMAZIN
 70
         0
  9
$DIMDSEP
 70
         0
  9
$DIMATFIT
 70
         3
  9
$DIMFRAC
 70
         0
  9
$DIMLDRBLK
  1

  9
$DIMLUNIT
 70
         2
  9
$DIMLWD
 70
         0
  9
$DIMLWE
 70
         0
  9
$DIMTMOVE
 70
         0
  9
$LUNITS
 70
         2
  9
$LUPREC
 70
         4
  9
$SKETCHINC
 40
0.1
  9
$FILLETRAD
 40
0.0
  9
$AUNITS
 70
         0
  9
$AUPREC
 70
         0
  9
$MENU
  1
acad
  9
$ELEVATION
 40
0.0
  9
$PELEVATION
 40
0.0
  9
$THICKNESS
 40
0.0
  9
$LIMCHECK
 70
         0
  9
$CHAMFERA
 40
0.0
  9
$CHAMFERB
 40
0.0
  9
$CHAMFERC
 40
0.0
  9
$CHAMFERD
 40
0.0
  9
$SKPOLY
 70
         0
  9
$TDCREATE
 40
0.000000000
  9
$TDUCREATE
 40
0.000000000
  9
$TDUPDATE
 40
0.000000000
  9
$TDUUPDATE
 40
0.000000000
  9
$TDINDWG
 40
0.0000000000
  9
$TDUSRTIMER
 40
0.0000000000
  9
$USRTIMER
 70
         1
  9
$ANGBASE
 50
0.0
  9
$ANGDIR
 70
         0
  9
$PDMODE
 70
         3
  9
$PDSIZE
 40
-1.0
  9
$PLINEWID
 40
0.0
  9
$SPLFRAME
 70
         0
  9
$SPLINETYPE
 70
         6
  9
$SPLINESEGS
 70
         8
  9
$HANDSEED
  5
546
  9
$SURFTAB1
 70
         6
  9
$SURFTAB2
 70
         6
  9
$SURFTYPE
 70
         6
  9
$SURFU
 70
         6
  9
$SURFV
 70
         6
  9
$UCSBASE
  2

  9
$UCSNAME
  2

  9
$UCSORG
 10
0.0
 20
0.0
 30
0.0
  9
$UCSXDIR
 10
1.0
 20
0.0
 30
0.0
  9
$UCSYDIR
 10
0.0
 20
1.0
 30
0.0
  9
$UCSORTHOREF
  2

  9
$UCSORTHOVIEW
 70
         0
  9
$UCSORGTOP
 10
0.0
 20
0.0
 30
0.0
  9
$UCSORGBOTTOM
 10
0.0
 20
0.0
 30
0.0
  9
$UCSORGLEFT
 10
0.0
 20
0.0
 30
0.0
  9
$UCSORGRIGHT
 10
0.0
 20
0.0
 30
0.0
  9
$UCSORGFRONT
 10
0.0
 20
0.0
 30
0.0
  9
$UCSORGBACK
 10
0.0
 20
0.0
 30
0.0
  9
$PUCSBASE
  2

  9
$PUCSNAME
  2

  9
$PUCSORG
 10
0.0
 20
0.0
 30
0.0
  9
$PUCSXDIR
 10
1.0
 20
0.0
 30
0.0
  9
$PUCSYDIR
 10
0.0
 20
1.0
 30
0.0
  9
$PUCSORTHOREF
  2

  9
$PUCSORTHOVIEW
 70
         0
  9
$PUCSORGTOP
 10
0.0
 20
0.0
 30
0.0
  9
$PUCSORGBOTTOM
 10
0.0
 20
0.0
 30
0.0
  9
$PUCSORGLEFT
 10
0.0
 20
0.0
 30
0.0
  9
$PUCSORGRIGHT
 10
0.0
 20
0.0
 30
0.0
  9
$PUCSORGFRONT
 10
0.0
 20
0.0
 30
0.0
  9
$PUCSORGBACK
 10
0.0
 20
0.0
 30
0.0
  9
$USERI1
 70
         0
  9
$USERI2
 70
         0
  9
$USERI3
 70
         0
  9
$USERI4
 70
         0
  9
$USERI5
 70
         0
  9
$USERR1
 40
0.0
  9
$USERR2
 40
0.0
  9
$USERR3
 40
0.0
  9
$USERR4
 40
0.0
  9
$USERR5
 40
0.0
  9
$WORLDVIEW
 70
         1
  9
$SHADEDGE
 70
         3
  9
$SHADEDIF
 70
        70
  9
$TILEMODE
 70
         1
  9
$MAXACTVP
 70
        16
  9
$PINSBASE
 10
0.0
 20
0.0
 30
0.0
  9
$PLIMCHECK
 70
         0
  9
$PEXTMIN
 10
1.0000000000E+20
 20
1.0000000000E+20
 30
1.0000000000E+20
  9
$PEXTMAX
 10
-1.0000000000E+20
 20
-1.0000000000E+20
 30
-1.0000000000E+20
  9
$PLIMMIN
 10
0.0
 20
0.0
  9
$PLIMMAX
 10
12.0
 20
9.0
  9
$UNITMODE
 70
         0
  9
$VISRETAIN
 70
         0
  9
$PLINEGEN
 70
         1
  9
$PSLTSCALE
 70
         0
  9
$TREEDEPTH
 70
      3020
  9
$CMLSTYLE
  2
Standard
  9
$CMLJUST
 70
         0
  9
$CMLSCALE
 40
1.0
  9
$PROXYGRAPHICS
 70
         0
  9
$MEASUREMENT
 70
         0
  9
$CELWEIGHT
370
         0
  9
$ENDCAPS
280
         0
  9
$JOINSTYLE
280
         0
  9
$LWDISPLAY
290
         0
  9
$INSUNITS
 70
         0
  9
$HYPERLINKBASE
  1

  9
$XEDIT
290
         1
  9
$CEPSNTYPE
380
         0
  9
$PSTYLEMODE
290
         0
  9
$FINGERPRINTGUID
  2

  9
$VERSIONGUID
  2

  9
$EXTNAMES
290
         1
  9
$PSVPSCALE
 40
0.0
  0
ENDSEC
  0
SECTION
  2
CLASSES
  0
CLASS
  1
LWPOLYLINE
  2
AcDbPolyline
  3
"AutoCAD"
 90
        0
280
         0
281
         1
  0
CLASS
  1
IMAGE
  2
AcDbRasterImage
  3
ISM
 90
      127
280
         0
281
         1
  0
CLASS
  1
OLE2FRAME
  2
AcDbOle2Frame
  3
""
 90
        0
280
         0
281
         1
  0
CLASS
  1
HATCH
  2
AcDbHatch
  3
"ACAD_SEDONA"
 90
        0
280
         0
281
         1
  0
CLASS
  1
DICTIONARYVAR
  2
AcDbDictionaryVar
  3
"AutoCAD"
 90
        0
280
         0
281
         0
  0
CLASS
  1
RASTERVARIABLES
  2
AcDbRasterVariables
  3
ISM
 90
        0
280
         0
281
         0
  0
CLASS
  1
IMAGEDEF
  2
AcDbRasterImageDef
  3
ISM
 90
        0
280
         0
281
         0
  0
CLASS
  1
IMAGEDEF_REACTOR
  2
AcDbRasterImageDefReactor
  3
ISM
 90
        1
280
         0
281
         0
  0
CLASS
  1
IDBUFFER
  2
AcDbIdBuffer
  3
"Acad"
 90
        0
280
         0
281
         0
  0
CLASS
  1
SPATIAL_FILTER
  2
AcDbSpatialFilter
  3
"Acad"
 90
        0
280
         0
281
         0
  0
CLASS
  1
XRECORD
  2
AcDbXrecord
  3
"<Built In>"
 90
        0
280
         0
281
         0
  0
CLASS
  1
SORTENTSTABLE
  2
AcDbSortentsTable
  3
"AutoCAD"
 90
        0
280
         0
281
         0
  0
CLASS
  1
LAYER_INDEX
  2
AcDbLayerIndex
  3
"Acad"
 90
        0
280
         0
281
         0
  0
CLASS
  1
SPATIAL_INDEX
  2
AcDbSpatialIndex
  3
"Acad"
 90
        0
280
         0
281
         0
  0
CLASS
  1
OBJECT_PTR
  2
CAseDLPNTableRecord
  3
"ASE-LPNTableRecord"
 90
        1
280
         0
281
         0
  0
CLASS
  1
LAYOUT
  2
AcDbLayout
  3
"AutoCAD 2000"
 90
        1
280
         0
281
         0
  0
CLASS
  1
PLOTSETTINGS
  2
AcDbPlotSettings
  3
"AutoCAD 2000"
 90
        1
280
         0
281
         0
  0
CLASS
  1
ACDBDICTIONARYWDFLT
  2
AcDbDictionaryWithDefault
  3
"AutoCAD 2000"
 90
        1
280
         0
281
         0
  0
CLASS
  1
ACDBPLACEHOLDER
  2
AcDbPlaceHolder
  3
"AutoCAD 2000"
 90
        1
280
         0
281
         0
  0
CLASS
  1
VBA_PROJECT
  2
AcDbVbaProject
  3
"acadvba"
 90
        1
280
         0
281
         0
  0
CLASS
  1
WIPEOUT
  2
AcDbWipeout
  3
WipeOut|AutoCAD Express Tool|expresstools@autodesk.com
 90
      127
280
         0
281
         1
  0
CLASS
  1
WIPEOUTVARIABLES
  2
AcDbWipeoutVariables
  3
WipeOut|AutoCAD Express Tool|expresstools@autodesk.com
 90
        0
280
         0
281
         0
  0
CLASS
  1
RTEXT
  2
RText
  3
RText|AutoCAD Express Tool|expresstools@autodesk.com
 90
        0
280
         0
281
         1
  0
CLASS
  1
ARCALIGNEDTEXT
  2
AcDbArcAlignedText
  3
ATEXT|AutoCAD Express Tool|expresstools@autodesk.com
 90
        0
280
         0
281
         1
  0
ENDSEC
  0
SECTION
  2
TABLES
  0
TABLE
  2
VPORT
  5
7
100
AcDbSymbolTable
 70
         1
  0
VPORT
  5
15
100
AcDbSymbolTableRecord
100
AcDbViewportTableRecord
  2
*ACTIVE
 70
         0
 10
0.0
 20
0.0
 11
1.0
 21
1.0
 12
6.591288
 22
4.579184
 13
0.0
 23
0.0
 14
1.0
 24
1.0
 15
0.0
 25
0.0
 16
0.0
 26
0.0
 36
1.0
 17
0.0
 27
0.0
 37
0.0
 40
9.158369
 41
0.688564
 42
50.0
 43
0.0
 44
0.0
 50
0.0
 51
0.0
 71
         0
 72
       100
 73
         1
 74
         1
 75
         0
 76
         0
 77
         0
 78
         0
281
         0
 65
         0
110
0.0
120
0.0
130
0.0
111
1.0
121
0.0
131
0.0
112
0.0
122
1.0
132
0.0
345
0
346
0
 79
         0
146
0.0
  0
ENDTAB
  0
TABLE
  2
LTYPE
  5
4
100
AcDbSymbolTable
 70
        13
  0
LTYPE
  5
11
100
AcDbSymbolTableRecord
100
AcDbLinetypeTableRecord
  2
ByBlock
 70
        64
  3

 72
        65
 73
         0
 40
0.0
  0
LTYPE
  5
12
100
AcDbSymbolTableRecord
100
AcDbLinetypeTableRecord
  2
ByLayer
 70
        64
  3

 72
        65
 73
         0
 40
0.0
  0
LTYPE
  5
13
100
AcDbSymbolTableRecord
100
AcDbLinetypeTableRecord
  2
Continuous
 70
        64
  3
Solid line
 72
        65
 73
         0
 40
0.0
  0
LTYPE
  5
24
100
AcDbSymbolTableRecord
100
AcDbLinetypeTableRecord
  2
DOT
 70
        64
  3
. . . . . . . . 
 72
        65
 73
         2
 40
1.0
 49
0.0
 74
         0
 49
-1.0
 74
         0
  0
LTYPE
  5
25
100
AcDbSymbolTableRecord
100
AcDbLinetypeTableRecord
  2
DASHED
 70
        64
  3
___  ___  ___  ___  
 72
        65
 73
         2
 40
4.0
 49
3.0
 74
         0
 49
-1.0
 74
         0
  0
LTYPE
  5
26
100
AcDbSymbolTableRecord
100
AcDbLinetypeTableRecord
  2
HIDDEN
 70
        64
  3
__ __ __ __ 
 72
        65
 73
         2
 40
3.0
 49
2.0
 74
         0
 49
-1.0
 74
         0
  0
LTYPE
  5
27
100
AcDbSymbolTableRecord
100
AcDbLinetypeTableRecord
  2
STITCH
 70
        64
  3
_ _ _ _ 
 72
        65
 73
         2
 40
2.0
 49
1.0
 74
         0
 49
-1.0
 74
         0
  0
LTYPE
  5
28
100
AcDbSymbolTableRecord
100
AcDbLinetypeTableRecord
  2
CENTER
 70
        64
  3
______  __  ______  __  
 72
        65
 73
         4
 40
43.0
 49
40.0
 74
         0
 49
-1.0
 74
         0
 49
1.0
 74
         0
 49
-1.0
 74
         0
  0
LTYPE
  5
29
100
AcDbSymbolTableRecord
100
AcDbLinetypeTableRecord
  2
DASHDOT
 70
        64
  3
____ . ____ . 
 72
        65
 73
         4
 40
32.0
 49
30.0
 74
         0
 49
-1.0
 74
         0
 49
0.0
 74
         0
 49
-1.0
 74
         0
  0
LTYPE
  5
2A
100
AcDbSymbolTableRecord
100
AcDbLinetypeTableRecord
  2
BORDER
 70
        64
  3
__ . __ . 
 72
        65
 73
         4
 40
22.0
 49
20.0
 74
         0
 49
-1.0
 74
         0
 49
0.0
 74
         0
 49
-1.0
 74
         0
  0
LTYPE
  5
2B
100
AcDbSymbolTableRecord
100
AcDbLinetypeTableRecord
  2
CUTTING
 70
        64
  3
________   ___   ___   
 72
        65
 73
         6
 40
45.0
 49
40.0
 74
         0
 49
-1.0
 74
         0
 49
1.0
 74
         0
 49
-1.0
 74
         0
 49
1.0
 74
         0
 49
-1.0
 74
         0
  0
LTYPE
  5
2C
100
AcDbSymbolTableRecord
100
AcDbLinetypeTableRecord
  2
PHANTOM
 70
        64
  3
______  __  __  
 72
        65
 73
         6
 40
35.0
 49
30.0
 74
         0
 49
-1.0
 74
         0
 49
1.0
 74
         0
 49
-1.0
 74
         0
 49
1.0
 74
         0
 49
-1.0
 74
         0
  0
LTYPE
  5
2D
100
AcDbSymbolTableRecord
100
AcDbLinetypeTableRecord
  2
DIVIDE
 70
        64
  3
____ . . ____ . . 
 72
        65
 73
         6
 40
23.0
 49
20.0
 74
         0
 49
-1.0
 74
         0
 49
0.0
 74
         0
 49
-1.0
 74
         0
 49
0.0
 74
         0
 49
-1.0
 74
         0
  0
ENDTAB
  0
TABLE
  2
LAYER
  5
2
100
AcDbSymbolTable
 70
         4
  0
LAYER
  5
14
100
AcDbSymbolTableRecord
100
AcDbLayerTableRecord
  2
0
 70
         0
 62
         7
  6
Continuous
290
         1
370
        -3
390
1D
  0
LAYER
  5
2E
100
AcDbSymbolTableRecord
100
AcDbLayerTableRecord
  2
LAYER3
 70
         0
 62
         7
  6
Continuous
290
         1
370
        -3
390
1F
  0
LAYER
  5
3A
100
AcDbSymbolTableRecord
100
AcDbLayerTableRecord
  2
LAYER0
 70
         0
 62
         7
  6
Continuous
290
         1
370
        -3
390
1F
  0
LAYER
  5
A6
100
AcDbSymbolTableRecord
100
AcDbLayerTableRecord
  2
LAYER1
 70
         0
 62
         7
  6
Continuous
290
         1
370
        -3
390
1F
  0
ENDTAB
  0
TABLE
  2
STYLE
  5
3
100
AcDbSymbolTable
 70
         1
  0
STYLE
  5
17
100
AcDbSymbolTableRecord
100
AcDbTextStyleTableRecord
  2
Standard
 70
         0
 40
0.0
 41
1.0
 50
0.0
 71
         0
 42
0.0
  3
txt
  4
extfont
  0
ENDTAB
  0
TABLE
  2
VIEW
  5
5
100
AcDbSymbolTable
 70
         0
  0
ENDTAB
  0
TABLE
  2
UCS
  5
6
100
AcDbSymbolTable
 70
         0
  0
ENDTAB
  0
TABLE
  2
APPID
  5
8
100
AcDbSymbolTable
 70
         1
  0
APPID
  5
16
100
AcDbSymbolTableRecord
100
AcDbRegAppTableRecord
  2
ACAD
 70
         0
  0
ENDTAB
  0
TABLE
  2
DIMSTYLE
  5
9
100
AcDbSymbolTable
 70
         1
100
AcDbDimStyleTable
 71
         0
  0
DIMSTYLE
105
18
100
AcDbSymbolTableRecord
100
AcDbDimStyleTableRecord
  2
Standard
 70
         0
  3

  4

 40
1.0
 41
0.18
 42
0.0625
 43
0.38
 44
0.18
 45
0.0
 46
0.0
 47
0.0
 48
0.0
 71
         0
 72
         0
 73
         1
 74
         1
 75
         0
 76
         0
 77
         0
 78
         0
 79
         0
140
0.18
141
0.09
142
0.0
143
25.4
144
1.0
145
0.0
146
1.0
147
0.09
148
0.0
170
         0
171
         2
172
         0
173
         0
174
         0
175
         0
176
         0
177
         0
178
         0
179
         0
271
         4
272
         4
273
         2
274
         2
275
         0
276
         0
277
         2
278
        46
279
         0
280
         0
281
         0
282
         0
283
         1
284
         0
285
         0
286
         0
288
         0
340
17
341
0
342
0
343
0
344
0
371
        -2
372
        -2
  0
ENDTAB
  0
TABLE
  2
BLOCK_RECORD
  5
1
100
AcDbSymbolTable
 70
        44
  0
BLOCK_RECORD
  5
A
100
AcDbSymbolTableRecord
100
AcDbBlockTableRecord
  2
*MODEL_SPACE
340
20
  0
BLOCK_RECORD
  5
B
100
AcDbSymbolTableRecord
100
AcDbBlockTableRecord
  2
*PAPER_SPACE
340
21
  0
BLOCK_RECORD
  5
34
100
AcDbSymbolTableRecord
100
AcDbBlockTableRecord
  2
CLUMP0
340
0
  0
BLOCK_RECORD
  5
37
100
AcDbSymbolTableRecord
100
AcDbBlockTableRecord
  2
CLUMP1
340
0
  0
BLOCK_RECORD
  5
4C
100
AcDbSymbolTableRecord
100
AcDbBlockTableRecord
  2
CLUMP2
340
0
  0
BLOCK_RECORD
  5
4F
100
AcDbSymbolTableRecord
100
AcDbBlockTableRecord
  2
CLUMP3
340
0
  0
BLOCK_RECORD
  5
6A
100
AcDbSymbolTableRecord
100
AcDbBlockTableRecord
  2
CLUMP4
340
0
  0
BLOCK_RECORD
  5
6D
100
AcDbSymbolTableRecord
100
AcDbBlockTableRecord
  2
CLUMP5
340
0
  0
BLOCK_RECORD
  5
85
100
AcDbSymbolTableRecord
100
AcDbBlockTableRecord
  2
CLUMP6
340
0
  0
BLOCK_RECORD
  5
88
100
AcDbSymbolTableRecord
100
AcDbBlockTableRecord
  2
CLUMP7
340
0
  0
BLOCK_RECORD
  5
A0
100
AcDbSymbolTableRecord
100
AcDbBlockTableRecord
  2
CLUMP8
340
0
  0
BLOCK_RECORD
  5
A3
100
AcDbSymbolTableRecord
100
AcDbBlockTableRecord
  2
CLUMP9
340
0
  0
BLOCK_RECORD
  5
DC
100
AcDbSymbolTableRecord
100
AcDbBlockTableRecord
  2
CLUMP10
340
0
  0
BLOCK_RECORD
  5
DF
100
AcDbSymbolTableRecord
100
AcDbBlockTableRecord
  2
CLUMP11
340
0
  0
BLOCK_RECORD
  5
104
100
AcDbSymbolTableRecord
100
AcDbBlockTableRecord
  2
CLUMP12
340
0
  0
BLOCK_RECORD
  5
107
100
AcDbSymbolTableRecord
100
AcDbBlockTableRecord
  2
CLUMP13
340
0
  0
BLOCK_RECORD
  5
12C
100
AcDbSymbolTableRecord
100
AcDbBlockTableRecord
  2
CLUMP14
340
0
  0
BLOCK_RECORD
  5
12F
100
AcDbSymbolTableRecord
100
AcDbBlockTableRecord
  2
CLUMP15
340
0
  0
BLOCK_RECORD
  5
223
100
AcDbSymbolTableRecord
100
AcDbBlockTableRecord
  2
CLUMP16
340
0
  0
BLOCK_RECORD
  5
226
100
AcDbSymbolTableRecord
100
AcDbBlockTableRecord
  2
CLUMP17
340
0
  0
BLOCK_RECORD
  5
236
100
AcDbSymbolTableRecord
100
AcDbBlockTableRecord
  2
CLUMP18
340
0
  0
BLOCK_RECORD
  5
239
100
AcDbSymbolTableRecord
100
AcDbBlockTableRecord
  2
CLUMP19
340
0
  0
BLOCK_RECORD
  5
24D
100
AcDbSymbolTableRecord
100
AcDbBlockTableRecord
  2
CLUMP20
340
0
  0
BLOCK_RECORD
  5
250
100
AcDbSymbolTableRecord
100
AcDbBlockTableRecord
  2
CLUMP21
340
0
  0
BLOCK_RECORD
  5
264
100
AcDbSymbolTableRecord
100
AcDbBlockTableRecord
  2
CLUMP22
340
0
  0
BLOCK_RECORD
  5
267
100
AcDbSymbolTableRecord
100
AcDbBlockTableRecord
  2
CLUMP23
340
0
  0
BLOCK_RECORD
  5
275
100
AcDbSymbolTableRecord
100
AcDbBlockTableRecord
  2
CLUMP24
340
0
  0
BLOCK_RECORD
  5
278
100
AcDbSymbolTableRecord
100
AcDbBlockTableRecord
  2
CLUMP25
340
0
  0
BLOCK_RECORD
  5
290
100
AcDbSymbolTableRecord
100
AcDbBlockTableRecord
  2
CLUMP26
340
0
  0
BLOCK_RECORD
  5
293
100
AcDbSymbolTableRecord
100
AcDbBlockTableRecord
  2
CLUMP27
340
0
  0
BLOCK_RECORD
  5
2AB
100
AcDbSymbolTableRecord
100
AcDbBlockTableRecord
  2
CLUMP28
340
0
  0
BLOCK_RECORD
  5
2AE
100
AcDbSymbolTableRecord
100
AcDbBlockTableRecord
  2
CLUMP29
340
0
  0
BLOCK_RECORD
  5
309
100
AcDbSymbolTableRecord
100
AcDbBlockTableRecord
  2
CLUMP30
340
0
  0
BLOCK_RECORD
  5
30C
100
AcDbSymbolTableRecord
100
AcDbBlockTableRecord
  2
CLUMP31
340
0
  0
BLOCK_RECORD
  5
331
100
AcDbSymbolTableRecord
100
AcDbBlockTableRecord
  2
CLUMP32
340
0
  0
BLOCK_RECORD
  5
334
100
AcDbSymbolTableRecord
100
AcDbBlockTableRecord
  2
CLUMP33
340
0
  0
BLOCK_RECORD
  5
3DF
100
AcDbSymbolTableRecord
100
AcDbBlockTableRecord
  2
CLUMP34
340
0
  0
BLOCK_RECORD
  5
3E2
100
AcDbSymbolTableRecord
100
AcDbBlockTableRecord
  2
CLUMP35
340
0
  0
BLOCK_RECORD
  5
3EF
100
AcDbSymbolTableRecord
100
AcDbBlockTableRecord
  2
CLUMP36
340
0
  0
BLOCK_RECORD
  5
3F2
100
AcDbSymbolTableRecord
100
AcDbBlockTableRecord
  2
CLUMP37
340
0
  0
BLOCK_RECORD
  5
3FF
100
AcDbSymbolTableRecord
100
AcDbBlockTableRecord
  2
CLUMP38
340
0
  0
BLOCK_RECORD
  5
402
100
AcDbSymbolTableRecord
100
AcDbBlockTableRecord
  2
CLUMP39
340
0
  0
BLOCK_RECORD
  5
412
100
AcDbSymbolTableRecord
100
AcDbBlockTableRecord
  2
CLUMP40
340
0
  0
BLOCK_RECORD
  5
415
100
AcDbSymbolTableRecord
100
AcDbBlockTableRecord
  2
CLUMP41
340
0
  0
BLOCK_RECORD
  5
4B1
100
AcDbSymbolTableRecord
100
AcDbBlockTableRecord
  2
CLUMP42
340
0
  0
BLOCK_RECORD
  5
4B4
100
AcDbSymbolTableRecord
100
AcDbBlockTableRecord
  2
CLUMP43
340
0
  0
ENDTAB
  0
ENDSEC
  0
SECTION
  2
BLOCKS
  0
BLOCK
  5
D
100
AcDbEntity
  8
0
100
AcDbBlockBegin
  2
*MODEL_SPACE
 70
         0
 10
0.0
 20
0.0
 30
0.0
  3
*MODEL_SPACE
  1

  0
ENDBLK
  5
E
100
AcDbEntity
  8
0
100
AcDbBlockEnd
  0
BLOCK
  5
F
100
AcDbEntity
 67
         1
  8
0
100
AcDbBlockBegin
  2
*PAPER_SPACE
 70
         0
 10
0.0
 20
0.0
 30
0.0
  3
*PAPER_SPACE
  1

  0
ENDBLK
  5
10
100
AcDbEntity
 67
         1
  8
0
100
AcDbBlockEnd
  0
BLOCK
  5
36
100
AcDbEntity
  8
0
100
AcDbBlockBegin
  2
CLUMP0
 70
         0
 10
0.0
 20
0.0
 30
0.0
  3

  1

  0
INSERT
  5
38
100
AcDbEntity
  8
0
100
AcDbBlockReference
  2
CLUMP1
 10
0.0
 20
0.0
 30
0.0
  0
ENDBLK
  5
4B
100
AcDbEntity
  8
0
100
AcDbBlockEnd
  0
BLOCK
  5
39
100
AcDbEntity
  8
0
100
AcDbBlockBegin
  2
CLUMP1
 70
         0
 10
0.0
 20
0.0
 30
0.0
  3

  1

  0
LINE
  5
3B
100
AcDbEntity
  8
LAYER0
  6
CENTER
100
AcDbLine
 10
16.5645171333
 20
24.2558220067
 30
0.0
 11
42.0302421415
 21
24.2558220067
 31
0.0
  0
LINE
  5
3C
100
AcDbEntity
  8
LAYER0
 62
         2
100
AcDbLine
 10
38.1542011875
 20
27.7558220067
 30
0.0
 11
38.1542011875
 21
20.7558220067
 31
0.0
  0
LINE
  5
3D
100
AcDbEntity
  8
LAYER0
 62
         2
100
AcDbLine
 10
38.1542011875
 20
27.7558220067
 30
0.0
 11
39.4524195826
 21
27.6877852636
 31
0.0
  0
LINE
  5
3E
100
AcDbEntity
  8
LAYER0
 62
         2
100
AcDbLine
 10
38.1542011875
 20
20.7558220067
 30
0.0
 11
39.4524195826
 21
20.8238587498
 31
0.0
  0
ARC
  5
3F
100
AcDbEntity
  8
LAYER0
 62
         2
100
AcDbCircle
 10
39.4020006153
 20
26.7257340566
 30
0.0
 40
0.9633714741
210
0.0
220
0.0
230
1.0
100
AcDbArc
 50
18.8489691491
 51
87.0000014841
  0
ARC
  5
40
100
AcDbEntity
  8
LAYER0
 62
         2
100
AcDbCircle
 10
39.4020006153
 20
21.7859099568
 30
0.0
 40
0.9633714741
210
0.0
220
0.0
230
1.0
100
AcDbArc
 50
272.9999985159
 51
341.1510308509
  0
ARC
  5
41
100
AcDbEntity
  8
LAYER0
 62
         2
100
AcDbCircle
 10
31.7542011875
 20
24.2558220067
 30
0.0
 40
9.0
210
-0.0
220
0.0
230
1.0
100
AcDbArc
 50
341.999999693
 51
18.000000307
  0
LINE
  5
42
100
AcDbEntity
  8
LAYER0
 62
         5
100
AcDbLine
 10
38.1542011875
 20
26.0058220067
 30
0.0
 11
21.7775828587
 21
26.0058220067
 31
0.0
  0
LINE
  5
43
100
AcDbEntity
  8
LAYER0
 62
         5
100
AcDbLine
 10
38.1542011875
 20
22.5058220067
 30
0.0
 11
21.7775828587
 21
22.5058220067
 31
0.0
  0
LINE
  5
44
100
AcDbEntity
  8
LAYER0
 62
         2
100
AcDbLine
 10
38.1542011875
 20
26.2558220067
 30
0.0
 11
23.761896342
 21
26.2558220067
 31
0.0
  0
LINE
  5
45
100
AcDbEntity
  8
LAYER0
 62
         2
100
AcDbLine
 10
38.1542011875
 20
22.2558220067
 30
0.0
 11
23.761896342
 21
22.2558220067
 31
0.0
  0
LINE
  5
46
100
AcDbEntity
  8
LAYER0
 62
         2
100
AcDbLine
 10
18.1542011875
 20
24.2558220067
 30
0.0
 11
19.761896342
 21
23.3276187764
 31
0.0
  0
ARC
  5
47
100
AcDbEntity
  8
LAYER0
 62
         2
100
AcDbCircle
 10
23.761896342
 20
30.2558220067
 30
0.0
 40
8.0
210
0.0
220
0.0
230
1.0
100
AcDbArc
 50
239.999997953
 51
269.9999984648
  0
LINE
  5
48
100
AcDbEntity
  8
LAYER0
 62
         2
100
AcDbLine
 10
18.1542011875
 20
24.2558220067
 30
0.0
 11
19.761896342
 21
25.184025237
 31
0.0
  0
ARC
  5
49
100
AcDbEntity
  8
LAYER0
 62
         2
100
AcDbCircle
 10
23.761896342
 20
18.2558220067
 30
0.0
 40
8.0
210
0.0
220
0.0
230
1.0
100
AcDbArc
 50
90.0000015352
 51
120.000002047
  0
ENDBLK
  5
4A
100
AcDbEntity
  8
0
100
AcDbBlockEnd
  0
BLOCK
  5
4E
100
AcDbEntity
  8
0
100
AcDbBlockBegin
  2
CLUMP2
 70
         0
 10
0.0
 20
0.0
 30
0.0
  3

  1

  0
INSERT
  5
50
100
AcDbEntity
  8
0
100
AcDbBlockReference
  2
CLUMP3
 10
0.0
 20
0.0
 30
0.0
  0
ENDBLK
  5
62
100
AcDbEntity
  8
0
100
AcDbBlockEnd
  0
BLOCK
  5
51
100
AcDbEntity
  8
0
100
AcDbBlockBegin
  2
CLUMP3
 70
         0
 10
0.0
 20
0.0
 30
0.0
  3

  1

  0
LINE
  5
52
100
AcDbEntity
  8
LAYER0
  6
CENTER
100
AcDbLine
 10
16.5645171333
 20
82.2558220067
 30
0.0
 11
42.0302421415
 21
82.2558220067
 31
0.0
  0
LINE
  5
53
100
AcDbEntity
  8
LAYER0
 62
         2
100
AcDbLine
 10
38.1542011875
 20
78.7558220067
 30
0.0
 11
38.1542011875
 21
85.7558220067
 31
0.0
  0
LINE
  5
54
100
AcDbEntity
  8
LAYER0
 62
         2
100
AcDbLine
 10
38.1542011875
 20
78.7558220067
 30
0.0
 11
39.4524195826
 21
78.8238587498
 31
0.0
  0
LINE
  5
55
100
AcDbEntity
  8
LAYER0
 62
         2
100
AcDbLine
 10
38.1542011875
 20
85.7558220067
 30
0.0
 11
39.4524195826
 21
85.6877852636
 31
0.0
  0
ARC
  5
56
100
AcDbEntity
  8
LAYER0
 62
         2
100
AcDbCircle
 10
39.4020006153
 20
79.7859099568
 30
0.0
 40
0.9633714741
210
0.0
220
0.0
230
1.0
100
AcDbArc
 50
272.9999985159
 51
341.1510308509
  0
ARC
  5
57
100
AcDbEntity
  8
LAYER0
 62
         2
100
AcDbCircle
 10
39.4020006153
 20
84.7257340566
 30
0.0
 40
0.9633714741
210
0.0
220
0.0
230
1.0
100
AcDbArc
 50
18.8489691491
 51
87.0000014841
  0
ARC
  5
58
100
AcDbEntity
  8
LAYER0
 62
         2
100
AcDbCircle
 10
31.7542011875
 20
82.2558220067
 30
0.0
 40
9.0
210
-0.0
220
0.0
230
1.0
100
AcDbArc
 50
341.999999693
 51
18.000000307
  0
LINE
  5
59
100
AcDbEntity
  8
LAYER0
 62
         5
100
AcDbLine
 10
38.1542011875
 20
80.5058220067
 30
0.0
 11
21.7775828587
 21
80.5058220067
 31
0.0
  0
LINE
  5
5A
100
AcDbEntity
  8
LAYER0
 62
         5
100
AcDbLine
 10
38.1542011875
 20
84.0058220067
 30
0.0
 11
21.7775828587
 21
84.0058220067
 31
0.0
  0
LINE
  5
5B
100
AcDbEntity
  8
LAYER0
 62
         2
100
AcDbLine
 10
38.1542011875
 20
80.2558220067
 30
0.0
 11
23.761896342
 21
80.2558220067
 31
0.0
  0
LINE
  5
5C
100
AcDbEntity
  8
LAYER0
 62
         2
100
AcDbLine
 10
38.1542011875
 20
84.2558220067
 30
0.0
 11
23.761896342
 21
84.2558220067
 31
0.0
  0
LINE
  5
5D
100
AcDbEntity
  8
LAYER0
 62
         2
100
AcDbLine
 10
18.1542011875
 20
82.2558220067
 30
0.0
 11
19.761896342
 21
83.184025237
 31
0.0
  0
ARC
  5
5E
100
AcDbEntity
  8
LAYER0
 62
         2
100
AcDbCircle
 10
23.761896342
 20
76.2558220067
 30
0.0
 40
8.0
210
0.0
220
0.0
230
1.0
100
AcDbArc
 50
90.0000015352
 51
120.000002047
  0
LINE
  5
5F
100
AcDbEntity
  8
LAYER0
 62
         2
100
AcDbLine
 10
18.1542011875
 20
82.2558220067
 30
0.0
 11
19.761896342
 21
81.3276187764
 31
0.0
  0
ARC
  5
60
100
AcDbEntity
  8
LAYER0
 62
         2
100
AcDbCircle
 10
23.761896342
 20
88.2558220067
 30
0.0
 40
8.0
210
0.0
220
0.0
230
1.0
100
AcDbArc
 50
239.999997953
 51
269.9999984648
  0
ENDBLK
  5
61
100
AcDbEntity
  8
0
100
AcDbBlockEnd
  0
BLOCK
  5
6C
100
AcDbEntity
  8
0
100
AcDbBlockBegin
  2
CLUMP4
 70
         0
 10
0.0
 20
0.0
 30
0.0
  3

  1

  0
INSERT
  5
6E
100
AcDbEntity
  8
0
100
AcDbBlockReference
  2
CLUMP5
 10
0.0
 20
0.0
 30
0.0
  0
ENDBLK
  5
84
100
AcDbEntity
  8
0
100
AcDbBlockEnd
  0
BLOCK
  5
6F
100
AcDbEntity
  8
0
100
AcDbBlockBegin
  2
CLUMP5
 70
         0
 10
0.0
 20
0.0
 30
0.0
  3

  1

  0
LINE
  5
70
100
AcDbEntity
  8
LAYER0
 62
         3
100
AcDbLine
 10
34.9542011875
 20
13.2558220067
 30
0.0
 11
34.9542011875
 21
35.2558220067
 31
0.0
  0
ARC
  5
71
100
AcDbEntity
  8
LAYER0
 62
         3
100
AcDbCircle
 10
35.4542011875
 20
35.2558220067
 30
0.0
 40
0.5
210
0.0
220
0.0
230
1.0
100
AcDbArc
 50
90.0000015352
 51
180.0000030705
  0
LINE
  5
72
100
AcDbEntity
  8
LAYER0
 62
         3
100
AcDbLine
 10
35.4542011875
 20
35.7558220067
 30
0.0
 11
38.1542011875
 21
35.7558220067
 31
0.0
  0
LINE
  5
73
100
AcDbEntity
  8
LAYER0
 62
         3
100
AcDbLine
 10
38.1542011875
 20
24.2558220067
 30
0.0
 11
38.1542011875
 21
35.7558220067
 31
0.0
  0
LINE
  5
74
100
AcDbEntity
  8
LAYER0
 62
         3
100
AcDbLine
 10
38.1542011875
 20
12.7558220067
 30
0.0
 11
35.4542011875
 21
12.7558220067
 31
0.0
  0
ARC
  5
75
100
AcDbEntity
  8
LAYER0
 62
         3
100
AcDbCircle
 10
35.4542011875
 20
13.2558220067
 30
0.0
 40
0.5
210
0.0
220
0.0
230
1.0
100
AcDbArc
 50
180.0000030705
 51
269.9999984648
  0
LINE
  5
76
100
AcDbEntity
  8
LAYER0
 62
         3
100
AcDbLine
 10
38.1542011875
 20
12.7558220067
 30
0.0
 11
38.1542011875
 21
24.2558220067
 31
0.0
  0
LINE
  5
77
100
AcDbEntity
  8
LAYER0
 62
         3
100
AcDbLine
 10
51.9542013365
 20
17.7558220067
 30
0.0
 11
51.9542013365
 21
30.7558220067
 31
0.0
  0
ARC
  5
78
100
AcDbEntity
  8
LAYER0
 62
         3
100
AcDbCircle
 10
54.6542013365
 20
18.2558220067
 30
0.0
 40
0.5
210
-0.0
220
0.0
230
1.0
100
AcDbArc
 50
269.9999984648
 51
0.0
  0
ARC
  5
79
100
AcDbEntity
  8
LAYER0
 62
         3
100
AcDbCircle
 10
54.6542013365
 20
30.2558220067
 30
0.0
 40
0.5
210
0.0
220
-0.0
230
1.0
100
AcDbArc
 50
0.0
 51
90.0000015352
  0
LINE
  5
7A
100
AcDbEntity
  8
LAYER0
 62
         3
100
AcDbLine
 10
52.1631441891
 20
17.7558220067
 30
0.0
 11
54.6542013365
 21
17.7558220067
 31
0.0
  0
LINE
  5
7B
100
AcDbEntity
  8
LAYER0
 62
         3
100
AcDbLine
 10
51.9542013365
 20
30.7558220067
 30
0.0
 11
54.6542013365
 21
30.7558220067
 31
0.0
  0
LINE
  5
7C
100
AcDbEntity
  8
LAYER0
 62
         3
100
AcDbLine
 10
55.1542013365
 20
18.2558220067
 30
0.0
 11
55.1542013365
 21
30.2558220067
 31
0.0
  0
LINE
  5
7D
100
AcDbEntity
  8
LAYER0
 62
         3
100
AcDbLine
 10
46.454201262
 20
30.7558220067
 30
0.0
 11
38.1542011875
 21
30.7558220067
 31
0.0
  0
LINE
  5
7E
100
AcDbEntity
  8
LAYER0
 62
         3
100
AcDbLine
 10
46.454201262
 20
30.7558220067
 30
0.0
 11
49.654201262
 21
30.7558220067
 31
0.0
  0
LINE
  5
7F
100
AcDbEntity
  8
LAYER0
 62
         3
100
AcDbLine
 10
51.9542013365
 20
30.7558220067
 30
0.0
 11
49.654201262
 21
30.7558220067
 31
0.0
  0
LINE
  5
80
100
AcDbEntity
  8
LAYER0
 62
         3
100
AcDbLine
 10
49.654201262
 20
17.7558220067
 30
0.0
 11
52.1631441891
 21
17.7558220067
 31
0.0
  0
LINE
  5
81
100
AcDbEntity
  8
LAYER0
 62
         3
100
AcDbLine
 10
46.454201262
 20
17.7558220067
 30
0.0
 11
49.654201262
 21
17.7558220067
 31
0.0
  0
LINE
  5
82
100
AcDbEntity
  8
LAYER0
 62
         3
100
AcDbLine
 10
38.1542011875
 20
17.7558220067
 30
0.0
 11
46.454201262
 21
17.7558220067
 31
0.0
  0
ENDBLK
  5
83
100
AcDbEntity
  8
0
100
AcDbBlockEnd
  0
BLOCK
  5
87
100
AcDbEntity
  8
0
100
AcDbBlockBegin
  2
CLUMP6
 70
         0
 10
0.0
 20
0.0
 30
0.0
  3

  1

  0
INSERT
  5
89
100
AcDbEntity
  8
0
100
AcDbBlockReference
  2
CLUMP7
 10
0.0
 20
0.0
 30
0.0
  0
ENDBLK
  5
9F
100
AcDbEntity
  8
0
100
AcDbBlockEnd
  0
BLOCK
  5
8A
100
AcDbEntity
  8
0
100
AcDbBlockBegin
  2
CLUMP7
 70
         0
 10
0.0
 20
0.0
 30
0.0
  3

  1

  0
LINE
  5
8B
100
AcDbEntity
  8
LAYER0
 62
         3
100
AcDbLine
 10
34.9542011875
 20
93.2558220067
 30
0.0
 11
34.9542011875
 21
71.2558220067
 31
0.0
  0
ARC
  5
8C
100
AcDbEntity
  8
LAYER0
 62
         3
100
AcDbCircle
 10
35.4542011875
 20
71.2558220067
 30
0.0
 40
0.5
210
0.0
220
0.0
230
1.0
100
AcDbArc
 50
179.9999969295
 51
269.9999984648
  0
LINE
  5
8D
100
AcDbEntity
  8
LAYER0
 62
         3
100
AcDbLine
 10
35.4542011875
 20
70.7558220067
 30
0.0
 11
38.1542011875
 21
70.7558220067
 31
0.0
  0
LINE
  5
8E
100
AcDbEntity
  8
LAYER0
 62
         3
100
AcDbLine
 10
38.1542011875
 20
82.2558220067
 30
0.0
 11
38.1542011875
 21
70.7558220067
 31
0.0
  0
LINE
  5
8F
100
AcDbEntity
  8
LAYER0
 62
         3
100
AcDbLine
 10
38.1542011875
 20
93.7558220067
 30
0.0
 11
35.4542011875
 21
93.7558220067
 31
0.0
  0
ARC
  5
90
100
AcDbEntity
  8
LAYER0
 62
         3
100
AcDbCircle
 10
35.4542011875
 20
93.2558220067
 30
0.0
 40
0.5
210
0.0
220
0.0
230
1.0
100
AcDbArc
 50
90.0000015352
 51
179.9999969295
  0
LINE
  5
91
100
AcDbEntity
  8
LAYER0
 62
         3
100
AcDbLine
 10
38.1542011875
 20
93.7558220067
 30
0.0
 11
38.1542011875
 21
82.2558220067
 31
0.0
  0
LINE
  5
92
100
AcDbEntity
  8
LAYER0
 62
         3
100
AcDbLine
 10
51.9542013365
 20
88.7558220067
 30
0.0
 11
51.9542013365
 21
75.7558220067
 31
0.0
  0
ARC
  5
93
100
AcDbEntity
  8
LAYER0
 62
         3
100
AcDbCircle
 10
54.6542013365
 20
88.2558220067
 30
0.0
 40
0.5
210
0.0
220
-0.0
230
1.0
100
AcDbArc
 50
0.0
 51
90.0000015352
  0
ARC
  5
94
100
AcDbEntity
  8
LAYER0
 62
         3
100
AcDbCircle
 10
54.6542013365
 20
76.2558220067
 30
0.0
 40
0.5
210
-0.0
220
0.0
230
1.0
100
AcDbArc
 50
269.9999984648
 51
0.0
  0
LINE
  5
95
100
AcDbEntity
  8
LAYER0
 62
         3
100
AcDbLine
 10
52.1631441891
 20
88.7558220067
 30
0.0
 11
54.6542013365
 21
88.7558220067
 31
0.0
  0
LINE
  5
96
100
AcDbEntity
  8
LAYER0
 62
         3
100
AcDbLine
 10
51.9542013365
 20
75.7558220067
 30
0.0
 11
54.6542013365
 21
75.7558220067
 31
0.0
  0
LINE
  5
97
100
AcDbEntity
  8
LAYER0
 62
         3
100
AcDbLine
 10
55.1542013365
 20
88.2558220067
 30
0.0
 11
55.1542013365
 21
76.2558220067
 31
0.0
  0
LINE
  5
98
100
AcDbEntity
  8
LAYER0
 62
         3
100
AcDbLine
 10
49.654201262
 20
88.7558220067
 30
0.0
 11
52.1631441891
 21
88.7558220067
 31
0.0
  0
LINE
  5
99
100
AcDbEntity
  8
LAYER0
 62
         3
100
AcDbLine
 10
46.454201262
 20
88.7558220067
 30
0.0
 11
49.654201262
 21
88.7558220067
 31
0.0
  0
LINE
  5
9A
100
AcDbEntity
  8
LAYER0
 62
         3
100
AcDbLine
 10
38.1542011875
 20
88.7558220067
 30
0.0
 11
46.454201262
 21
88.7558220067
 31
0.0
  0
LINE
  5
9B
100
AcDbEntity
  8
LAYER0
 62
         3
100
AcDbLine
 10
46.454201262
 20
75.7558220067
 30
0.0
 11
38.1542011875
 21
75.7558220067
 31
0.0
  0
LINE
  5
9C
100
AcDbEntity
  8
LAYER0
 62
         3
100
AcDbLine
 10
46.454201262
 20
75.7558220067
 30
0.0
 11
49.654201262
 21
75.7558220067
 31
0.0
  0
LINE
  5
9D
100
AcDbEntity
  8
LAYER0
 62
         3
100
AcDbLine
 10
51.9542013365
 20
75.7558220067
 30
0.0
 11
49.654201262
 21
75.7558220067
 31
0.0
  0
ENDBLK
  5
9E
100
AcDbEntity
  8
0
100
AcDbBlockEnd
  0
BLOCK
  5
A2
100
AcDbEntity
  8
0
100
AcDbBlockBegin
  2
CLUMP8
 70
         0
 10
0.0
 20
0.0
 30
0.0
  3

  1

  0
INSERT
  5
A4
100
AcDbEntity
  8
0
100
AcDbBlockReference
  2
CLUMP9
 10
0.0
 20
0.0
 30
0.0
  0
ENDBLK
  5
DB
100
AcDbEntity
  8
0
100
AcDbBlockEnd
  0
BLOCK
  5
A5
100
AcDbEntity
  8
0
100
AcDbBlockBegin
  2
CLUMP9
 70
         0
 10
0.0
 20
0.0
 30
0.0
  3

  1

  0
LINE
  5
A7
100
AcDbEntity
  8
LAYER1
 62
         4
100
AcDbLine
 10
34.9542011875
 20
62.2558216193
 30
0.0
 11
34.9542011875
 21
63.4880550537
 31
0.0
  0
LINE
  5
A8
100
AcDbEntity
  8
LAYER1
 62
         4
100
AcDbLine
 10
35.4542011279
 20
50.7558220067
 30
0.0
 11
35.4542011279
 21
52.068387798
 31
0.0
  0
LINE
  5
A9
100
AcDbEntity
  8
LAYER1
 62
         4
100
AcDbLine
 10
35.2542011875
 20
37.2558219322
 30
0.0
 11
38.686434309
 21
37.2558219322
 31
0.0
  0
LINE
  5
AA
100
AcDbEntity
  8
LAYER1
 62
         4
100
AcDbLine
 10
40.954201262
 20
44.2558223941
 30
0.0
 11
40.954201262
 21
40.2478529539
 31
0.0
  0
LINE
  5
AB
100
AcDbEntity
  8
LAYER1
 62
         4
100
AcDbLine
 10
35.5399876251
 20
41.6093753973
 30
0.0
 11
39.0399876996
 21
38.1093753228
 31
0.0
  0
LINE
  5
AC
100
AcDbEntity
  8
LAYER1
 62
         4
100
AcDbLine
 10
37.0399875655
 20
42.2306958004
 30
0.0
 11
39.588515837
 21
39.6821675289
 31
0.0
  0
LINE
  5
AD
100
AcDbEntity
  8
LAYER1
 62
         4
100
AcDbLine
 10
35.2542011875
 20
69.2558220812
 30
0.0
 11
38.686434309
 21
69.2558220812
 31
0.0
  0
LINE
  5
AE
100
AcDbEntity
  8
LAYER1
 62
         4
100
AcDbLine
 10
35.5399876251
 20
64.9022686161
 30
0.0
 11
39.0399876996
 21
68.4022686906
 31
0.0
  0
LINE
  5
AF
100
AcDbEntity
  8
LAYER1
 62
         4
100
AcDbLine
 10
40.954201262
 20
62.2558216193
 30
0.0
 11
40.954201262
 21
66.2637910595
 31
0.0
  0
LINE
  5
B0
100
AcDbEntity
  8
LAYER1
 62
         4
100
AcDbLine
 10
37.0399875655
 20
64.2809482129
 30
0.0
 11
39.588515837
 21
66.8294764845
 31
0.0
  0
LINE
  5
B1
100
AcDbEntity
  8
LAYER1
 62
         4
100
AcDbLine
 10
35.2542011875
 20
70.7558220812
 30
0.0
 11
38.954201262
 21
70.7558220812
 31
0.0
  0
LINE
  5
B2
100
AcDbEntity
  8
LAYER1
 62
         4
100
AcDbLine
 10
42.454201262
 20
67.2558220812
 30
0.0
 11
42.454201262
 21
62.7558217012
 31
0.0
  0
ARC
  5
B3
100
AcDbEntity
  8
LAYER1
 62
         4
100
AcDbCircle
 10
41.9542011875
 20
62.7558220067
 30
0.0
 40
0.5
210
-0.0
220
0.0
230
1.0
100
AcDbArc
 50
269.9999984648
 51
0.0000015352
  0
LINE
  5
B4
100
AcDbEntity
  8
LAYER1
 62
         4
100
AcDbLine
 10
41.9542021114
 20
62.2558216193
 30
0.0
 11
40.954201262
 21
62.2558216193
 31
0.0
  0
LINE
  5
B5
100
AcDbEntity
  8
LAYER1
 62
         4
100
AcDbLine
 10
35.2542011875
 20
35.7558219322
 30
0.0
 11
38.954201262
 21
35.7558219322
 31
0.0
  0
LINE
  5
B6
100
AcDbEntity
  8
LAYER1
 62
         4
100
AcDbLine
 10
42.454201262
 20
39.2558219322
 30
0.0
 11
42.454201262
 21
43.7558223121
 31
0.0
  0
ARC
  5
B7
100
AcDbEntity
  8
LAYER1
 62
         4
100
AcDbCircle
 10
41.9542011875
 20
43.7558220067
 30
0.0
 40
0.5
210
0.0
220
-0.0
230
1.0
100
AcDbArc
 50
0.0000015352
 51
90.0000046057
  0
LINE
  5
B8
100
AcDbEntity
  8
LAYER1
 62
         4
100
AcDbLine
 10
41.9542021114
 20
44.2558223941
 30
0.0
 11
40.954201262
 21
44.2558223941
 31
0.0
  0
ARC
  5
B9
100
AcDbEntity
  8
LAYER1
 62
         4
100
AcDbCircle
 10
38.4542011279
 20
62.8667346506
 30
0.0
 40
2.0
210
0.0
220
0.0
230
1.0
100
AcDbArc
 50
135.0
 51
180.0000015352
  0
ARC
  5
BA
100
AcDbEntity
  8
LAYER1
 62
         4
100
AcDbCircle
 10
38.4542011279
 20
43.6449093628
 30
0.0
 40
2.0
210
0.0
220
0.0
230
1.0
100
AcDbArc
 50
180.0000015352
 51
224.9999969295
  0
ARC
  5
BB
100
AcDbEntity
  8
LAYER1
 62
         4
100
AcDbCircle
 10
40.154201262
 20
40.2478529539
 30
0.0
 40
0.8
210
-0.0
220
0.0
230
1.0
100
AcDbArc
 50
224.9999969295
 51
0.0000015352
  0
ARC
  5
BC
100
AcDbEntity
  8
LAYER1
 62
         4
100
AcDbCircle
 10
40.154201262
 20
66.2637910595
 30
0.0
 40
0.8
210
0.0
220
-0.0
230
1.0
100
AcDbArc
 50
0.0000015352
 51
135.0
  0
ARC
  5
BD
100
AcDbEntity
  8
LAYER1
 62
         4
100
AcDbCircle
 10
38.954201262
 20
39.2558219322
 30
0.0
 40
3.5
210
-0.0
220
0.0
230
1.0
100
AcDbArc
 50
269.9999984648
 51
0.0
  0
ARC
  5
BE
100
AcDbEntity
  8
LAYER1
 62
         4
100
AcDbCircle
 10
38.954201262
 20
67.2558220812
 30
0.0
 40
3.5
210
0.0
220
-0.0
230
1.0
100
AcDbArc
 50
0.0
 51
90.0000015352
  0
LINE
  5
BF
100
AcDbEntity
  8
LAYER1
 62
         4
100
AcDbLine
 10
34.9542011875
 20
69.5558220812
 30
0.0
 11
34.9542011875
 21
70.4558220812
 31
0.0
  0
LINE
  5
C0
100
AcDbEntity
  8
LAYER1
 62
         4
100
AcDbLine
 10
34.9542011875
 20
36.0558219322
 30
0.0
 11
34.9542011875
 21
36.9558219322
 31
0.0
  0
LINE
  5
C1
100
AcDbEntity
  8
LAYER1
 62
         4
100
AcDbLine
 10
35.4542011279
 20
54.4432562154
 30
0.0
 11
35.4542011279
 21
55.7558220067
 31
0.0
  0
LINE
  5
C2
100
AcDbEntity
  8
LAYER1
 62
         4
100
AcDbLine
 10
35.4542011279
 20
62.2558216193
 30
0.0
 11
34.9542011875
 21
62.2558216193
 31
0.0
  0
LINE
  5
C3
100
AcDbEntity
  8
LAYER1
 62
         4
100
AcDbLine
 10
35.4542011279
 20
55.7558220067
 30
0.0
 11
34.9542011875
 21
55.7558220067
 31
0.0
  0
LINE
  5
C4
100
AcDbEntity
  8
LAYER1
 62
         4
100
AcDbLine
 10
35.4542011279
 20
57.7558220067
 30
0.0
 11
34.9542011875
 21
57.7558220067
 31
0.0
  0
LINE
  5
C5
100
AcDbEntity
  8
LAYER1
 62
         4
100
AcDbLine
 10
34.9542011875
 20
57.7558220067
 30
0.0
 11
34.9542011875
 21
55.7558220067
 31
0.0
  0
LINE
  5
C6
100
AcDbEntity
  8
LAYER1
 62
         4
100
AcDbLine
 10
35.4542011279
 20
57.7558220067
 30
0.0
 11
35.4542011279
 21
62.2558216193
 31
0.0
  0
LINE
  5
C7
100
AcDbEntity
  8
LAYER1
 62
         4
100
AcDbLine
 10
34.9542011875
 20
44.2558223941
 30
0.0
 11
34.9542011875
 21
43.0235889597
 31
0.0
  0
LINE
  5
C8
100
AcDbEntity
  8
LAYER1
 62
         4
100
AcDbLine
 10
35.4542011279
 20
44.2558223941
 30
0.0
 11
34.9542011875
 21
44.2558223941
 31
0.0
  0
LINE
  5
C9
100
AcDbEntity
  8
LAYER1
 62
         4
100
AcDbLine
 10
35.4542011279
 20
50.7558220067
 30
0.0
 11
34.9542011875
 21
50.7558220067
 31
0.0
  0
LINE
  5
CA
100
AcDbEntity
  8
LAYER1
 62
         4
100
AcDbLine
 10
35.4542011279
 20
48.7558220067
 30
0.0
 11
34.9542011875
 21
48.7558220067
 31
0.0
  0
LINE
  5
CB
100
AcDbEntity
  8
LAYER1
 62
         4
100
AcDbLine
 10
34.9542011875
 20
48.7558220067
 30
0.0
 11
34.9542011875
 21
50.7558220067
 31
0.0
  0
LINE
  5
CC
100
AcDbEntity
  8
LAYER1
 62
         4
100
AcDbLine
 10
35.4542011279
 20
48.7558220067
 30
0.0
 11
35.4542011279
 21
44.2558223941
 31
0.0
  0
LINE
  5
CD
100
AcDbEntity
  8
LAYER1
 62
         4
100
AcDbLine
 10
36.1542011279
 20
53.2558220067
 30
0.0
 11
36.4542011279
 21
52.9558220067
 31
0.0
  0
LINE
  5
CE
100
AcDbEntity
  8
LAYER1
 62
         4
100
AcDbLine
 10
36.1542011279
 20
53.2558220067
 30
0.0
 11
36.4542011279
 21
53.5558220067
 31
0.0
  0
LINE
  5
CF
100
AcDbEntity
  8
LAYER1
 62
         4
100
AcDbLine
 10
36.4542011279
 20
43.6449093628
 30
0.0
 11
36.4542011279
 21
52.9558220067
 31
0.0
  0
LINE
  5
D0
100
AcDbEntity
  8
LAYER1
 62
         4
100
AcDbLine
 10
36.4542011279
 20
62.8667346506
 30
0.0
 11
36.4542011279
 21
53.5558220067
 31
0.0
  0
ARC
  5
D1
100
AcDbEntity
  8
LAYER1
 62
         4
100
AcDbCircle
 10
35.2542011875
 20
36.0558219322
 30
0.0
 40
0.3
210
0.0
220
0.0
230
1.0
100
AcDbArc
 50
179.9999969295
 51
269.9999984648
  0
ARC
  5
D2
100
AcDbEntity
  8
LAYER1
 62
         4
100
AcDbCircle
 10
35.2542011875
 20
70.4558220812
 30
0.0
 40
0.3
210
0.0
220
0.0
230
1.0
100
AcDbArc
 50
90.0000015352
 51
179.9999969295
  0
ARC
  5
D3
100
AcDbEntity
  8
LAYER1
 62
         4
100
AcDbCircle
 10
35.2542011875
 20
69.5558220812
 30
0.0
 40
0.3
210
0.0
220
0.0
230
1.0
100
AcDbArc
 50
179.9999969295
 51
269.9999984648
  0
ARC
  5
D4
100
AcDbEntity
  8
LAYER1
 62
         4
100
AcDbCircle
 10
35.2542011875
 20
36.9558219322
 30
0.0
 40
0.3
210
0.0
220
0.0
230
1.0
100
AcDbArc
 50
90.0000015352
 51
179.9999969295
  0
ARC
  5
D5
100
AcDbEntity
  8
LAYER1
 62
         4
100
AcDbCircle
 10
36.9542011875
 20
43.0235889597
 30
0.0
 40
2.0
210
0.0
220
0.0
230
1.0
100
AcDbArc
 50
179.9999969295
 51
224.9999976971
  0
ARC
  5
D6
100
AcDbEntity
  8
LAYER1
 62
         4
100
AcDbCircle
 10
36.9542011875
 20
63.4880550537
 30
0.0
 40
2.0
210
0.0
220
0.0
230
1.0
100
AcDbArc
 50
135.0000023029
 51
179.9999969295
  0
ARC
  5
D7
100
AcDbEntity
  8
LAYER1
 62
         4
100
AcDbCircle
 10
38.686434309
 20
37.7558219322
 30
0.0
 40
0.5
210
-0.0
220
0.0
230
1.0
100
AcDbArc
 50
269.9999984648
 51
45.0000007676
  0
ARC
  5
D8
100
AcDbEntity
  8
LAYER1
 62
         4
100
AcDbCircle
 10
38.686434309
 20
68.7558220812
 30
0.0
 40
0.5
210
-0.0
220
-0.0
230
1.0
100
AcDbArc
 50
314.9999992324
 51
90.0000015352
  0
ARC
  5
D9
100
AcDbEntity
  8
LAYER1
 62
         4
100
AcDbCircle
 10
37.6542011279
 20
53.2558220067
 30
0.0
 40
2.5
210
0.0
220
0.0
230
1.0
100
AcDbArc
 50
151.6423660104
 51
208.3576339896
  0
ENDBLK
  5
DA
100
AcDbEntity
  8
0
100
AcDbBlockEnd
  0
BLOCK
  5
DE
100
AcDbEntity
  8
0
100
AcDbBlockBegin
  2
CLUMP10
 70
         0
 10
0.0
 20
0.0
 30
0.0
  3

  1

  0
INSERT
  5
E0
100
AcDbEntity
  8
0
100
AcDbBlockReference
  2
CLUMP11
 10
0.0
 20
0.0
 30
0.0
  0
ENDBLK
  5
103
100
AcDbEntity
  8
0
100
AcDbBlockEnd
  0
BLOCK
  5
E1
100
AcDbEntity
  8
0
100
AcDbBlockBegin
  2
CLUMP11
 70
         0
 10
0.0
 20
0.0
 30
0.0
  3

  1

  0
LINE
  5
E2
100
AcDbEntity
  8
LAYER0
 62
         5
100
AcDbLine
 10
43.9542013961
 20
44.8558223941
 30
0.0
 11
45.7542013961
 21
44.8558223941
 31
0.0
  0
LINE
  5
E3
100
AcDbEntity
  8
LAYER0
 62
         5
100
AcDbLine
 10
47.6542013961
 20
44.8558223941
 30
0.0
 11
49.4542013961
 21
44.8558223941
 31
0.0
  0
ARC
  5
E4
100
AcDbEntity
  8
LAYER0
 62
         5
100
AcDbCircle
 10
43.9542013961
 20
45.3558223941
 30
0.0
 40
0.5
210
0.0
220
0.0
230
1.0
100
AcDbArc
 50
180.0000030705
 51
269.9999984648
  0
ARC
  5
E5
100
AcDbEntity
  8
LAYER0
 62
         5
100
AcDbCircle
 10
49.4542013961
 20
45.3558223941
 30
0.0
 40
0.5
210
0.0
220
0.0
230
1.0
100
AcDbArc
 50
269.9999984648
 51
360.0
  0
LINE
  5
E6
100
AcDbEntity
  8
LAYER0
 62
         5
100
AcDbLine
 10
46.2542013961
 20
42.0558223941
 30
0.0
 11
47.1542013961
 21
42.0558223941
 31
0.0
  0
ARC
  5
E7
100
AcDbEntity
  8
LAYER0
 62
         5
100
AcDbCircle
 10
46.2542013961
 20
42.3558223941
 30
0.0
 40
0.3
210
0.0
220
0.0
230
1.0
100
AcDbArc
 50
180.0000030705
 51
269.9999984648
  0
ARC
  5
E8
100
AcDbEntity
  8
LAYER0
 62
         5
100
AcDbCircle
 10
47.1542013961
 20
42.3558223941
 30
0.0
 40
0.3
210
-0.0
220
0.0
230
1.0
100
AcDbArc
 50
269.9999984648
 51
0.0
  0
ARC
  5
E9
100
AcDbEntity
  8
LAYER0
 62
         5
100
AcDbCircle
 10
45.7542013961
 20
44.6558223941
 30
0.0
 40
0.2
210
0.0
220
-0.0
230
1.0
100
AcDbArc
 50
0.0
 51
90.0000015352
  0
ARC
  5
EA
100
AcDbEntity
  8
LAYER0
 62
         5
100
AcDbCircle
 10
47.6542013961
 20
44.6558223941
 30
0.0
 40
0.2
210
0.0
220
0.0
230
1.0
100
AcDbArc
 50
90.0000015352
 51
180.0000030705
  0
LINE
  5
EB
100
AcDbEntity
  8
LAYER0
 62
         5
100
AcDbLine
 10
45.9542013961
 20
61.8558216193
 30
0.0
 11
45.9542013961
 21
64.1558216193
 31
0.0
  0
LINE
  5
EC
100
AcDbEntity
  8
LAYER0
 62
         5
100
AcDbLine
 10
47.4542013961
 20
64.1558216193
 30
0.0
 11
47.4542013961
 21
61.8558216193
 31
0.0
  0
LINE
  5
ED
100
AcDbEntity
  8
LAYER0
 62
         5
100
AcDbLine
 10
46.2542013961
 20
64.4558216193
 30
0.0
 11
47.1542013961
 21
64.4558216193
 31
0.0
  0
ARC
  5
EE
100
AcDbEntity
  8
LAYER0
 62
         5
100
AcDbCircle
 10
46.2542013961
 20
64.1558216193
 30
0.0
 40
0.3
210
0.0
220
0.0
230
1.0
100
AcDbArc
 50
90.0000015352
 51
180.0000030705
  0
ARC
  5
EF
100
AcDbEntity
  8
LAYER0
 62
         5
100
AcDbCircle
 10
47.1542013961
 20
64.1558216193
 30
0.0
 40
0.3
210
0.0
220
-0.0
230
1.0
100
AcDbArc
 50
0.0
 51
90.0000015352
  0
LINE
  5
F0
100
AcDbEntity
  8
LAYER0
 62
         5
100
AcDbLine
 10
43.4542013961
 20
53.7558220067
 30
0.0
 11
43.4542013961
 21
61.1558216193
 31
0.0
  0
LINE
  5
F1
100
AcDbEntity
  8
LAYER0
 62
         5
100
AcDbLine
 10
49.9542013961
 20
57.5558220067
 30
0.0
 11
49.9542013961
 21
53.7558220067
 31
0.0
  0
LINE
  5
F2
100
AcDbEntity
  8
LAYER0
 62
         5
100
AcDbLine
 10
49.9542013961
 20
61.1558216193
 30
0.0
 11
49.9542013961
 21
57.9558220067
 31
0.0
  0
ARC
  5
F3
100
AcDbEntity
  8
LAYER0
 62
         5
100
AcDbCircle
 10
49.9542013961
 20
57.7558220067
 30
0.0
 40
0.2
210
0.0
220
0.0
230
1.0
100
AcDbArc
 50
90.0000015352
 51
269.9999984648
  0
LINE
  5
F4
100
AcDbEntity
  8
LAYER0
 62
         5
100
AcDbLine
 10
43.9542013961
 20
61.6558216193
 30
0.0
 11
45.7542013961
 21
61.6558216193
 31
0.0
  0
LINE
  5
F5
100
AcDbEntity
  8
LAYER0
 62
         5
100
AcDbLine
 10
47.6542013961
 20
61.6558216193
 30
0.0
 11
49.4542013961
 21
61.6558216193
 31
0.0
  0
ARC
  5
F6
100
AcDbEntity
  8
LAYER0
 62
         5
100
AcDbCircle
 10
43.4542013961
 20
53.2558220067
 30
0.0
 40
0.5
210
0.0
220
0.0
230
1.0
100
AcDbArc
 50
269.9999984648
 51
90.0000015352
  0
ARC
  5
F7
100
AcDbEntity
  8
LAYER0
 62
         5
100
AcDbCircle
 10
49.9542013961
 20
53.2558220067
 30
0.0
 40
0.5
210
0.0
220
0.0
230
1.0
100
AcDbArc
 50
90.0000015352
 51
269.9999984648
  0
ARC
  5
F8
100
AcDbEntity
  8
LAYER0
 62
         5
100
AcDbCircle
 10
43.9542013961
 20
61.1558216193
 30
0.0
 40
0.5
210
0.0
220
0.0
230
1.0
100
AcDbArc
 50
90.0000015352
 51
180.0000030705
  0
ARC
  5
F9
100
AcDbEntity
  8
LAYER0
 62
         5
100
AcDbCircle
 10
49.4542013961
 20
61.1558216193
 30
0.0
 40
0.5
210
-0.0
220
-0.0
230
1.0
100
AcDbArc
 50
360.0
 51
90.0000015352
  0
ARC
  5
FA
100
AcDbEntity
  8
LAYER0
 62
         5
100
AcDbCircle
 10
45.7542013961
 20
61.8558216193
 30
0.0
 40
0.2
210
-0.0
220
0.0
230
1.0
100
AcDbArc
 50
269.9999984648
 51
0.0
  0
ARC
  5
FB
100
AcDbEntity
  8
LAYER0
 62
         5
100
AcDbCircle
 10
47.6542013961
 20
61.8558216193
 30
0.0
 40
0.2
210
0.0
220
0.0
230
1.0
100
AcDbArc
 50
180.0000030705
 51
269.9999984648
  0
LINE
  5
FC
100
AcDbEntity
  8
LAYER0
 62
         5
100
AcDbLine
 10
43.4542013961
 20
52.7558220067
 30
0.0
 11
43.4542013961
 21
45.3558223941
 31
0.0
  0
LINE
  5
FD
100
AcDbEntity
  8
LAYER0
 62
         5
100
AcDbLine
 10
49.9542013961
 20
48.9558220067
 30
0.0
 11
49.9542013961
 21
52.7558220067
 31
0.0
  0
LINE
  5
FE
100
AcDbEntity
  8
LAYER0
 62
         5
100
AcDbLine
 10
49.9542013961
 20
45.3558223941
 30
0.0
 11
49.9542013961
 21
48.5558220067
 31
0.0
  0
ARC
  5
FF
100
AcDbEntity
  8
LAYER0
 62
         5
100
AcDbCircle
 10
49.9542013961
 20
48.7558220067
 30
0.0
 40
0.2
210
0.0
220
0.0
230
1.0
100
AcDbArc
 50
90.0000015352
 51
269.9999984648
  0
LINE
  5
100
100
AcDbEntity
  8
LAYER0
 62
         5
100
AcDbLine
 10
45.9542013961
 20
44.6558223941
 30
0.0
 11
45.9542013961
 21
42.3558223941
 31
0.0
  0
LINE
  5
101
100
AcDbEntity
  8
LAYER0
 62
         5
100
AcDbLine
 10
47.4542013961
 20
42.3558223941
 30
0.0
 11
47.4542013961
 21
44.6558223941
 31
0.0
  0
ENDBLK
  5
102
100
AcDbEntity
  8
0
100
AcDbBlockEnd
  0
BLOCK
  5
106
100
AcDbEntity
  8
0
100
AcDbBlockBegin
  2
CLUMP12
 70
         0
 10
0.0
 20
0.0
 30
0.0
  3

  1

  0
INSERT
  5
108
100
AcDbEntity
  8
0
100
AcDbBlockReference
  2
CLUMP13
 10
0.0
 20
0.0
 30
0.0
  0
ENDBLK
  5
12B
100
AcDbEntity
  8
0
100
AcDbBlockEnd
  0
BLOCK
  5
109
100
AcDbEntity
  8
0
100
AcDbBlockBegin
  2
CLUMP13
 70
         0
 10
0.0
 20
0.0
 30
0.0
  3

  1

  0
LINE
  5
10A
100
AcDbEntity
  8
LAYER0
 62
         5
100
AcDbLine
 10
37.4542013961
 20
44.8558223941
 30
0.0
 11
39.2542013961
 21
44.8558223941
 31
0.0
  0
LINE
  5
10B
100
AcDbEntity
  8
LAYER0
 62
         5
100
AcDbLine
 10
41.1542013961
 20
44.8558223941
 30
0.0
 11
42.9542013961
 21
44.8558223941
 31
0.0
  0
ARC
  5
10C
100
AcDbEntity
  8
LAYER0
 62
         5
100
AcDbCircle
 10
37.4542013961
 20
45.3558223941
 30
0.0
 40
0.5
210
0.0
220
0.0
230
1.0
100
AcDbArc
 50
180.0000030705
 51
269.9999984648
  0
ARC
  5
10D
100
AcDbEntity
  8
LAYER0
 62
         5
100
AcDbCircle
 10
42.9542013961
 20
45.3558223941
 30
0.0
 40
0.5
210
0.0
220
0.0
230
1.0
100
AcDbArc
 50
269.9999984648
 51
360.0
  0
LINE
  5
10E
100
AcDbEntity
  8
LAYER0
 62
         5
100
AcDbLine
 10
39.7542013961
 20
42.0558223941
 30
0.0
 11
40.6542013961
 21
42.0558223941
 31
0.0
  0
ARC
  5
10F
100
AcDbEntity
  8
LAYER0
 62
         5
100
AcDbCircle
 10
39.7542013961
 20
42.3558223941
 30
0.0
 40
0.3
210
0.0
220
0.0
230
1.0
100
AcDbArc
 50
180.0000030705
 51
269.9999984648
  0
ARC
  5
110
100
AcDbEntity
  8
LAYER0
 62
         5
100
AcDbCircle
 10
40.6542013961
 20
42.3558223941
 30
0.0
 40
0.3
210
-0.0
220
0.0
230
1.0
100
AcDbArc
 50
269.9999984648
 51
0.0
  0
ARC
  5
111
100
AcDbEntity
  8
LAYER0
 62
         5
100
AcDbCircle
 10
39.2542013961
 20
44.6558223941
 30
0.0
 40
0.2
210
0.0
220
-0.0
230
1.0
100
AcDbArc
 50
0.0
 51
90.0000015352
  0
ARC
  5
112
100
AcDbEntity
  8
LAYER0
 62
         5
100
AcDbCircle
 10
41.1542013961
 20
44.6558223941
 30
0.0
 40
0.2
210
0.0
220
0.0
230
1.0
100
AcDbArc
 50
90.0000015352
 51
180.0000030705
  0
LINE
  5
113
100
AcDbEntity
  8
LAYER0
 62
         5
100
AcDbLine
 10
39.4542013961
 20
61.8558216193
 30
0.0
 11
39.4542013961
 21
64.1558216193
 31
0.0
  0
LINE
  5
114
100
AcDbEntity
  8
LAYER0
 62
         5
100
AcDbLine
 10
40.9542013961
 20
64.1558216193
 30
0.0
 11
40.9542013961
 21
61.8558216193
 31
0.0
  0
LINE
  5
115
100
AcDbEntity
  8
LAYER0
 62
         5
100
AcDbLine
 10
39.7542013961
 20
64.4558216193
 30
0.0
 11
40.6542013961
 21
64.4558216193
 31
0.0
  0
ARC
  5
116
100
AcDbEntity
  8
LAYER0
 62
         5
100
AcDbCircle
 10
39.7542013961
 20
64.1558216193
 30
0.0
 40
0.3
210
0.0
220
0.0
230
1.0
100
AcDbArc
 50
90.0000015352
 51
180.0000030705
  0
ARC
  5
117
100
AcDbEntity
  8
LAYER0
 62
         5
100
AcDbCircle
 10
40.6542013961
 20
64.1558216193
 30
0.0
 40
0.3
210
0.0
220
-0.0
230
1.0
100
AcDbArc
 50
0.0
 51
90.0000015352
  0
LINE
  5
118
100
AcDbEntity
  8
LAYER0
 62
         5
100
AcDbLine
 10
36.9542013961
 20
53.7558220067
 30
0.0
 11
36.9542013961
 21
61.1558216193
 31
0.0
  0
LINE
  5
119
100
AcDbEntity
  8
LAYER0
 62
         5
100
AcDbLine
 10
43.4542013961
 20
57.5558220067
 30
0.0
 11
43.4542013961
 21
53.7558220067
 31
0.0
  0
LINE
  5
11A
100
AcDbEntity
  8
LAYER0
 62
         5
100
AcDbLine
 10
43.4542013961
 20
61.1558216193
 30
0.0
 11
43.4542013961
 21
57.9558220067
 31
0.0
  0
ARC
  5
11B
100
AcDbEntity
  8
LAYER0
 62
         5
100
AcDbCircle
 10
43.4542013961
 20
57.7558220067
 30
0.0
 40
0.2
210
0.0
220
0.0
230
1.0
100
AcDbArc
 50
90.0000015352
 51
269.9999984648
  0
LINE
  5
11C
100
AcDbEntity
  8
LAYER0
 62
         5
100
AcDbLine
 10
37.4542013961
 20
61.6558216193
 30
0.0
 11
39.2542013961
 21
61.6558216193
 31
0.0
  0
LINE
  5
11D
100
AcDbEntity
  8
LAYER0
 62
         5
100
AcDbLine
 10
41.1542013961
 20
61.6558216193
 30
0.0
 11
42.9542013961
 21
61.6558216193
 31
0.0
  0
ARC
  5
11E
100
AcDbEntity
  8
LAYER0
 62
         5
100
AcDbCircle
 10
36.9542013961
 20
53.2558220067
 30
0.0
 40
0.5
210
0.0
220
0.0
230
1.0
100
AcDbArc
 50
269.9999984648
 51
90.0000015352
  0
ARC
  5
11F
100
AcDbEntity
  8
LAYER0
 62
         5
100
AcDbCircle
 10
43.4542013961
 20
53.2558220067
 30
0.0
 40
0.5
210
0.0
220
0.0
230
1.0
100
AcDbArc
 50
90.0000015352
 51
269.9999984648
  0
ARC
  5
120
100
AcDbEntity
  8
LAYER0
 62
         5
100
AcDbCircle
 10
37.4542013961
 20
61.1558216193
 30
0.0
 40
0.5
210
0.0
220
0.0
230
1.0
100
AcDbArc
 50
90.0000015352
 51
180.0000030705
  0
ARC
  5
121
100
AcDbEntity
  8
LAYER0
 62
         5
100
AcDbCircle
 10
42.9542013961
 20
61.1558216193
 30
0.0
 40
0.5
210
-0.0
220
-0.0
230
1.0
100
AcDbArc
 50
360.0
 51
90.0000015352
  0
ARC
  5
122
100
AcDbEntity
  8
LAYER0
 62
         5
100
AcDbCircle
 10
39.2542013961
 20
61.8558216193
 30
0.0
 40
0.2
210
-0.0
220
0.0
230
1.0
100
AcDbArc
 50
269.9999984648
 51
0.0
  0
ARC
  5
123
100
AcDbEntity
  8
LAYER0
 62
         5
100
AcDbCircle
 10
41.1542013961
 20
61.8558216193
 30
0.0
 40
0.2
210
0.0
220
0.0
230
1.0
100
AcDbArc
 50
180.0000030705
 51
269.9999984648
  0
LINE
  5
124
100
AcDbEntity
  8
LAYER0
 62
         5
100
AcDbLine
 10
36.9542013961
 20
52.7558220067
 30
0.0
 11
36.9542013961
 21
45.3558223941
 31
0.0
  0
LINE
  5
125
100
AcDbEntity
  8
LAYER0
 62
         5
100
AcDbLine
 10
43.4542013961
 20
48.9558220067
 30
0.0
 11
43.4542013961
 21
52.7558220067
 31
0.0
  0
LINE
  5
126
100
AcDbEntity
  8
LAYER0
 62
         5
100
AcDbLine
 10
43.4542013961
 20
45.3558223941
 30
0.0
 11
43.4542013961
 21
48.5558220067
 31
0.0
  0
ARC
  5
127
100
AcDbEntity
  8
LAYER0
 62
         5
100
AcDbCircle
 10
43.4542013961
 20
48.7558220067
 30
0.0
 40
0.2
210
0.0
220
0.0
230
1.0
100
AcDbArc
 50
90.0000015352
 51
269.9999984648
  0
LINE
  5
128
100
AcDbEntity
  8
LAYER0
 62
         5
100
AcDbLine
 10
39.4542013961
 20
44.6558223941
 30
0.0
 11
39.4542013961
 21
42.3558223941
 31
0.0
  0
LINE
  5
129
100
AcDbEntity
  8
LAYER0
 62
         5
100
AcDbLine
 10
40.9542013961
 20
42.3558223941
 30
0.0
 11
40.9542013961
 21
44.6558223941
 31
0.0
  0
ENDBLK
  5
12A
100
AcDbEntity
  8
0
100
AcDbBlockEnd
  0
BLOCK
  5
12E
100
AcDbEntity
  8
0
100
AcDbBlockBegin
  2
CLUMP14
 70
         0
 10
0.0
 20
0.0
 30
0.0
  3

  1

  0
INSERT
  5
130
100
AcDbEntity
  8
0
100
AcDbBlockReference
  2
CLUMP15
 10
0.0
 20
0.0
 30
0.0
  0
ENDBLK
  5
1AC
100
AcDbEntity
  8
0
100
AcDbBlockEnd
  0
BLOCK
  5
131
100
AcDbEntity
  8
0
100
AcDbBlockBegin
  2
CLUMP15
 70
         0
 10
0.0
 20
0.0
 30
0.0
  3

  1

  0
LINE
  5
132
100
AcDbEntity
  8
LAYER0
 62
         4
100
AcDbLine
 10
49.8684149584
 20
64.2809482129
 30
0.0
 11
47.3198866869
 21
66.8294764845
 31
0.0
  0
LINE
  5
133
100
AcDbEntity
  8
LAYER0
 62
         4
100
AcDbLine
 10
52.9542017239
 20
37.2558219322
 30
0.0
 11
48.9462322836
 21
37.2558219322
 31
0.0
  0
LINE
  5
134
100
AcDbEntity
  8
LAYER0
 62
         4
100
AcDbLine
 10
50.9290751302
 20
41.1700356287
 30
0.0
 11
48.3805468587
 21
38.6215073571
 31
0.0
  0
LINE
  5
135
100
AcDbEntity
  8
LAYER0
 62
         4
100
AcDbLine
 10
45.954201262
 20
44.2558223941
 30
0.0
 11
45.954201262
 21
40.2478529539
 31
0.0
  0
LINE
  5
136
100
AcDbEntity
  8
LAYER0
 62
         4
100
AcDbLine
 10
49.8684149584
 20
42.2306958004
 30
0.0
 11
47.3198866869
 21
39.6821675289
 31
0.0
  0
LINE
  5
137
100
AcDbEntity
  8
LAYER0
 62
         4
100
AcDbLine
 10
61.3542013365
 20
41.7558220663
 30
0.0
 11
52.3432886926
 21
41.7558220663
 31
0.0
  0
LINE
  5
138
100
AcDbEntity
  8
LAYER0
 62
         4
100
AcDbLine
 10
52.9542017239
 20
37.2558219322
 30
0.0
 11
52.9542017239
 21
36.2558210828
 31
0.0
  0
ARC
  5
139
100
AcDbEntity
  8
LAYER0
 62
         4
100
AcDbCircle
 10
52.4542013365
 20
36.2558220067
 30
0.0
 40
0.5
210
0.0
220
0.0
230
1.0
100
AcDbArc
 50
269.9999984648
 51
359.9999969295
  0
LINE
  5
13A
100
AcDbEntity
  8
LAYER0
 62
         4
100
AcDbLine
 10
52.4542016419
 20
35.7558219322
 30
0.0
 11
47.954201262
 21
35.7558219322
 31
0.0
  0
LINE
  5
13B
100
AcDbEntity
  8
LAYER0
 62
         4
100
AcDbLine
 10
52.3432886926
 20
64.7558219471
 30
0.0
 11
61.3542013365
 21
64.7558219471
 31
0.0
  0
LINE
  5
13C
100
AcDbEntity
  8
LAYER0
 62
         4
100
AcDbLine
 10
44.454201262
 20
39.2558219322
 30
0.0
 11
44.454201262
 21
43.7558223121
 31
0.0
  0
ARC
  5
13D
100
AcDbEntity
  8
LAYER0
 62
         4
100
AcDbCircle
 10
44.9542013365
 20
43.7558220067
 30
0.0
 40
0.5
210
0.0
220
0.0
230
1.0
100
AcDbArc
 50
90.0000015352
 51
180.0
  0
LINE
  5
13E
100
AcDbEntity
  8
LAYER0
 62
         4
100
AcDbLine
 10
44.9542004126
 20
44.2558223941
 30
0.0
 11
45.954201262
 21
44.2558223941
 31
0.0
  0
LINE
  5
13F
100
AcDbEntity
  8
LAYER0
 62
         4
100
AcDbLine
 10
50.4542013961
 20
43.6449093628
 30
0.0
 11
50.4542013961
 21
52.6558220067
 31
0.0
  0
LINE
  5
140
100
AcDbEntity
  8
LAYER0
 62
         4
100
AcDbLine
 10
50.4542013961
 20
52.6558220067
 30
0.0
 11
50.954201478
 21
53.2558220067
 31
0.0
  0
LINE
  5
141
100
AcDbEntity
  8
LAYER0
 62
         4
100
AcDbLine
 10
50.954201478
 20
53.2558220067
 30
0.0
 11
50.4542013961
 21
53.8558220067
 31
0.0
  0
LINE
  5
142
100
AcDbEntity
  8
LAYER0
 62
         4
100
AcDbLine
 10
52.9542017239
 20
69.2558220812
 30
0.0
 11
52.9542017239
 21
70.2558229306
 31
0.0
  0
ARC
  5
143
100
AcDbEntity
  8
LAYER0
 62
         4
100
AcDbCircle
 10
52.4542013365
 20
70.2558220067
 30
0.0
 40
0.5
210
-0.0
220
-0.0
230
1.0
100
AcDbArc
 50
359.9999969295
 51
90.0000015352
  0
LINE
  5
144
100
AcDbEntity
  8
LAYER0
 62
         4
100
AcDbLine
 10
52.4542016419
 20
70.7558220812
 30
0.0
 11
47.954201262
 21
70.7558220812
 31
0.0
  0
LINE
  5
145
100
AcDbEntity
  8
LAYER0
 62
         4
100
AcDbLine
 10
44.454201262
 20
67.2558220812
 30
0.0
 11
44.454201262
 21
62.7558217012
 31
0.0
  0
ARC
  5
146
100
AcDbEntity
  8
LAYER0
 62
         4
100
AcDbCircle
 10
44.9542013365
 20
62.7558220067
 30
0.0
 40
0.5
210
0.0
220
0.0
230
1.0
100
AcDbArc
 50
180.0
 51
269.9999984648
  0
LINE
  5
147
100
AcDbEntity
  8
LAYER0
 62
         4
100
AcDbLine
 10
61.9542013365
 20
42.2558221482
 30
0.0
 11
61.3542013365
 21
41.7558220663
 31
0.0
  0
LINE
  5
148
100
AcDbEntity
  8
LAYER0
 62
         4
100
AcDbLine
 10
71.5651139803
 20
64.7558219471
 30
0.0
 11
61.9542013365
 21
64.7558219471
 31
0.0
  0
LINE
  5
149
100
AcDbEntity
  8
LAYER0
 62
         4
100
AcDbLine
 10
71.9186673709
 20
41.7558220663
 30
0.0
 11
62.5542013365
 21
41.7558220663
 31
0.0
  0
LINE
  5
14A
100
AcDbEntity
  8
LAYER0
 62
         4
100
AcDbLine
 10
50.4542013961
 20
62.8667346506
 30
0.0
 11
50.4542013961
 21
53.8558220067
 31
0.0
  0
ARC
  5
14B
100
AcDbEntity
  8
LAYER0
 62
         4
100
AcDbCircle
 10
52.3432886926
 20
39.7558220663
 30
0.0
 40
2.0
210
0.0
220
0.0
230
1.0
100
AcDbArc
 50
90.0000015352
 51
135.0000038381
  0
ARC
  5
14C
100
AcDbEntity
  8
LAYER0
 62
         4
100
AcDbCircle
 10
48.4542013961
 20
43.6449093628
 30
0.0
 40
2.0
210
0.0
220
0.0
230
1.0
100
AcDbArc
 50
314.9999946267
 51
359.9999969295
  0
ARC
  5
14D
100
AcDbEntity
  8
LAYER0
 62
         4
100
AcDbCircle
 10
48.4542013961
 20
62.8667346506
 30
0.0
 40
2.0
210
-0.0
220
0.0
230
1.0
100
AcDbArc
 50
359.9999969295
 51
44.9999992324
  0
ARC
  5
14E
100
AcDbEntity
  8
LAYER0
 62
         4
100
AcDbCircle
 10
52.3432886926
 20
66.7558219471
 30
0.0
 40
2.0
210
0.0
220
0.0
230
1.0
100
AcDbArc
 50
225.0000023029
 51
269.9999984648
  0
ARC
  5
14F
100
AcDbEntity
  8
LAYER0
 62
         4
100
AcDbCircle
 10
48.9462322836
 20
68.4558220812
 30
0.0
 40
0.8
210
0.0
220
0.0
230
1.0
100
AcDbArc
 50
90.0000015352
 51
225.0000023029
  0
ARC
  5
150
100
AcDbEntity
  8
LAYER0
 62
         4
100
AcDbCircle
 10
46.754201262
 20
66.2637910595
 30
0.0
 40
0.8
210
0.0
220
-0.0
230
1.0
100
AcDbArc
 50
44.9999992324
 51
180.0
  0
ARC
  5
151
100
AcDbEntity
  8
LAYER0
 62
         4
100
AcDbCircle
 10
48.9462322836
 20
38.0558219322
 30
0.0
 40
0.8
210
0.0
220
0.0
230
1.0
100
AcDbArc
 50
135.0000038381
 51
269.9999984648
  0
ARC
  5
152
100
AcDbEntity
  8
LAYER0
 62
         4
100
AcDbCircle
 10
46.754201262
 20
40.2478529539
 30
0.0
 40
0.8
210
0.0
220
0.0
230
1.0
100
AcDbArc
 50
180.0
 51
314.9999946267
  0
LINE
  5
153
100
AcDbEntity
  8
LAYER0
 62
         4
100
AcDbLine
 10
74.9621703893
 20
69.2558220812
 30
0.0
 11
70.9542009491
 21
69.2558220812
 31
0.0
  0
LINE
  5
154
100
AcDbEntity
  8
LAYER0
 62
         4
100
AcDbLine
 10
74.9621703893
 20
37.2558219322
 30
0.0
 11
70.9542009491
 21
37.2558219322
 31
0.0
  0
LINE
  5
155
100
AcDbEntity
  8
LAYER0
 62
         4
100
AcDbLine
 10
70.9542009491
 20
37.2558219322
 30
0.0
 11
70.9542009491
 21
36.2558210828
 31
0.0
  0
ARC
  5
156
100
AcDbEntity
  8
LAYER0
 62
         4
100
AcDbCircle
 10
71.4542013365
 20
36.2558220067
 30
0.0
 40
0.5
210
0.0
220
0.0
230
1.0
100
AcDbArc
 50
180.0
 51
269.9999984648
  0
LINE
  5
157
100
AcDbEntity
  8
LAYER0
 62
         4
100
AcDbLine
 10
71.454201031
 20
35.7558219322
 30
0.0
 11
80.454201411
 21
35.7558219322
 31
0.0
  0
LINE
  5
158
100
AcDbEntity
  8
LAYER0
 62
         4
100
AcDbLine
 10
70.9542009491
 20
69.2558220812
 30
0.0
 11
70.9542009491
 21
70.2558229306
 31
0.0
  0
ARC
  5
159
100
AcDbEntity
  8
LAYER0
 62
         4
100
AcDbCircle
 10
71.4542013365
 20
70.2558220067
 30
0.0
 40
0.5
210
0.0
220
0.0
230
1.0
100
AcDbArc
 50
90.0000015352
 51
180.0
  0
LINE
  5
15A
100
AcDbEntity
  8
LAYER0
 62
         4
100
AcDbLine
 10
71.454201031
 20
70.7558220812
 30
0.0
 11
74.9542013365
 21
70.7558220812
 31
0.0
  0
LINE
  5
15B
100
AcDbEntity
  8
LAYER0
 62
         4
100
AcDbLine
 10
92.454201411
 20
47.7558219322
 30
0.0
 11
92.454201411
 21
51.7558220067
 31
0.0
  0
POINT
  5
15C
100
AcDbEntity
  8
LAYER0
 62
         2
100
AcDbPoint
 10
61.9542013365
 20
53.2558220067
 30
0.0
  0
LINE
  5
15D
100
AcDbEntity
  8
LAYER0
 62
         4
100
AcDbLine
 10
52.9542017239
 20
69.2558220812
 30
0.0
 11
48.9462322836
 21
69.2558220812
 31
0.0
  0
LINE
  5
15E
100
AcDbEntity
  8
LAYER0
 62
         4
100
AcDbLine
 10
45.954201262
 20
62.2558216193
 30
0.0
 11
45.954201262
 21
66.2637910595
 31
0.0
  0
LINE
  5
15F
100
AcDbEntity
  8
LAYER0
 62
         4
100
AcDbLine
 10
50.9290751302
 20
65.3416083847
 30
0.0
 11
48.3805468587
 21
67.8901366562
 31
0.0
  0
LINE
  5
160
100
AcDbEntity
  8
LAYER0
 62
         4
100
AcDbLine
 10
91.954201411
 20
52.2558220067
 30
0.0
 11
83.554201411
 21
52.2558220067
 31
0.0
  0
LINE
  5
161
100
AcDbEntity
  8
LAYER0
 62
         4
100
AcDbLine
 10
82.354201411
 20
52.2558220067
 30
0.0
 11
73.754201113
 21
52.2558220067
 31
0.0
  0
LINE
  5
162
100
AcDbEntity
  8
LAYER0
 62
         4
100
AcDbLine
 10
73.454201113
 20
63.280948049
 30
0.0
 11
73.454201113
 21
52.5558220067
 31
0.0
  0
ARC
  5
163
100
AcDbEntity
  8
LAYER0
 62
         4
100
AcDbCircle
 10
74.9621703893
 20
68.4558220812
 30
0.0
 40
0.8
210
-0.0
220
-0.0
230
1.0
100
AcDbArc
 50
314.9999946267
 51
90.0000015352
  0
LINE
  5
164
100
AcDbEntity
  8
LAYER0
 62
         4
100
AcDbLine
 10
72.9793275427
 20
65.3416083847
 30
0.0
 11
75.5278558142
 21
67.8901366562
 31
0.0
  0
LINE
  5
165
100
AcDbEntity
  8
LAYER0
 62
         4
100
AcDbLine
 10
71.454201113
 20
42.7558220663
 30
0.0
 11
66.4542013365
 21
42.7558220663
 31
0.0
  0
LINE
  5
166
100
AcDbEntity
  8
LAYER0
 62
         4
100
AcDbLine
 10
73.454201113
 20
50.9558220067
 30
0.0
 11
73.454201113
 21
42.5235891832
 31
0.0
  0
LINE
  5
167
100
AcDbEntity
  8
LAYER0
 62
         4
100
AcDbLine
 10
78.954201411
 20
51.2558220067
 30
0.0
 11
73.754201113
 21
51.2558220067
 31
0.0
  0
LINE
  5
168
100
AcDbEntity
  8
LAYER0
 62
         4
100
AcDbLine
 10
80.454201411
 20
36.7558219322
 30
0.0
 11
77.2542013365
 21
36.7558219322
 31
0.0
  0
LINE
  5
169
100
AcDbEntity
  8
LAYER0
 62
         4
100
AcDbLine
 10
90.954201411
 20
51.2558220067
 30
0.0
 11
86.954201411
 21
51.2558220067
 31
0.0
  0
LINE
  5
16A
100
AcDbEntity
  8
LAYER0
 62
         4
100
AcDbLine
 10
91.454201411
 20
47.7558219322
 30
0.0
 11
91.454201411
 21
50.7558220067
 31
0.0
  0
LINE
  5
16B
100
AcDbEntity
  8
LAYER0
 62
         4
100
AcDbLine
 10
71.454201113
 20
63.7558219471
 30
0.0
 11
66.4542013365
 21
63.7558219471
 31
0.0
  0
LINE
  5
16C
100
AcDbEntity
  8
LAYER0
 62
         4
100
AcDbLine
 10
52.4542013961
 20
42.7558220663
 30
0.0
 11
57.4542013365
 21
42.7558220663
 31
0.0
  0
LINE
  5
16D
100
AcDbEntity
  8
LAYER0
 62
         4
100
AcDbLine
 10
52.4542013961
 20
63.7558219471
 30
0.0
 11
57.4542013365
 21
63.7558219471
 31
0.0
  0
LINE
  5
16E
100
AcDbEntity
  8
LAYER0
 62
         4
100
AcDbLine
 10
51.4542013961
 20
62.7558219471
 30
0.0
 11
51.4542013961
 21
57.7558220067
 31
0.0
  0
LINE
  5
16F
100
AcDbEntity
  8
LAYER0
 62
         4
100
AcDbLine
 10
51.4542013961
 20
48.7558220067
 30
0.0
 11
51.4542013961
 21
43.7558220663
 31
0.0
  0
ARC
  5
170
100
AcDbEntity
  8
LAYER0
 62
         4
100
AcDbCircle
 10
52.4542013961
 20
62.7558219471
 30
0.0
 40
1.0
210
0.0
220
0.0
230
1.0
100
AcDbArc
 50
90.0000015352
 51
179.9999984648
  0
ARC
  5
171
100
AcDbEntity
  8
LAYER0
 62
         4
100
AcDbCircle
 10
52.4542013961
 20
43.7558220663
 30
0.0
 40
1.0
210
0.0
220
0.0
230
1.0
100
AcDbArc
 50
179.9999984648
 51
269.9999953943
  0
LINE
  5
172
100
AcDbEntity
  8
LAYER0
 62
         4
100
AcDbLine
 10
72.6864343239
 20
41.4629288475
 30
0.0
 11
75.5278558142
 21
38.6215073571
 31
0.0
  0
ARC
  5
173
100
AcDbEntity
  8
LAYER0
 62
         4
100
AcDbCircle
 10
71.9793275427
 20
40.7558220663
 30
0.0
 40
1.0
210
0.0
220
-0.0
230
1.0
100
AcDbArc
 50
45.0000023029
 51
90.0000046057
  0
ARC
  5
174
100
AcDbEntity
  8
LAYER0
 62
         4
100
AcDbCircle
 10
74.9621703893
 20
38.0558219322
 30
0.0
 40
0.8
210
-0.0
220
0.0
230
1.0
100
AcDbArc
 50
269.9999953943
 51
45.0000023029
  0
LINE
  5
175
100
AcDbEntity
  8
LAYER0
 62
         4
100
AcDbLine
 10
44.9542004126
 20
62.2558216193
 30
0.0
 11
45.954201262
 21
62.2558216193
 31
0.0
  0
LINE
  5
176
100
AcDbEntity
  8
LAYER0
 62
         4
100
AcDbLine
 10
61.3542013365
 20
64.7558219471
 30
0.0
 11
61.9542013365
 21
64.2558218651
 31
0.0
  0
LINE
  5
177
100
AcDbEntity
  8
LAYER0
 62
         4
100
AcDbLine
 10
61.9542013365
 20
64.2558218651
 30
0.0
 11
62.5542013365
 21
64.7558219471
 31
0.0
  0
LINE
  5
178
100
AcDbEntity
  8
LAYER0
 62
         4
100
AcDbLine
 10
62.5542013365
 20
41.7558220663
 30
0.0
 11
61.9542013365
 21
42.2558221482
 31
0.0
  0
LINE
  5
179
100
AcDbEntity
  8
LAYER0
 62
         4
100
AcDbLine
 10
72.454201113
 20
62.7558219471
 30
0.0
 11
72.454201113
 21
43.7558220663
 31
0.0
  0
ARC
  5
17A
100
AcDbEntity
  8
LAYER0
 62
         4
100
AcDbCircle
 10
74.454201113
 20
42.5235891832
 30
0.0
 40
1.0
210
0.0
220
0.0
230
1.0
100
AcDbArc
 50
179.9999984648
 51
225.0
  0
ARC
  5
17B
100
AcDbEntity
  8
LAYER0
 62
         4
100
AcDbCircle
 10
74.454201113
 20
63.280948049
 30
0.0
 40
1.0
210
0.0
220
0.0
230
1.0
100
AcDbArc
 50
135.0000030705
 51
179.9999984648
  0
ARC
  5
17C
100
AcDbEntity
  8
LAYER0
 62
         4
100
AcDbCircle
 10
80.454201411
 20
47.7558219322
 30
0.0
 40
12.0
210
0.0
220
0.0
230
1.0
100
AcDbArc
 50
269.9999953943
 51
359.9999984648
  0
ARC
  5
17D
100
AcDbEntity
  8
LAYER0
 62
         4
100
AcDbCircle
 10
80.454201411
 20
47.7558219322
 30
0.0
 40
11.0
210
0.0
220
0.0
230
1.0
100
AcDbArc
 50
269.9999953943
 51
359.9999984648
  0
ARC
  5
17E
100
AcDbEntity
  8
LAYER0
 62
         4
100
AcDbCircle
 10
74.9542013365
 20
68.4558220812
 30
0.0
 40
2.3
210
-0.0
220
-0.0
230
1.0
100
AcDbArc
 50
359.9999984648
 51
90.0000015352
  0
LINE
  5
17F
100
AcDbEntity
  8
LAYER0
 62
         4
100
AcDbLine
 10
77.2542013365
 20
68.4558220812
 30
0.0
 11
77.2542013365
 21
68.1164821785
 31
0.0
  0
ARC
  5
180
100
AcDbEntity
  8
LAYER0
 62
         4
100
AcDbCircle
 10
75.7542013365
 20
68.1164821785
 30
0.0
 40
1.5
210
0.0
220
0.0
230
1.0
100
AcDbArc
 50
314.9999969295
 51
359.9999984648
  0
LINE
  5
181
100
AcDbEntity
  8
LAYER0
 62
         4
100
AcDbLine
 10
76.7542013365
 20
37.2558219322
 30
0.0
 11
76.7542013365
 21
38.063790985
 31
0.0
  0
ARC
  5
182
100
AcDbEntity
  8
LAYER0
 62
         4
100
AcDbCircle
 10
74.9542013365
 20
38.063790985
 30
0.0
 40
1.8
210
-0.0
220
0.0
230
1.0
100
AcDbArc
 50
359.9999984648
 51
45.0
  0
ARC
  5
183
100
AcDbEntity
  8
LAYER0
 62
         4
100
AcDbCircle
 10
90.954201411
 20
50.7558220067
 30
0.0
 40
0.5
210
-0.0
220
-0.0
230
1.0
100
AcDbArc
 50
359.9999984648
 51
90.0000015352
  0
ARC
  5
184
100
AcDbEntity
  8
LAYER0
 62
         4
100
AcDbCircle
 10
77.2542013365
 20
37.2558219322
 30
0.0
 40
0.5
210
0.0
220
0.0
230
1.0
100
AcDbArc
 50
179.9999984648
 51
269.9999953943
  0
ARC
  5
185
100
AcDbEntity
  8
LAYER0
 62
         4
100
AcDbCircle
 10
47.954201262
 20
39.2558219322
 30
0.0
 40
3.5
210
0.0
220
0.0
230
1.0
100
AcDbArc
 50
179.9999984648
 51
269.9999953943
  0
ARC
  5
186
100
AcDbEntity
  8
LAYER0
 62
         4
100
AcDbCircle
 10
47.954201262
 20
67.2558220812
 30
0.0
 40
3.5
210
0.0
220
0.0
230
1.0
100
AcDbArc
 50
90.0000015352
 51
179.9999984648
  0
ARC
  5
187
100
AcDbEntity
  8
LAYER0
 62
         4
100
AcDbCircle
 10
73.754201113
 20
52.5558220067
 30
0.0
 40
0.3
210
0.0
220
0.0
230
1.0
100
AcDbArc
 50
179.9999984648
 51
269.9999953943
  0
ARC
  5
188
100
AcDbEntity
  8
LAYER0
 62
         4
100
AcDbCircle
 10
73.754201113
 20
50.9558220067
 30
0.0
 40
0.3
210
0.0
220
0.0
230
1.0
100
AcDbArc
 50
90.0000015352
 51
179.9999984648
  0
LINE
  5
189
100
AcDbEntity
  8
LAYER0
 62
         4
100
AcDbLine
 10
80.980373
 20
50.0558220067
 30
0.0
 11
84.9280298219
 21
50.0558220067
 31
0.0
  0
LINE
  5
18A
100
AcDbEntity
  8
LAYER0
 62
         4
100
AcDbLine
 10
86.954201411
 20
51.2558220067
 30
0.0
 11
85.8650723933
 21
50.3845187925
 31
0.0
  0
LINE
  5
18B
100
AcDbEntity
  8
LAYER0
 62
         4
100
AcDbLine
 10
80.0433304287
 20
50.3845187925
 30
0.0
 11
78.954201411
 21
51.2558220067
 31
0.0
  0
ARC
  5
18C
100
AcDbEntity
  8
LAYER0
 62
         4
100
AcDbCircle
 10
84.9280298219
 20
51.5558220067
 30
0.0
 40
1.5
210
0.0
220
0.0
230
1.0
100
AcDbArc
 50
269.9999953943
 51
308.6598049673
  0
ARC
  5
18D
100
AcDbEntity
  8
LAYER0
 62
         4
100
AcDbCircle
 10
80.980373
 20
51.5558220067
 30
0.0
 40
1.5
210
0.0
220
0.0
230
1.0
100
AcDbArc
 50
231.3401919622
 51
269.9999953943
  0
LINE
  5
18E
100
AcDbEntity
  8
LAYER0
 62
         4
100
AcDbLine
 10
73.7470943318
 20
63.9880548302
 30
0.0
 11
76.8148615082
 21
67.0558220067
 31
0.0
  0
ARC
  5
18F
100
AcDbEntity
  8
LAYER0
 62
         4
100
AcDbCircle
 10
91.954201411
 20
51.7558220067
 30
0.0
 40
0.5
210
-0.0
220
-0.0
230
1.0
100
AcDbArc
 50
359.9999969295
 51
90.0000015352
  0
LINE
  5
190
100
AcDbEntity
  8
LAYER0
 62
         4
100
AcDbLine
 10
82.354201411
 20
52.2558220067
 30
0.0
 11
82.954201411
 21
51.7558219247
 31
0.0
  0
LINE
  5
191
100
AcDbEntity
  8
LAYER0
 62
         4
100
AcDbLine
 10
82.954201411
 20
51.7558219247
 30
0.0
 11
83.554201411
 21
52.2558220067
 31
0.0
  0
LINE
  5
192
100
AcDbEntity
  8
LAYER0
 62
         4
100
AcDbLine
 10
65.3650723188
 20
43.6271252805
 30
0.0
 11
66.4542013365
 21
42.7558220663
 31
0.0
  0
ARC
  5
193
100
AcDbEntity
  8
LAYER0
 62
         4
100
AcDbCircle
 10
64.4280297474
 20
42.4558220663
 30
0.0
 40
1.5
210
0.0
220
-0.0
230
1.0
100
AcDbArc
 50
51.3401919622
 51
90.0000015352
  0
LINE
  5
194
100
AcDbEntity
  8
LAYER0
 62
         4
100
AcDbLine
 10
61.3542013365
 20
43.9558220663
 30
0.0
 11
61.9542013365
 21
43.4558219843
 31
0.0
  0
LINE
  5
195
100
AcDbEntity
  8
LAYER0
 62
         4
100
AcDbLine
 10
61.9542013365
 20
43.4558219843
 30
0.0
 11
62.5542013365
 21
43.9558220663
 31
0.0
  0
LINE
  5
196
100
AcDbEntity
  8
LAYER0
 62
         4
100
AcDbLine
 10
64.4280297474
 20
43.9558220663
 30
0.0
 11
62.5542013365
 21
43.9558220663
 31
0.0
  0
LINE
  5
197
100
AcDbEntity
  8
LAYER0
 62
         4
100
AcDbLine
 10
61.3542013365
 20
43.9558220663
 30
0.0
 11
59.4803729255
 21
43.9558220663
 31
0.0
  0
ARC
  5
198
100
AcDbEntity
  8
LAYER0
 62
         4
100
AcDbCircle
 10
59.4803729255
 20
42.4558220663
 30
0.0
 40
1.5
210
0.0
220
0.0
230
1.0
100
AcDbArc
 50
90.0000015352
 51
128.6598111083
  0
LINE
  5
199
100
AcDbEntity
  8
LAYER0
 62
         4
100
AcDbLine
 10
58.5433303542
 20
43.6271252805
 30
0.0
 11
57.4542013365
 21
42.7558220663
 31
0.0
  0
LINE
  5
19A
100
AcDbEntity
  8
LAYER0
 62
         4
100
AcDbLine
 10
52.6542013961
 20
50.7819935957
 30
0.0
 11
52.6542013961
 21
55.7296504176
 31
0.0
  0
LINE
  5
19B
100
AcDbEntity
  8
LAYER0
 62
         4
100
AcDbLine
 10
52.3255046102
 20
56.666692989
 30
0.0
 11
51.4542013961
 21
57.7558220067
 31
0.0
  0
LINE
  5
19C
100
AcDbEntity
  8
LAYER0
 62
         4
100
AcDbLine
 10
52.3255046102
 20
49.8449510244
 30
0.0
 11
51.4542013961
 21
48.7558220067
 31
0.0
  0
ARC
  5
19D
100
AcDbEntity
  8
LAYER0
 62
         4
100
AcDbCircle
 10
51.1542013961
 20
50.7819935957
 30
0.0
 40
1.5
210
0.0
220
0.0
230
1.0
100
AcDbArc
 50
321.3401888917
 51
359.9999984648
  0
ARC
  5
19E
100
AcDbEntity
  8
LAYER0
 62
         4
100
AcDbCircle
 10
51.1542013961
 20
55.7296504176
 30
0.0
 40
1.5
210
-0.0
220
0.0
230
1.0
100
AcDbArc
 50
359.9999984648
 51
38.6598080378
  0
LINE
  5
19F
100
AcDbEntity
  8
LAYER0
 62
         4
100
AcDbLine
 10
65.3650723188
 20
62.8845187329
 30
0.0
 11
66.4542013365
 21
63.7558219471
 31
0.0
  0
ARC
  5
1A0
100
AcDbEntity
  8
LAYER0
 62
         4
100
AcDbCircle
 10
64.4280297474
 20
64.0558219471
 30
0.0
 40
1.5
210
0.0
220
0.0
230
1.0
100
AcDbArc
 50
269.9999953943
 51
308.6598049673
  0
LINE
  5
1A1
100
AcDbEntity
  8
LAYER0
 62
         4
100
AcDbLine
 10
61.3542013365
 20
62.5558219471
 30
0.0
 11
61.9542013365
 21
63.055822029
 31
0.0
  0
LINE
  5
1A2
100
AcDbEntity
  8
LAYER0
 62
         4
100
AcDbLine
 10
61.9542013365
 20
63.055822029
 30
0.0
 11
62.5542013365
 21
62.5558219471
 31
0.0
  0
LINE
  5
1A3
100
AcDbEntity
  8
LAYER0
 62
         4
100
AcDbLine
 10
64.4280297474
 20
62.5558219471
 30
0.0
 11
62.5542013365
 21
62.5558219471
 31
0.0
  0
LINE
  5
1A4
100
AcDbEntity
  8
LAYER0
 62
         4
100
AcDbLine
 10
61.3542013365
 20
62.5558219471
 30
0.0
 11
59.4803729255
 21
62.5558219471
 31
0.0
  0
ARC
  5
1A5
100
AcDbEntity
  8
LAYER0
 62
         4
100
AcDbCircle
 10
59.4803729255
 20
64.0558219471
 30
0.0
 40
1.5
210
0.0
220
0.0
230
1.0
100
AcDbArc
 50
231.3401919622
 51
269.9999953943
  0
LINE
  5
1A6
100
AcDbEntity
  8
LAYER0
 62
         4
100
AcDbLine
 10
58.5433303542
 20
62.8845187329
 30
0.0
 11
57.4542013365
 21
63.7558219471
 31
0.0
  0
LINE
  5
1A7
100
AcDbEntity
  8
LAYER0
 62
         4
100
AcDbLine
 10
76.2269935426
 20
39.3365831911
 30
0.0
 11
73.7470943318
 21
41.816482402
 31
0.0
  0
ARC
  5
1A8
100
AcDbEntity
  8
LAYER0
 62
         4
100
AcDbCircle
 10
71.5651139803
 20
66.7558219471
 30
0.0
 40
2.0
210
0.0
220
0.0
230
1.0
100
AcDbArc
 50
269.9999984648
 51
314.9999946267
  0
ARC
  5
1A9
100
AcDbEntity
  8
LAYER0
 62
         4
100
AcDbCircle
 10
71.454201113
 20
62.7558219471
 30
0.0
 40
1.0
210
-0.0
220
-0.0
230
1.0
100
AcDbArc
 50
359.9999984648
 51
90.0000015352
  0
ARC
  5
1AA
100
AcDbEntity
  8
LAYER0
 62
         4
100
AcDbCircle
 10
71.454201113
 20
43.7558220663
 30
0.0
 40
1.0
210
0.0
220
0.0
230
1.0
100
AcDbArc
 50
269.9999953943
 51
359.9999984648
  0
ENDBLK
  5
1AB
100
AcDbEntity
  8
0
100
AcDbBlockEnd
  0
BLOCK
  5
225
100
AcDbEntity
  8
0
100
AcDbBlockBegin
  2
CLUMP16
 70
         0
 10
0.0
 20
0.0
 30
0.0
  3

  1

  0
INSERT
  5
227
100
AcDbEntity
  8
0
100
AcDbBlockReference
  2
CLUMP17
 10
0.0
 20
0.0
 30
0.0
  0
ENDBLK
  5
235
100
AcDbEntity
  8
0
100
AcDbBlockEnd
  0
BLOCK
  5
228
100
AcDbEntity
  8
0
100
AcDbBlockBegin
  2
CLUMP17
 70
         0
 10
0.0
 20
0.0
 30
0.0
  3

  1

  0
LINE
  5
229
100
AcDbEntity
  8
LAYER0
  6
CENTER
100
AcDbLine
 10
-65.6249155154
 20
24.2558220067
 30
0.0
 11
-47.9166155852
 21
24.2558220067
 31
0.0
  0
LINE
  5
22A
100
AcDbEntity
  8
LAYER0
 62
         2
100
AcDbLine
 10
-51.7926565392
 20
20.7558220067
 30
0.0
 11
-51.7926565392
 21
27.7558220067
 31
0.0
  0
LINE
  5
22B
100
AcDbEntity
  8
LAYER0
 62
         2
100
AcDbLine
 10
-51.7926565392
 20
20.7558220067
 30
0.0
 11
-50.494438144
 21
20.8238587498
 31
0.0
  0
LINE
  5
22C
100
AcDbEntity
  8
LAYER0
 62
         2
100
AcDbLine
 10
-51.7926565392
 20
27.7558220067
 30
0.0
 11
-50.494438144
 21
27.6877852636
 31
0.0
  0
ARC
  5
22D
100
AcDbEntity
  8
LAYER0
 62
         2
100
AcDbCircle
 10
-50.5448571113
 20
21.7859099568
 30
0.0
 40
0.9633714741
210
0.0
220
0.0
230
1.0
100
AcDbArc
 50
272.9999985159
 51
341.1510308509
  0
ARC
  5
22E
100
AcDbEntity
  8
LAYER0
 62
         2
100
AcDbCircle
 10
-50.5448571113
 20
26.7257340566
 30
0.0
 40
0.9633714741
210
0.0
220
0.0
230
1.0
100
AcDbArc
 50
18.8489691491
 51
87.0000014841
  0
ARC
  5
22F
100
AcDbEntity
  8
LAYER0
 62
         2
100
AcDbCircle
 10
-58.1926565392
 20
24.2558220067
 30
0.0
 40
9.0
210
-0.0
220
0.0
230
1.0
100
AcDbArc
 50
341.999999693
 51
18.000000307
  0
LINE
  5
230
100
AcDbEntity
  8
LAYER0
 62
         5
100
AcDbLine
 10
-51.7926565392
 20
22.5058220067
 30
0.0
 11
-61.7926565392
 21
22.5058220067
 31
0.0
  0
LINE
  5
231
100
AcDbEntity
  8
LAYER0
 62
         5
100
AcDbLine
 10
-51.7926565392
 20
26.0058220067
 30
0.0
 11
-61.7926565392
 21
26.0058220067
 31
0.0
  0
LINE
  5
232
100
AcDbEntity
  8
LAYER0
 62
         2
100
AcDbLine
 10
-51.7926565392
 20
22.2558220067
 30
0.0
 11
-61.7926565392
 21
22.2558220067
 31
0.0
  0
LINE
  5
233
100
AcDbEntity
  8
LAYER0
 62
         2
100
AcDbLine
 10
-51.7926565392
 20
26.2558220067
 30
0.0
 11
-61.7926565392
 21
26.2558220067
 31
0.0
  0
ENDBLK
  5
234
100
AcDbEntity
  8
0
100
AcDbBlockEnd
  0
BLOCK
  5
238
100
AcDbEntity
  8
0
100
AcDbBlockBegin
  2
CLUMP18
 70
         0
 10
0.0
 20
0.0
 30
0.0
  3

  1

  0
INSERT
  5
23A
100
AcDbEntity
  8
0
100
AcDbBlockReference
  2
CLUMP19
 10
0.0
 20
0.0
 30
0.0
  0
ENDBLK
  5
24C
100
AcDbEntity
  8
0
100
AcDbBlockEnd
  0
BLOCK
  5
23B
100
AcDbEntity
  8
0
100
AcDbBlockBegin
  2
CLUMP19
 70
         0
 10
0.0
 20
0.0
 30
0.0
  3

  1

  0
LINE
  5
23C
100
AcDbEntity
  8
LAYER0
  6
CENTER
100
AcDbLine
 10
-73.3823405933
 20
82.2558220067
 30
0.0
 11
-47.9166155852
 21
82.2558220067
 31
0.0
  0
LINE
  5
23D
100
AcDbEntity
  8
LAYER0
 62
         2
100
AcDbLine
 10
-51.7926565392
 20
78.7558220067
 30
0.0
 11
-51.7926565392
 21
85.7558220067
 31
0.0
  0
LINE
  5
23E
100
AcDbEntity
  8
LAYER0
 62
         2
100
AcDbLine
 10
-51.7926565392
 20
78.7558220067
 30
0.0
 11
-50.494438144
 21
78.8238587498
 31
0.0
  0
LINE
  5
23F
100
AcDbEntity
  8
LAYER0
 62
         2
100
AcDbLine
 10
-51.7926565392
 20
85.7558220067
 30
0.0
 11
-50.494438144
 21
85.6877852636
 31
0.0
  0
ARC
  5
240
100
AcDbEntity
  8
LAYER0
 62
         2
100
AcDbCircle
 10
-50.5448571113
 20
79.7859099568
 30
0.0
 40
0.9633714741
210
0.0
220
0.0
230
1.0
100
AcDbArc
 50
272.9999985159
 51
341.1510308509
  0
ARC
  5
241
100
AcDbEntity
  8
LAYER0
 62
         2
100
AcDbCircle
 10
-50.5448571113
 20
84.7257340566
 30
0.0
 40
0.9633714741
210
0.0
220
0.0
230
1.0
100
AcDbArc
 50
18.8489691491
 51
87.0000014841
  0
ARC
  5
242
100
AcDbEntity
  8
LAYER0
 62
         2
100
AcDbCircle
 10
-58.1926565392
 20
82.2558220067
 30
0.0
 40
9.0
210
-0.0
220
0.0
230
1.0
100
AcDbArc
 50
341.999999693
 51
18.000000307
  0
LINE
  5
243
100
AcDbEntity
  8
LAYER0
 62
         5
100
AcDbLine
 10
-51.7926565392
 20
80.5058220067
 30
0.0
 11
-68.1692748679
 21
80.5058220067
 31
0.0
  0
LINE
  5
244
100
AcDbEntity
  8
LAYER0
 62
         5
100
AcDbLine
 10
-51.7926565392
 20
84.0058220067
 30
0.0
 11
-68.1692748679
 21
84.0058220067
 31
0.0
  0
LINE
  5
245
100
AcDbEntity
  8
LAYER0
 62
         2
100
AcDbLine
 10
-51.7926565392
 20
80.2558220067
 30
0.0
 11
-66.1849613846
 21
80.2558220067
 31
0.0
  0
LINE
  5
246
100
AcDbEntity
  8
LAYER0
 62
         2
100
AcDbLine
 10
-51.7926565392
 20
84.2558220067
 30
0.0
 11
-66.1849613846
 21
84.2558220067
 31
0.0
  0
LINE
  5
247
100
AcDbEntity
  8
LAYER0
 62
         2
100
AcDbLine
 10
-71.7926565392
 20
82.2558220067
 30
0.0
 11
-70.1849613846
 21
83.184025237
 31
0.0
  0
ARC
  5
248
100
AcDbEntity
  8
LAYER0
 62
         2
100
AcDbCircle
 10
-66.1849613846
 20
76.2558220067
 30
0.0
 40
8.0
210
0.0
220
0.0
230
1.0
100
AcDbArc
 50
90.0000015352
 51
120.000002047
  0
LINE
  5
249
100
AcDbEntity
  8
LAYER0
 62
         2
100
AcDbLine
 10
-71.7926565392
 20
82.2558220067
 30
0.0
 11
-70.1849613846
 21
81.3276187764
 31
0.0
  0
ARC
  5
24A
100
AcDbEntity
  8
LAYER0
 62
         2
100
AcDbCircle
 10
-66.1849613846
 20
88.2558220067
 30
0.0
 40
8.0
210
0.0
220
0.0
230
1.0
100
AcDbArc
 50
239.999997953
 51
269.9999984648
  0
ENDBLK
  5
24B
100
AcDbEntity
  8
0
100
AcDbBlockEnd
  0
BLOCK
  5
24F
100
AcDbEntity
  8
0
100
AcDbBlockBegin
  2
CLUMP20
 70
         0
 10
0.0
 20
0.0
 30
0.0
  3

  1

  0
INSERT
  5
251
100
AcDbEntity
  8
0
100
AcDbBlockReference
  2
CLUMP21
 10
0.0
 20
0.0
 30
0.0
  0
ENDBLK
  5
263
100
AcDbEntity
  8
0
100
AcDbBlockEnd
  0
BLOCK
  5
252
100
AcDbEntity
  8
0
100
AcDbBlockBegin
  2
CLUMP21
 70
         0
 10
0.0
 20
0.0
 30
0.0
  3

  1

  0
LINE
  5
253
100
AcDbEntity
  8
LAYER0
  6
CENTER
100
AcDbLine
 10
-67.9926565392
 20
51.6455060608
 30
0.0
 11
-67.9926565392
 21
26.1797810527
 31
0.0
  0
LINE
  5
254
100
AcDbEntity
  8
LAYER0
 62
         2
100
AcDbLine
 10
-71.4926565392
 20
30.0558220067
 30
0.0
 11
-64.4926565392
 21
30.0558220067
 31
0.0
  0
LINE
  5
255
100
AcDbEntity
  8
LAYER0
 62
         2
100
AcDbLine
 10
-71.4926565392
 20
30.0558220067
 30
0.0
 11
-71.4246197961
 21
28.7576036115
 31
0.0
  0
LINE
  5
256
100
AcDbEntity
  8
LAYER0
 62
         2
100
AcDbLine
 10
-64.4926565392
 20
30.0558220067
 30
0.0
 11
-64.5606932823
 21
28.7576036115
 31
0.0
  0
ARC
  5
257
100
AcDbEntity
  8
LAYER0
 62
         2
100
AcDbCircle
 10
-70.4625685891
 20
28.8080225788
 30
0.0
 40
0.9633714741
210
0.0
220
0.0
230
1.0
100
AcDbArc
 50
182.9999969807
 51
251.1510293156
  0
ARC
  5
258
100
AcDbEntity
  8
LAYER0
 62
         2
100
AcDbCircle
 10
-65.5227444893
 20
28.8080225788
 30
0.0
 40
0.9633714741
210
0.0
220
0.0
230
1.0
100
AcDbArc
 50
288.8489676139
 51
356.9999999488
  0
ARC
  5
259
100
AcDbEntity
  8
LAYER0
 62
         2
100
AcDbCircle
 10
-67.9926565392
 20
36.4558220067
 30
0.0
 40
9.0
210
0.0
220
0.0
230
1.0
100
AcDbArc
 50
251.9999981577
 51
287.9999987718
  0
LINE
  5
25A
100
AcDbEntity
  8
LAYER0
 62
         5
100
AcDbLine
 10
-69.7426565392
 20
30.0558220067
 30
0.0
 11
-69.7426565392
 21
46.4324403354
 31
0.0
  0
LINE
  5
25B
100
AcDbEntity
  8
LAYER0
 62
         5
100
AcDbLine
 10
-66.2426565392
 20
30.0558220067
 30
0.0
 11
-66.2426565392
 21
46.4324403354
 31
0.0
  0
LINE
  5
25C
100
AcDbEntity
  8
LAYER0
 62
         2
100
AcDbLine
 10
-69.9926565392
 20
30.0558220067
 30
0.0
 11
-69.9926565392
 21
44.4481268521
 31
0.0
  0
LINE
  5
25D
100
AcDbEntity
  8
LAYER0
 62
         2
100
AcDbLine
 10
-65.9926565392
 20
30.0558220067
 30
0.0
 11
-65.9926565392
 21
44.4481268521
 31
0.0
  0
LINE
  5
25E
100
AcDbEntity
  8
LAYER0
 62
         2
100
AcDbLine
 10
-67.9926565392
 20
50.0558220067
 30
0.0
 11
-67.0644533089
 21
48.4481268521
 31
0.0
  0
ARC
  5
25F
100
AcDbEntity
  8
LAYER0
 62
         2
100
AcDbCircle
 10
-73.9926565392
 20
44.4481268521
 30
0.0
 40
8.0
210
0.0
220
0.0
230
1.0
100
AcDbArc
 50
0.0
 51
30.0000005117
  0
LINE
  5
260
100
AcDbEntity
  8
LAYER0
 62
         2
100
AcDbLine
 10
-67.9926565392
 20
50.0558220067
 30
0.0
 11
-68.9208597695
 21
48.4481268521
 31
0.0
  0
ARC
  5
261
100
AcDbEntity
  8
LAYER0
 62
         2
100
AcDbCircle
 10
-61.9926565392
 20
44.4481268521
 30
0.0
 40
8.0
210
0.0
220
0.0
230
1.0
100
AcDbArc
 50
150.0000025587
 51
180.0000030705
  0
ENDBLK
  5
262
100
AcDbEntity
  8
0
100
AcDbBlockEnd
  0
BLOCK
  5
266
100
AcDbEntity
  8
0
100
AcDbBlockBegin
  2
CLUMP22
 70
         0
 10
0.0
 20
0.0
 30
0.0
  3

  1

  0
INSERT
  5
268
100
AcDbEntity
  8
0
100
AcDbBlockReference
  2
CLUMP23
 10
0.0
 20
0.0
 30
0.0
  0
ENDBLK
  5
274
100
AcDbEntity
  8
0
100
AcDbBlockEnd
  0
BLOCK
  5
269
100
AcDbEntity
  8
0
100
AcDbBlockBegin
  2
CLUMP23
 70
         0
 10
0.0
 20
0.0
 30
0.0
  3

  1

  0
LINE
  5
26A
100
AcDbEntity
  8
LAYER0
 62
         3
100
AcDbLine
 10
-54.9926565392
 20
13.7558220067
 30
0.0
 11
-54.9926565392
 21
30.0558220067
 31
0.0
  0
LINE
  5
26B
100
AcDbEntity
  8
LAYER0
 62
         3
100
AcDbLine
 10
-54.9926565392
 20
13.7558220067
 30
0.0
 11
-57.6926565392
 21
13.7558220067
 31
0.0
  0
LINE
  5
26C
100
AcDbEntity
  8
LAYER0
 62
         3
100
AcDbLine
 10
-58.1926565392
 20
14.2558220067
 30
0.0
 11
-58.1926565392
 21
30.0558220067
 31
0.0
  0
LINE
  5
26D
100
AcDbEntity
  8
LAYER0
 62
         3
100
AcDbLine
 10
-58.1926565392
 20
33.2558220067
 30
0.0
 11
-77.9926565392
 21
33.2558220067
 31
0.0
  0
LINE
  5
26E
100
AcDbEntity
  8
LAYER0
 62
         3
100
AcDbLine
 10
-77.9926565392
 20
33.2558220067
 30
0.0
 11
-77.9926565392
 21
30.5558220067
 31
0.0
  0
LINE
  5
26F
100
AcDbEntity
  8
LAYER0
 62
         3
100
AcDbLine
 10
-58.1926565392
 20
30.0558220067
 30
0.0
 11
-77.4926565392
 21
30.0558220067
 31
0.0
  0
ARC
  5
270
100
AcDbEntity
  8
LAYER0
 62
         3
100
AcDbCircle
 10
-77.4926565392
 20
30.5558220067
 30
0.0
 40
0.5
210
0.0
220
0.0
230
1.0
100
AcDbArc
 50
180.0000030705
 51
269.9999984648
  0
ARC
  5
271
100
AcDbEntity
  8
LAYER0
 62
         3
100
AcDbCircle
 10
-57.6926565392
 20
14.2558220067
 30
0.0
 40
0.5
210
0.0
220
0.0
230
1.0
100
AcDbArc
 50
180.0000030705
 51
269.9999984648
  0
ARC
  5
272
100
AcDbEntity
  8
LAYER0
 62
         3
100
AcDbCircle
 10
-58.1926565392
 20
30.0558220067
 30
0.0
 40
3.2
210
0.0
220
-0.0
230
1.0
100
AcDbArc
 50
0.0
 51
90.0000015352
  0
ENDBLK
  5
273
100
AcDbEntity
  8
0
100
AcDbBlockEnd
  0
BLOCK
  5
277
100
AcDbEntity
  8
0
100
AcDbBlockBegin
  2
CLUMP24
 70
         0
 10
0.0
 20
0.0
 30
0.0
  3

  1

  0
INSERT
  5
279
100
AcDbEntity
  8
0
100
AcDbBlockReference
  2
CLUMP25
 10
0.0
 20
0.0
 30
0.0
  0
ENDBLK
  5
28F
100
AcDbEntity
  8
0
100
AcDbBlockEnd
  0
BLOCK
  5
27A
100
AcDbEntity
  8
0
100
AcDbBlockBegin
  2
CLUMP25
 70
         0
 10
0.0
 20
0.0
 30
0.0
  3

  1

  0
LINE
  5
27B
100
AcDbEntity
  8
LAYER0
 62
         3
100
AcDbLine
 10
-54.9926565392
 20
13.2558220067
 30
0.0
 11
-54.9926565392
 21
35.2558220067
 31
0.0
  0
ARC
  5
27C
100
AcDbEntity
  8
LAYER0
 62
         3
100
AcDbCircle
 10
-54.4926565392
 20
35.2558220067
 30
0.0
 40
0.5
210
0.0
220
0.0
230
1.0
100
AcDbArc
 50
90.0000015352
 51
180.0000030705
  0
LINE
  5
27D
100
AcDbEntity
  8
LAYER0
 62
         3
100
AcDbLine
 10
-54.4926565392
 20
35.7558220067
 30
0.0
 11
-51.7926565392
 21
35.7558220067
 31
0.0
  0
LINE
  5
27E
100
AcDbEntity
  8
LAYER0
 62
         3
100
AcDbLine
 10
-51.7926565392
 20
24.2558220067
 30
0.0
 11
-51.7926565392
 21
35.7558220067
 31
0.0
  0
LINE
  5
27F
100
AcDbEntity
  8
LAYER0
 62
         3
100
AcDbLine
 10
-51.7926565392
 20
12.7558220067
 30
0.0
 11
-54.4926565392
 21
12.7558220067
 31
0.0
  0
ARC
  5
280
100
AcDbEntity
  8
LAYER0
 62
         3
100
AcDbCircle
 10
-54.4926565392
 20
13.2558220067
 30
0.0
 40
0.5
210
0.0
220
0.0
230
1.0
100
AcDbArc
 50
180.0000030705
 51
269.9999984648
  0
LINE
  5
281
100
AcDbEntity
  8
LAYER0
 62
         3
100
AcDbLine
 10
-51.7926565392
 20
12.7558220067
 30
0.0
 11
-51.7926565392
 21
24.2558220067
 31
0.0
  0
LINE
  5
282
100
AcDbEntity
  8
LAYER0
 62
         3
100
AcDbLine
 10
-37.9926563902
 20
17.7558220067
 30
0.0
 11
-37.9926563902
 21
30.7558220067
 31
0.0
  0
ARC
  5
283
100
AcDbEntity
  8
LAYER0
 62
         3
100
AcDbCircle
 10
-35.2926563902
 20
18.2558220067
 30
0.0
 40
0.5
210
-0.0
220
0.0
230
1.0
100
AcDbArc
 50
269.9999984648
 51
0.0
  0
ARC
  5
284
100
AcDbEntity
  8
LAYER0
 62
         3
100
AcDbCircle
 10
-35.2926563902
 20
30.2558220067
 30
0.0
 40
0.5
210
0.0
220
-0.0
230
1.0
100
AcDbArc
 50
0.0
 51
90.0000015352
  0
LINE
  5
285
100
AcDbEntity
  8
LAYER0
 62
         3
100
AcDbLine
 10
-37.7837135376
 20
17.7558220067
 30
0.0
 11
-35.2926563902
 21
17.7558220067
 31
0.0
  0
LINE
  5
286
100
AcDbEntity
  8
LAYER0
 62
         3
100
AcDbLine
 10
-37.9926563902
 20
30.7558220067
 30
0.0
 11
-35.2926563902
 21
30.7558220067
 31
0.0
  0
LINE
  5
287
100
AcDbEntity
  8
LAYER0
 62
         3
100
AcDbLine
 10
-34.7926563902
 20
18.2558220067
 30
0.0
 11
-34.7926563902
 21
30.2558220067
 31
0.0
  0
LINE
  5
288
100
AcDbEntity
  8
LAYER0
 62
         3
100
AcDbLine
 10
-43.4926564647
 20
30.7558220067
 30
0.0
 11
-51.7926565392
 21
30.7558220067
 31
0.0
  0
LINE
  5
289
100
AcDbEntity
  8
LAYER0
 62
         3
100
AcDbLine
 10
-40.2926564647
 20
30.7558220067
 30
0.0
 11
-43.4926564647
 21
30.7558220067
 31
0.0
  0
LINE
  5
28A
100
AcDbEntity
  8
LAYER0
 62
         3
100
AcDbLine
 10
-37.9926563902
 20
30.7558220067
 30
0.0
 11
-40.2926564647
 21
30.7558220067
 31
0.0
  0
LINE
  5
28B
100
AcDbEntity
  8
LAYER0
 62
         3
100
AcDbLine
 10
-40.2926564647
 20
17.7558220067
 30
0.0
 11
-37.7837135376
 21
17.7558220067
 31
0.0
  0
LINE
  5
28C
100
AcDbEntity
  8
LAYER0
 62
         3
100
AcDbLine
 10
-40.2926564647
 20
17.7558220067
 30
0.0
 11
-43.4926564647
 21
17.7558220067
 31
0.0
  0
LINE
  5
28D
100
AcDbEntity
  8
LAYER0
 62
         3
100
AcDbLine
 10
-51.7926565392
 20
17.7558220067
 30
0.0
 11
-43.4926564647
 21
17.7558220067
 31
0.0
  0
ENDBLK
  5
28E
100
AcDbEntity
  8
0
100
AcDbBlockEnd
  0
BLOCK
  5
292
100
AcDbEntity
  8
0
100
AcDbBlockBegin
  2
CLUMP26
 70
         0
 10
0.0
 20
0.0
 30
0.0
  3

  1

  0
INSERT
  5
294
100
AcDbEntity
  8
0
100
AcDbBlockReference
  2
CLUMP27
 10
0.0
 20
0.0
 30
0.0
  0
ENDBLK
  5
2AA
100
AcDbEntity
  8
0
100
AcDbBlockEnd
  0
BLOCK
  5
295
100
AcDbEntity
  8
0
100
AcDbBlockBegin
  2
CLUMP27
 70
         0
 10
0.0
 20
0.0
 30
0.0
  3

  1

  0
LINE
  5
296
100
AcDbEntity
  8
LAYER0
 62
         3
100
AcDbLine
 10
-54.9926565392
 20
93.2558220067
 30
0.0
 11
-54.9926565392
 21
71.2558220067
 31
0.0
  0
ARC
  5
297
100
AcDbEntity
  8
LAYER0
 62
         3
100
AcDbCircle
 10
-54.4926565392
 20
71.2558220067
 30
0.0
 40
0.5
210
0.0
220
0.0
230
1.0
100
AcDbArc
 50
179.9999969295
 51
269.9999984648
  0
LINE
  5
298
100
AcDbEntity
  8
LAYER0
 62
         3
100
AcDbLine
 10
-54.4926565392
 20
70.7558220067
 30
0.0
 11
-51.7926565392
 21
70.7558220067
 31
0.0
  0
LINE
  5
299
100
AcDbEntity
  8
LAYER0
 62
         3
100
AcDbLine
 10
-51.7926565392
 20
82.2558220067
 30
0.0
 11
-51.7926565392
 21
70.7558220067
 31
0.0
  0
LINE
  5
29A
100
AcDbEntity
  8
LAYER0
 62
         3
100
AcDbLine
 10
-51.7926565392
 20
93.7558220067
 30
0.0
 11
-54.4926565392
 21
93.7558220067
 31
0.0
  0
ARC
  5
29B
100
AcDbEntity
  8
LAYER0
 62
         3
100
AcDbCircle
 10
-54.4926565392
 20
93.2558220067
 30
0.0
 40
0.5
210
0.0
220
0.0
230
1.0
100
AcDbArc
 50
90.0000015352
 51
179.9999969295
  0
LINE
  5
29C
100
AcDbEntity
  8
LAYER0
 62
         3
100
AcDbLine
 10
-51.7926565392
 20
93.7558220067
 30
0.0
 11
-51.7926565392
 21
82.2558220067
 31
0.0
  0
LINE
  5
29D
100
AcDbEntity
  8
LAYER0
 62
         3
100
AcDbLine
 10
-37.9926563902
 20
88.7558220067
 30
0.0
 11
-37.9926563902
 21
75.7558220067
 31
0.0
  0
ARC
  5
29E
100
AcDbEntity
  8
LAYER0
 62
         3
100
AcDbCircle
 10
-35.2926563902
 20
88.2558220067
 30
0.0
 40
0.5
210
0.0
220
-0.0
230
1.0
100
AcDbArc
 50
0.0
 51
90.0000015352
  0
ARC
  5
29F
100
AcDbEntity
  8
LAYER0
 62
         3
100
AcDbCircle
 10
-35.2926563902
 20
76.2558220067
 30
0.0
 40
0.5
210
-0.0
220
0.0
230
1.0
100
AcDbArc
 50
269.9999984648
 51
0.0
  0
LINE
  5
2A0
100
AcDbEntity
  8
LAYER0
 62
         3
100
AcDbLine
 10
-37.7837135376
 20
88.7558220067
 30
0.0
 11
-35.2926563902
 21
88.7558220067
 31
0.0
  0
LINE
  5
2A1
100
AcDbEntity
  8
LAYER0
 62
         3
100
AcDbLine
 10
-37.9926563902
 20
75.7558220067
 30
0.0
 11
-35.2926563902
 21
75.7558220067
 31
0.0
  0
LINE
  5
2A2
100
AcDbEntity
  8
LAYER0
 62
         3
100
AcDbLine
 10
-34.7926563902
 20
88.2558220067
 30
0.0
 11
-34.7926563902
 21
76.2558220067
 31
0.0
  0
LINE
  5
2A3
100
AcDbEntity
  8
LAYER0
 62
         3
100
AcDbLine
 10
-40.2926564647
 20
88.7558220067
 30
0.0
 11
-37.7837135376
 21
88.7558220067
 31
0.0
  0
LINE
  5
2A4
100
AcDbEntity
  8
LAYER0
 62
         3
100
AcDbLine
 10
-43.4926564647
 20
88.7558220067
 30
0.0
 11
-40.2926564647
 21
88.7558220067
 31
0.0
  0
LINE
  5
2A5
100
AcDbEntity
  8
LAYER0
 62
         3
100
AcDbLine
 10
-51.7926565392
 20
88.7558220067
 30
0.0
 11
-43.4926564647
 21
88.7558220067
 31
0.0
  0
LINE
  5
2A6
100
AcDbEntity
  8
LAYER0
 62
         3
100
AcDbLine
 10
-43.4926564647
 20
75.7558220067
 30
0.0
 11
-51.7926565392
 21
75.7558220067
 31
0.0
  0
LINE
  5
2A7
100
AcDbEntity
  8
LAYER0
 62
         3
100
AcDbLine
 10
-40.2926564647
 20
75.7558220067
 30
0.0
 11
-43.4926564647
 21
75.7558220067
 31
0.0
  0
LINE
  5
2A8
100
AcDbEntity
  8
LAYER0
 62
         3
100
AcDbLine
 10
-37.9926563902
 20
75.7558220067
 30
0.0
 11
-40.2926564647
 21
75.7558220067
 31
0.0
  0
ENDBLK
  5
2A9
100
AcDbEntity
  8
0
100
AcDbBlockEnd
  0
BLOCK
  5
2AD
100
AcDbEntity
  8
0
100
AcDbBlockBegin
  2
CLUMP28
 70
         0
 10
0.0
 20
0.0
 30
0.0
  3

  1

  0
INSERT
  5
2AF
100
AcDbEntity
  8
0
100
AcDbBlockReference
  2
CLUMP29
 10
0.0
 20
0.0
 30
0.0
  0
ENDBLK
  5
2E5
100
AcDbEntity
  8
0
100
AcDbBlockEnd
  0
BLOCK
  5
2B0
100
AcDbEntity
  8
0
100
AcDbBlockBegin
  2
CLUMP29
 70
         0
 10
0.0
 20
0.0
 30
0.0
  3

  1

  0
LINE
  5
2B1
100
AcDbEntity
  8
LAYER1
 62
         4
100
AcDbLine
 10
-54.9926565392
 20
62.2558216193
 30
0.0
 11
-54.9926565392
 21
63.4880550537
 31
0.0
  0
LINE
  5
2B2
100
AcDbEntity
  8
LAYER1
 62
         4
100
AcDbLine
 10
-54.4926565988
 20
50.7558220067
 30
0.0
 11
-54.4926565988
 21
52.068387798
 31
0.0
  0
LINE
  5
2B3
100
AcDbEntity
  8
LAYER1
 62
         4
100
AcDbLine
 10
-54.6926565392
 20
37.2558219322
 30
0.0
 11
-51.2604234177
 21
37.2558219322
 31
0.0
  0
LINE
  5
2B4
100
AcDbEntity
  8
LAYER1
 62
         4
100
AcDbLine
 10
-48.9926564647
 20
44.2558223941
 30
0.0
 11
-48.9926564647
 21
40.2478529539
 31
0.0
  0
LINE
  5
2B5
100
AcDbEntity
  8
LAYER1
 62
         4
100
AcDbLine
 10
-54.4068701016
 20
41.6093753973
 30
0.0
 11
-50.9068700271
 21
38.1093753228
 31
0.0
  0
LINE
  5
2B6
100
AcDbEntity
  8
LAYER1
 62
         4
100
AcDbLine
 10
-52.9068701612
 20
42.2306958004
 30
0.0
 11
-50.3583418896
 21
39.6821675289
 31
0.0
  0
LINE
  5
2B7
100
AcDbEntity
  8
LAYER1
 62
         4
100
AcDbLine
 10
-54.6926565392
 20
69.2558220812
 30
0.0
 11
-51.2604234177
 21
69.2558220812
 31
0.0
  0
LINE
  5
2B8
100
AcDbEntity
  8
LAYER1
 62
         4
100
AcDbLine
 10
-54.4068701016
 20
64.9022686161
 30
0.0
 11
-50.9068700271
 21
68.4022686906
 31
0.0
  0
LINE
  5
2B9
100
AcDbEntity
  8
LAYER1
 62
         4
100
AcDbLine
 10
-48.9926564647
 20
62.2558216193
 30
0.0
 11
-48.9926564647
 21
66.2637910595
 31
0.0
  0
LINE
  5
2BA
100
AcDbEntity
  8
LAYER1
 62
         4
100
AcDbLine
 10
-52.9068701612
 20
64.2809482129
 30
0.0
 11
-50.3583418896
 21
66.8294764845
 31
0.0
  0
LINE
  5
2BB
100
AcDbEntity
  8
LAYER1
 62
         4
100
AcDbLine
 10
-54.6926565392
 20
70.7558220812
 30
0.0
 11
-50.9926564647
 21
70.7558220812
 31
0.0
  0
LINE
  5
2BC
100
AcDbEntity
  8
LAYER1
 62
         4
100
AcDbLine
 10
-47.4926564647
 20
67.2558220812
 30
0.0
 11
-47.4926564647
 21
62.7558217012
 31
0.0
  0
ARC
  5
2BD
100
AcDbEntity
  8
LAYER1
 62
         4
100
AcDbCircle
 10
-47.9926565392
 20
62.7558220067
 30
0.0
 40
0.5
210
-0.0
220
0.0
230
1.0
100
AcDbArc
 50
269.9999984648
 51
0.0000015352
  0
LINE
  5
2BE
100
AcDbEntity
  8
LAYER1
 62
         4
100
AcDbLine
 10
-47.9926556153
 20
62.2558216193
 30
0.0
 11
-48.9926564647
 21
62.2558216193
 31
0.0
  0
LINE
  5
2BF
100
AcDbEntity
  8
LAYER1
 62
         4
100
AcDbLine
 10
-54.6926565392
 20
35.7558219322
 30
0.0
 11
-50.9926564647
 21
35.7558219322
 31
0.0
  0
LINE
  5
2C0
100
AcDbEntity
  8
LAYER1
 62
         4
100
AcDbLine
 10
-47.4926564647
 20
39.2558219322
 30
0.0
 11
-47.4926564647
 21
43.7558223121
 31
0.0
  0
ARC
  5
2C1
100
AcDbEntity
  8
LAYER1
 62
         4
100
AcDbCircle
 10
-47.9926565392
 20
43.7558220067
 30
0.0
 40
0.5
210
0.0
220
-0.0
230
1.0
100
AcDbArc
 50
0.0000015352
 51
90.0000046057
  0
LINE
  5
2C2
100
AcDbEntity
  8
LAYER1
 62
         4
100
AcDbLine
 10
-47.9926556153
 20
44.2558223941
 30
0.0
 11
-48.9926564647
 21
44.2558223941
 31
0.0
  0
ARC
  5
2C3
100
AcDbEntity
  8
LAYER1
 62
         4
100
AcDbCircle
 10
-51.4926565988
 20
62.8667346506
 30
0.0
 40
2.0
210
0.0
220
0.0
230
1.0
100
AcDbArc
 50
135.0
 51
180.0000015352
  0
ARC
  5
2C4
100
AcDbEntity
  8
LAYER1
 62
         4
100
AcDbCircle
 10
-51.4926565988
 20
43.6449093628
 30
0.0
 40
2.0
210
0.0
220
0.0
230
1.0
100
AcDbArc
 50
180.0000015352
 51
224.9999969295
  0
ARC
  5
2C5
100
AcDbEntity
  8
LAYER1
 62
         4
100
AcDbCircle
 10
-49.7926564647
 20
40.2478529539
 30
0.0
 40
0.8
210
-0.0
220
0.0
230
1.0
100
AcDbArc
 50
224.9999969295
 51
0.0000015352
  0
ARC
  5
2C6
100
AcDbEntity
  8
LAYER1
 62
         4
100
AcDbCircle
 10
-49.7926564647
 20
66.2637910595
 30
0.0
 40
0.8
210
0.0
220
-0.0
230
1.0
100
AcDbArc
 50
0.0000015352
 51
135.0
  0
ARC
  5
2C7
100
AcDbEntity
  8
LAYER1
 62
         4
100
AcDbCircle
 10
-50.9926564647
 20
39.2558219322
 30
0.0
 40
3.5
210
-0.0
220
0.0
230
1.0
100
AcDbArc
 50
269.9999984648
 51
0.0
  0
ARC
  5
2C8
100
AcDbEntity
  8
LAYER1
 62
         4
100
AcDbCircle
 10
-50.9926564647
 20
67.2558220812
 30
0.0
 40
3.5
210
0.0
220
-0.0
230
1.0
100
AcDbArc
 50
0.0
 51
90.0000015352
  0
LINE
  5
2C9
100
AcDbEntity
  8
LAYER1
 62
         4
100
AcDbLine
 10
-54.9926565392
 20
69.5558220812
 30
0.0
 11
-54.9926565392
 21
70.4558220812
 31
0.0
  0
LINE
  5
2CA
100
AcDbEntity
  8
LAYER1
 62
         4
100
AcDbLine
 10
-54.9926565392
 20
36.0558219322
 30
0.0
 11
-54.9926565392
 21
36.9558219322
 31
0.0
  0
LINE
  5
2CB
100
AcDbEntity
  8
LAYER1
 62
         4
100
AcDbLine
 10
-54.4926565988
 20
54.4432562154
 30
0.0
 11
-54.4926565988
 21
55.7558220067
 31
0.0
  0
LINE
  5
2CC
100
AcDbEntity
  8
LAYER1
 62
         4
100
AcDbLine
 10
-54.4926565988
 20
62.2558216193
 30
0.0
 11
-54.9926565392
 21
62.2558216193
 31
0.0
  0
LINE
  5
2CD
100
AcDbEntity
  8
LAYER1
 62
         4
100
AcDbLine
 10
-54.4926565988
 20
55.7558220067
 30
0.0
 11
-54.9926565392
 21
55.7558220067
 31
0.0
  0
LINE
  5
2CE
100
AcDbEntity
  8
LAYER1
 62
         4
100
AcDbLine
 10
-54.4926565988
 20
57.7558220067
 30
0.0
 11
-54.9926565392
 21
57.7558220067
 31
0.0
  0
LINE
  5
2CF
100
AcDbEntity
  8
LAYER1
 62
         4
100
AcDbLine
 10
-54.9926565392
 20
57.7558220067
 30
0.0
 11
-54.9926565392
 21
55.7558220067
 31
0.0
  0
LINE
  5
2D0
100
AcDbEntity
  8
LAYER1
 62
         4
100
AcDbLine
 10
-54.4926565988
 20
57.7558220067
 30
0.0
 11
-54.4926565988
 21
62.2558216193
 31
0.0
  0
LINE
  5
2D1
100
AcDbEntity
  8
LAYER1
 62
         4
100
AcDbLine
 10
-54.9926565392
 20
44.2558223941
 30
0.0
 11
-54.9926565392
 21
43.0235889597
 31
0.0
  0
LINE
  5
2D2
100
AcDbEntity
  8
LAYER1
 62
         4
100
AcDbLine
 10
-54.4926565988
 20
44.2558223941
 30
0.0
 11
-54.9926565392
 21
44.2558223941
 31
0.0
  0
LINE
  5
2D3
100
AcDbEntity
  8
LAYER1
 62
         4
100
AcDbLine
 10
-54.4926565988
 20
50.7558220067
 30
0.0
 11
-54.9926565392
 21
50.7558220067
 31
0.0
  0
LINE
  5
2D4
100
AcDbEntity
  8
LAYER1
 62
         4
100
AcDbLine
 10
-54.4926565988
 20
48.7558220067
 30
0.0
 11
-54.9926565392
 21
48.7558220067
 31
0.0
  0
LINE
  5
2D5
100
AcDbEntity
  8
LAYER1
 62
         4
100
AcDbLine
 10
-54.9926565392
 20
48.7558220067
 30
0.0
 11
-54.9926565392
 21
50.7558220067
 31
0.0
  0
LINE
  5
2D6
100
AcDbEntity
  8
LAYER1
 62
         4
100
AcDbLine
 10
-54.4926565988
 20
48.7558220067
 30
0.0
 11
-54.4926565988
 21
44.2558223941
 31
0.0
  0
LINE
  5
2D7
100
AcDbEntity
  8
LAYER1
 62
         4
100
AcDbLine
 10
-53.7926565988
 20
53.2558220067
 30
0.0
 11
-53.4926565988
 21
52.9558220067
 31
0.0
  0
LINE
  5
2D8
100
AcDbEntity
  8
LAYER1
 62
         4
100
AcDbLine
 10
-53.7926565988
 20
53.2558220067
 30
0.0
 11
-53.4926565988
 21
53.5558220067
 31
0.0
  0
LINE
  5
2D9
100
AcDbEntity
  8
LAYER1
 62
         4
100
AcDbLine
 10
-53.4926565988
 20
43.6449093628
 30
0.0
 11
-53.4926565988
 21
52.9558220067
 31
0.0
  0
LINE
  5
2DA
100
AcDbEntity
  8
LAYER1
 62
         4
100
AcDbLine
 10
-53.4926565988
 20
62.8667346506
 30
0.0
 11
-53.4926565988
 21
53.5558220067
 31
0.0
  0
ARC
  5
2DB
100
AcDbEntity
  8
LAYER1
 62
         4
100
AcDbCircle
 10
-54.6926565392
 20
36.0558219322
 30
0.0
 40
0.3
210
0.0
220
0.0
230
1.0
100
AcDbArc
 50
179.9999969295
 51
269.9999984648
  0
ARC
  5
2DC
100
AcDbEntity
  8
LAYER1
 62
         4
100
AcDbCircle
 10
-54.6926565392
 20
70.4558220812
 30
0.0
 40
0.3
210
0.0
220
0.0
230
1.0
100
AcDbArc
 50
90.0000015352
 51
179.9999969295
  0
ARC
  5
2DD
100
AcDbEntity
  8
LAYER1
 62
         4
100
AcDbCircle
 10
-54.6926565392
 20
69.5558220812
 30
0.0
 40
0.3
210
0.0
220
0.0
230
1.0
100
AcDbArc
 50
179.9999969295
 51
269.9999984648
  0
ARC
  5
2DE
100
AcDbEntity
  8
LAYER1
 62
         4
100
AcDbCircle
 10
-54.6926565392
 20
36.9558219322
 30
0.0
 40
0.3
210
0.0
220
0.0
230
1.0
100
AcDbArc
 50
90.0000015352
 51
179.9999969295
  0
ARC
  5
2DF
100
AcDbEntity
  8
LAYER1
 62
         4
100
AcDbCircle
 10
-52.9926565392
 20
43.0235889597
 30
0.0
 40
2.0
210
0.0
220
0.0
230
1.0
100
AcDbArc
 50
179.9999969295
 51
224.9999976971
  0
ARC
  5
2E0
100
AcDbEntity
  8
LAYER1
 62
         4
100
AcDbCircle
 10
-52.9926565392
 20
63.4880550537
 30
0.0
 40
2.0
210
0.0
220
0.0
230
1.0
100
AcDbArc
 50
135.0000023029
 51
179.9999969295
  0
ARC
  5
2E1
100
AcDbEntity
  8
LAYER1
 62
         4
100
AcDbCircle
 10
-51.2604234177
 20
37.7558219322
 30
0.0
 40
0.5
210
-0.0
220
0.0
230
1.0
100
AcDbArc
 50
269.9999984648
 51
45.0000007676
  0
ARC
  5
2E2
100
AcDbEntity
  8
LAYER1
 62
         4
100
AcDbCircle
 10
-51.2604234177
 20
68.7558220812
 30
0.0
 40
0.5
210
-0.0
220
-0.0
230
1.0
100
AcDbArc
 50
314.9999992324
 51
90.0000015352
  0
ARC
  5
2E3
100
AcDbEntity
  8
LAYER1
 62
         4
100
AcDbCircle
 10
-52.2926565988
 20
53.2558220067
 30
0.0
 40
2.5
210
0.0
220
0.0
230
1.0
100
AcDbArc
 50
151.6423660104
 51
208.3576339896
  0
ENDBLK
  5
2E4
100
AcDbEntity
  8
0
100
AcDbBlockEnd
  0
BLOCK
  5
30B
100
AcDbEntity
  8
0
100
AcDbBlockBegin
  2
CLUMP30
 70
         0
 10
0.0
 20
0.0
 30
0.0
  3

  1

  0
INSERT
  5
30D
100
AcDbEntity
  8
0
100
AcDbBlockReference
  2
CLUMP31
 10
0.0
 20
0.0
 30
0.0
  0
ENDBLK
  5
330
100
AcDbEntity
  8
0
100
AcDbBlockEnd
  0
BLOCK
  5
30E
100
AcDbEntity
  8
0
100
AcDbBlockBegin
  2
CLUMP31
 70
         0
 10
0.0
 20
0.0
 30
0.0
  3

  1

  0
LINE
  5
30F
100
AcDbEntity
  8
LAYER0
 62
         5
100
AcDbLine
 10
-45.9926563306
 20
44.8558223941
 30
0.0
 11
-44.1926563306
 21
44.8558223941
 31
0.0
  0
LINE
  5
310
100
AcDbEntity
  8
LAYER0
 62
         5
100
AcDbLine
 10
-42.2926563306
 20
44.8558223941
 30
0.0
 11
-40.4926563306
 21
44.8558223941
 31
0.0
  0
ARC
  5
311
100
AcDbEntity
  8
LAYER0
 62
         5
100
AcDbCircle
 10
-45.9926563306
 20
45.3558223941
 30
0.0
 40
0.5
210
0.0
220
0.0
230
1.0
100
AcDbArc
 50
180.0000030705
 51
269.9999984648
  0
ARC
  5
312
100
AcDbEntity
  8
LAYER0
 62
         5
100
AcDbCircle
 10
-40.4926563306
 20
45.3558223941
 30
0.0
 40
0.5
210
0.0
220
0.0
230
1.0
100
AcDbArc
 50
269.9999984648
 51
360.0
  0
LINE
  5
313
100
AcDbEntity
  8
LAYER0
 62
         5
100
AcDbLine
 10
-43.6926563306
 20
42.0558223941
 30
0.0
 11
-42.7926563306
 21
42.0558223941
 31
0.0
  0
ARC
  5
314
100
AcDbEntity
  8
LAYER0
 62
         5
100
AcDbCircle
 10
-43.6926563306
 20
42.3558223941
 30
0.0
 40
0.3
210
0.0
220
0.0
230
1.0
100
AcDbArc
 50
180.0000030705
 51
269.9999984648
  0
ARC
  5
315
100
AcDbEntity
  8
LAYER0
 62
         5
100
AcDbCircle
 10
-42.7926563306
 20
42.3558223941
 30
0.0
 40
0.3
210
-0.0
220
0.0
230
1.0
100
AcDbArc
 50
269.9999984648
 51
0.0
  0
ARC
  5
316
100
AcDbEntity
  8
LAYER0
 62
         5
100
AcDbCircle
 10
-44.1926563306
 20
44.6558223941
 30
0.0
 40
0.2
210
0.0
220
-0.0
230
1.0
100
AcDbArc
 50
0.0
 51
90.0000015352
  0
ARC
  5
317
100
AcDbEntity
  8
LAYER0
 62
         5
100
AcDbCircle
 10
-42.2926563306
 20
44.6558223941
 30
0.0
 40
0.2
210
0.0
220
0.0
230
1.0
100
AcDbArc
 50
90.0000015352
 51
180.0000030705
  0
LINE
  5
318
100
AcDbEntity
  8
LAYER0
 62
         5
100
AcDbLine
 10
-43.9926563306
 20
61.8558216193
 30
0.0
 11
-43.9926563306
 21
64.1558216193
 31
0.0
  0
LINE
  5
319
100
AcDbEntity
  8
LAYER0
 62
         5
100
AcDbLine
 10
-42.4926563306
 20
64.1558216193
 30
0.0
 11
-42.4926563306
 21
61.8558216193
 31
0.0
  0
LINE
  5
31A
100
AcDbEntity
  8
LAYER0
 62
         5
100
AcDbLine
 10
-43.6926563306
 20
64.4558216193
 30
0.0
 11
-42.7926563306
 21
64.4558216193
 31
0.0
  0
ARC
  5
31B
100
AcDbEntity
  8
LAYER0
 62
         5
100
AcDbCircle
 10
-43.6926563306
 20
64.1558216193
 30
0.0
 40
0.3
210
0.0
220
0.0
230
1.0
100
AcDbArc
 50
90.0000015352
 51
180.0000030705
  0
ARC
  5
31C
100
AcDbEntity
  8
LAYER0
 62
         5
100
AcDbCircle
 10
-42.7926563306
 20
64.1558216193
 30
0.0
 40
0.3
210
0.0
220
-0.0
230
1.0
100
AcDbArc
 50
0.0
 51
90.0000015352
  0
LINE
  5
31D
100
AcDbEntity
  8
LAYER0
 62
         5
100
AcDbLine
 10
-46.4926563306
 20
53.7558220067
 30
0.0
 11
-46.4926563306
 21
61.1558216193
 31
0.0
  0
LINE
  5
31E
100
AcDbEntity
  8
LAYER0
 62
         5
100
AcDbLine
 10
-39.9926563306
 20
57.5558220067
 30
0.0
 11
-39.9926563306
 21
53.7558220067
 31
0.0
  0
LINE
  5
31F
100
AcDbEntity
  8
LAYER0
 62
         5
100
AcDbLine
 10
-39.9926563306
 20
61.1558216193
 30
0.0
 11
-39.9926563306
 21
57.9558220067
 31
0.0
  0
ARC
  5
320
100
AcDbEntity
  8
LAYER0
 62
         5
100
AcDbCircle
 10
-39.9926563306
 20
57.7558220067
 30
0.0
 40
0.2
210
0.0
220
0.0
230
1.0
100
AcDbArc
 50
90.0000015352
 51
269.9999984648
  0
LINE
  5
321
100
AcDbEntity
  8
LAYER0
 62
         5
100
AcDbLine
 10
-45.9926563306
 20
61.6558216193
 30
0.0
 11
-44.1926563306
 21
61.6558216193
 31
0.0
  0
LINE
  5
322
100
AcDbEntity
  8
LAYER0
 62
         5
100
AcDbLine
 10
-42.2926563306
 20
61.6558216193
 30
0.0
 11
-40.4926563306
 21
61.6558216193
 31
0.0
  0
ARC
  5
323
100
AcDbEntity
  8
LAYER0
 62
         5
100
AcDbCircle
 10
-46.4926563306
 20
53.2558220067
 30
0.0
 40
0.5
210
0.0
220
0.0
230
1.0
100
AcDbArc
 50
269.9999984648
 51
90.0000015352
  0
ARC
  5
324
100
AcDbEntity
  8
LAYER0
 62
         5
100
AcDbCircle
 10
-39.9926563306
 20
53.2558220067
 30
0.0
 40
0.5
210
0.0
220
0.0
230
1.0
100
AcDbArc
 50
90.0000015352
 51
269.9999984648
  0
ARC
  5
325
100
AcDbEntity
  8
LAYER0
 62
         5
100
AcDbCircle
 10
-45.9926563306
 20
61.1558216193
 30
0.0
 40
0.5
210
0.0
220
0.0
230
1.0
100
AcDbArc
 50
90.0000015352
 51
180.0000030705
  0
ARC
  5
326
100
AcDbEntity
  8
LAYER0
 62
         5
100
AcDbCircle
 10
-40.4926563306
 20
61.1558216193
 30
0.0
 40
0.5
210
-0.0
220
-0.0
230
1.0
100
AcDbArc
 50
360.0
 51
90.0000015352
  0
ARC
  5
327
100
AcDbEntity
  8
LAYER0
 62
         5
100
AcDbCircle
 10
-44.1926563306
 20
61.8558216193
 30
0.0
 40
0.2
210
-0.0
220
0.0
230
1.0
100
AcDbArc
 50
269.9999984648
 51
0.0
  0
ARC
  5
328
100
AcDbEntity
  8
LAYER0
 62
         5
100
AcDbCircle
 10
-42.2926563306
 20
61.8558216193
 30
0.0
 40
0.2
210
0.0
220
0.0
230
1.0
100
AcDbArc
 50
180.0000030705
 51
269.9999984648
  0
LINE
  5
329
100
AcDbEntity
  8
LAYER0
 62
         5
100
AcDbLine
 10
-46.4926563306
 20
52.7558220067
 30
0.0
 11
-46.4926563306
 21
45.3558223941
 31
0.0
  0
LINE
  5
32A
100
AcDbEntity
  8
LAYER0
 62
         5
100
AcDbLine
 10
-39.9926563306
 20
48.9558220067
 30
0.0
 11
-39.9926563306
 21
52.7558220067
 31
0.0
  0
LINE
  5
32B
100
AcDbEntity
  8
LAYER0
 62
         5
100
AcDbLine
 10
-39.9926563306
 20
45.3558223941
 30
0.0
 11
-39.9926563306
 21
48.5558220067
 31
0.0
  0
ARC
  5
32C
100
AcDbEntity
  8
LAYER0
 62
         5
100
AcDbCircle
 10
-39.9926563306
 20
48.7558220067
 30
0.0
 40
0.2
210
0.0
220
0.0
230
1.0
100
AcDbArc
 50
90.0000015352
 51
269.9999984648
  0
LINE
  5
32D
100
AcDbEntity
  8
LAYER0
 62
         5
100
AcDbLine
 10
-43.9926563306
 20
44.6558223941
 30
0.0
 11
-43.9926563306
 21
42.3558223941
 31
0.0
  0
LINE
  5
32E
100
AcDbEntity
  8
LAYER0
 62
         5
100
AcDbLine
 10
-42.4926563306
 20
42.3558223941
 30
0.0
 11
-42.4926563306
 21
44.6558223941
 31
0.0
  0
ENDBLK
  5
32F
100
AcDbEntity
  8
0
100
AcDbBlockEnd
  0
BLOCK
  5
333
100
AcDbEntity
  8
0
100
AcDbBlockBegin
  2
CLUMP32
 70
         0
 10
0.0
 20
0.0
 30
0.0
  3

  1

  0
INSERT
  5
335
100
AcDbEntity
  8
0
100
AcDbBlockReference
  2
CLUMP33
 10
0.0
 20
0.0
 30
0.0
  0
ENDBLK
  5
358
100
AcDbEntity
  8
0
100
AcDbBlockEnd
  0
BLOCK
  5
336
100
AcDbEntity
  8
0
100
AcDbBlockBegin
  2
CLUMP33
 70
         0
 10
0.0
 20
0.0
 30
0.0
  3

  1

  0
LINE
  5
337
100
AcDbEntity
  8
LAYER0
 62
         5
100
AcDbLine
 10
-52.4926563306
 20
44.8558223941
 30
0.0
 11
-50.6926563306
 21
44.8558223941
 31
0.0
  0
LINE
  5
338
100
AcDbEntity
  8
LAYER0
 62
         5
100
AcDbLine
 10
-48.7926563306
 20
44.8558223941
 30
0.0
 11
-46.9926563306
 21
44.8558223941
 31
0.0
  0
ARC
  5
339
100
AcDbEntity
  8
LAYER0
 62
         5
100
AcDbCircle
 10
-52.4926563306
 20
45.3558223941
 30
0.0
 40
0.5
210
0.0
220
0.0
230
1.0
100
AcDbArc
 50
180.0000030705
 51
269.9999984648
  0
ARC
  5
33A
100
AcDbEntity
  8
LAYER0
 62
         5
100
AcDbCircle
 10
-46.9926563306
 20
45.3558223941
 30
0.0
 40
0.5
210
0.0
220
0.0
230
1.0
100
AcDbArc
 50
269.9999984648
 51
360.0
  0
LINE
  5
33B
100
AcDbEntity
  8
LAYER0
 62
         5
100
AcDbLine
 10
-50.1926563306
 20
42.0558223941
 30
0.0
 11
-49.2926563306
 21
42.0558223941
 31
0.0
  0
ARC
  5
33C
100
AcDbEntity
  8
LAYER0
 62
         5
100
AcDbCircle
 10
-50.1926563306
 20
42.3558223941
 30
0.0
 40
0.3
210
0.0
220
0.0
230
1.0
100
AcDbArc
 50
180.0000030705
 51
269.9999984648
  0
ARC
  5
33D
100
AcDbEntity
  8
LAYER0
 62
         5
100
AcDbCircle
 10
-49.2926563306
 20
42.3558223941
 30
0.0
 40
0.3
210
-0.0
220
0.0
230
1.0
100
AcDbArc
 50
269.9999984648
 51
0.0
  0
ARC
  5
33E
100
AcDbEntity
  8
LAYER0
 62
         5
100
AcDbCircle
 10
-50.6926563306
 20
44.6558223941
 30
0.0
 40
0.2
210
0.0
220
-0.0
230
1.0
100
AcDbArc
 50
0.0
 51
90.0000015352
  0
ARC
  5
33F
100
AcDbEntity
  8
LAYER0
 62
         5
100
AcDbCircle
 10
-48.7926563306
 20
44.6558223941
 30
0.0
 40
0.2
210
0.0
220
0.0
230
1.0
100
AcDbArc
 50
90.0000015352
 51
180.0000030705
  0
LINE
  5
340
100
AcDbEntity
  8
LAYER0
 62
         5
100
AcDbLine
 10
-50.4926563306
 20
61.8558216193
 30
0.0
 11
-50.4926563306
 21
64.1558216193
 31
0.0
  0
LINE
  5
341
100
AcDbEntity
  8
LAYER0
 62
         5
100
AcDbLine
 10
-48.9926563306
 20
64.1558216193
 30
0.0
 11
-48.9926563306
 21
61.8558216193
 31
0.0
  0
LINE
  5
342
100
AcDbEntity
  8
LAYER0
 62
         5
100
AcDbLine
 10
-50.1926563306
 20
64.4558216193
 30
0.0
 11
-49.2926563306
 21
64.4558216193
 31
0.0
  0
ARC
  5
343
100
AcDbEntity
  8
LAYER0
 62
         5
100
AcDbCircle
 10
-50.1926563306
 20
64.1558216193
 30
0.0
 40
0.3
210
0.0
220
0.0
230
1.0
100
AcDbArc
 50
90.0000015352
 51
180.0000030705
  0
ARC
  5
344
100
AcDbEntity
  8
LAYER0
 62
         5
100
AcDbCircle
 10
-49.2926563306
 20
64.1558216193
 30
0.0
 40
0.3
210
0.0
220
-0.0
230
1.0
100
AcDbArc
 50
0.0
 51
90.0000015352
  0
LINE
  5
345
100
AcDbEntity
  8
LAYER0
 62
         5
100
AcDbLine
 10
-52.9926563306
 20
53.7558220067
 30
0.0
 11
-52.9926563306
 21
61.1558216193
 31
0.0
  0
LINE
  5
346
100
AcDbEntity
  8
LAYER0
 62
         5
100
AcDbLine
 10
-46.4926563306
 20
57.5558220067
 30
0.0
 11
-46.4926563306
 21
53.7558220067
 31
0.0
  0
LINE
  5
347
100
AcDbEntity
  8
LAYER0
 62
         5
100
AcDbLine
 10
-46.4926563306
 20
61.1558216193
 30
0.0
 11
-46.4926563306
 21
57.9558220067
 31
0.0
  0
ARC
  5
348
100
AcDbEntity
  8
LAYER0
 62
         5
100
AcDbCircle
 10
-46.4926563306
 20
57.7558220067
 30
0.0
 40
0.2
210
0.0
220
0.0
230
1.0
100
AcDbArc
 50
90.0000015352
 51
269.9999984648
  0
LINE
  5
349
100
AcDbEntity
  8
LAYER0
 62
         5
100
AcDbLine
 10
-52.4926563306
 20
61.6558216193
 30
0.0
 11
-50.6926563306
 21
61.6558216193
 31
0.0
  0
LINE
  5
34A
100
AcDbEntity
  8
LAYER0
 62
         5
100
AcDbLine
 10
-48.7926563306
 20
61.6558216193
 30
0.0
 11
-46.9926563306
 21
61.6558216193
 31
0.0
  0
ARC
  5
34B
100
AcDbEntity
  8
LAYER0
 62
         5
100
AcDbCircle
 10
-52.9926563306
 20
53.2558220067
 30
0.0
 40
0.5
210
0.0
220
0.0
230
1.0
100
AcDbArc
 50
269.9999984648
 51
90.0000015352
  0
ARC
  5
34C
100
AcDbEntity
  8
LAYER0
 62
         5
100
AcDbCircle
 10
-46.4926563306
 20
53.2558220067
 30
0.0
 40
0.5
210
0.0
220
0.0
230
1.0
100
AcDbArc
 50
90.0000015352
 51
269.9999984648
  0
ARC
  5
34D
100
AcDbEntity
  8
LAYER0
 62
         5
100
AcDbCircle
 10
-52.4926563306
 20
61.1558216193
 30
0.0
 40
0.5
210
0.0
220
0.0
230
1.0
100
AcDbArc
 50
90.0000015352
 51
180.0000030705
  0
ARC
  5
34E
100
AcDbEntity
  8
LAYER0
 62
         5
100
AcDbCircle
 10
-46.9926563306
 20
61.1558216193
 30
0.0
 40
0.5
210
-0.0
220
-0.0
230
1.0
100
AcDbArc
 50
360.0
 51
90.0000015352
  0
ARC
  5
34F
100
AcDbEntity
  8
LAYER0
 62
         5
100
AcDbCircle
 10
-50.6926563306
 20
61.8558216193
 30
0.0
 40
0.2
210
-0.0
220
0.0
230
1.0
100
AcDbArc
 50
269.9999984648
 51
0.0
  0
ARC
  5
350
100
AcDbEntity
  8
LAYER0
 62
         5
100
AcDbCircle
 10
-48.7926563306
 20
61.8558216193
 30
0.0
 40
0.2
210
0.0
220
0.0
230
1.0
100
AcDbArc
 50
180.0000030705
 51
269.9999984648
  0
LINE
  5
351
100
AcDbEntity
  8
LAYER0
 62
         5
100
AcDbLine
 10
-52.9926563306
 20
52.7558220067
 30
0.0
 11
-52.9926563306
 21
45.3558223941
 31
0.0
  0
LINE
  5
352
100
AcDbEntity
  8
LAYER0
 62
         5
100
AcDbLine
 10
-46.4926563306
 20
48.9558220067
 30
0.0
 11
-46.4926563306
 21
52.7558220067
 31
0.0
  0
LINE
  5
353
100
AcDbEntity
  8
LAYER0
 62
         5
100
AcDbLine
 10
-46.4926563306
 20
45.3558223941
 30
0.0
 11
-46.4926563306
 21
48.5558220067
 31
0.0
  0
ARC
  5
354
100
AcDbEntity
  8
LAYER0
 62
         5
100
AcDbCircle
 10
-46.4926563306
 20
48.7558220067
 30
0.0
 40
0.2
210
0.0
220
0.0
230
1.0
100
AcDbArc
 50
90.0000015352
 51
269.9999984648
  0
LINE
  5
355
100
AcDbEntity
  8
LAYER0
 62
         5
100
AcDbLine
 10
-50.4926563306
 20
44.6558223941
 30
0.0
 11
-50.4926563306
 21
42.3558223941
 31
0.0
  0
LINE
  5
356
100
AcDbEntity
  8
LAYER0
 62
         5
100
AcDbLine
 10
-48.9926563306
 20
42.3558223941
 30
0.0
 11
-48.9926563306
 21
44.6558223941
 31
0.0
  0
ENDBLK
  5
357
100
AcDbEntity
  8
0
100
AcDbBlockEnd
  0
BLOCK
  5
3E1
100
AcDbEntity
  8
0
100
AcDbBlockBegin
  2
CLUMP34
 70
         0
 10
0.0
 20
0.0
 30
0.0
  3

  1

  0
INSERT
  5
3E3
100
AcDbEntity
  8
0
100
AcDbBlockReference
  2
CLUMP35
 10
0.0
 20
0.0
 30
0.0
  0
ENDBLK
  5
3EE
100
AcDbEntity
  8
0
100
AcDbBlockEnd
  0
BLOCK
  5
3E4
100
AcDbEntity
  8
0
100
AcDbBlockBegin
  2
CLUMP35
 70
         0
 10
0.0
 20
0.0
 30
0.0
  3

  1

  0
LINE
  5
3E5
100
AcDbEntity
  8
LAYER0
 62
         5
100
AcDbLine
 10
-12.4926563157
 20
-67.7470552749
 30
0.0
 11
-16.9926563902
 21
-67.7470552749
 31
0.0
  0
LINE
  5
3E6
100
AcDbEntity
  8
LAYER0
 62
         5
100
AcDbLine
 10
-12.4926563157
 20
-67.7470552749
 30
0.0
 11
-12.4926563157
 21
-47.7470552749
 31
0.0
  0
LINE
  5
3E7
100
AcDbEntity
  8
LAYER0
 62
         5
100
AcDbLine
 10
-17.9926563902
 20
-68.7470552749
 30
0.0
 11
-17.9926563902
 21
-92.7470552749
 31
0.0
  0
ARC
  5
3E8
100
AcDbEntity
  8
LAYER0
 62
         5
100
AcDbCircle
 10
-16.9926563902
 20
-68.7470552749
 30
0.0
 40
1.0
210
0.0
220
0.0
230
1.0
100
AcDbArc
 50
90.0000015352
 51
179.9999969295
  0
LINE
  5
3E9
100
AcDbEntity
  8
LAYER0
 62
         5
100
AcDbLine
 10
-37.9926563902
 20
-92.7470552749
 30
0.0
 11
-17.9926563902
 21
-92.7470552749
 31
0.0
  0
LINE
  5
3EA
100
AcDbEntity
  8
LAYER0
 62
         5
100
AcDbLine
 10
-37.9926563902
 20
-71.9470552749
 30
0.0
 11
-37.9926563902
 21
-92.7470552749
 31
0.0
  0
ARC
  5
3EB
100
AcDbEntity
  8
LAYER0
 62
         5
100
AcDbCircle
 10
-27.9926563902
 20
-57.7470552749
 30
0.0
 40
12.0
210
0.0
220
-0.0
230
1.0
100
AcDbArc
 50
56.4426912009
 51
213.5573072639
  0
LINE
  5
3EC
100
AcDbEntity
  8
LAYER0
 62
         5
100
AcDbLine
 10
-21.3594068095
 20
-47.7470552749
 30
0.0
 11
-12.4926563157
 21
-47.7470552749
 31
0.0
  0
ENDBLK
  5
3ED
100
AcDbEntity
  8
0
100
AcDbBlockEnd
  0
BLOCK
  5
3F1
100
AcDbEntity
  8
0
100
AcDbBlockBegin
  2
CLUMP36
 70
         0
 10
0.0
 20
0.0
 30
0.0
  3

  1

  0
INSERT
  5
3F3
100
AcDbEntity
  8
0
100
AcDbBlockReference
  2
CLUMP37
 10
0.0
 20
0.0
 30
0.0
  0
ENDBLK
  5
3FB
100
AcDbEntity
  8
0
100
AcDbBlockEnd
  0
BLOCK
  5
3F4
100
AcDbEntity
  8
0
100
AcDbBlockBegin
  2
CLUMP37
 70
         0
 10
0.0
 20
0.0
 30
0.0
  3

  1

  0
MTEXT
  5
3F5
100
AcDbEntity
  8
LAYER0
100
AcDbMText
 10
-34.0786405653
 20
-31.7653327133
 30
0.0
 40
2.1473683357
 41
12.8232299805
 71
         1
 72
         1
  1
\W0.8;ロックバー
  0
LINE
  5
3F6
100
AcDbEntity
  8
LAYER0
100
AcDbLine
 10
-34.3786405653
 20
-34.8529914047
 30
0.0
 11
-21.7786405653
 21
-34.8529914047
 31
0.0
  0
LINE
  5
3F7
100
AcDbEntity
  8
LAYER0
100
AcDbLine
 10
-21.7786405653
 20
-34.8529914047
 30
0.0
 11
-21.7786405653
 21
-31.2529914047
 31
0.0
  0
LINE
  5
3F8
100
AcDbEntity
  8
LAYER0
100
AcDbLine
 10
-34.3786405653
 20
-31.2529914047
 30
0.0
 11
-21.7786405653
 21
-31.2529914047
 31
0.0
  0
LINE
  5
3F9
100
AcDbEntity
  8
LAYER0
100
AcDbLine
 10
-34.3786405653
 20
-34.8529914047
 30
0.0
 11
-34.3786405653
 21
-31.2529914047
 31
0.0
  0
ENDBLK
  5
3FA
100
AcDbEntity
  8
0
100
AcDbBlockEnd
  0
BLOCK
  5
401
100
AcDbEntity
  8
0
100
AcDbBlockBegin
  2
CLUMP38
 70
         0
 10
0.0
 20
0.0
 30
0.0
  3

  1

  0
INSERT
  5
403
100
AcDbEntity
  8
0
100
AcDbBlockReference
  2
CLUMP39
 10
0.0
 20
0.0
 30
0.0
  0
ENDBLK
  5
411
100
AcDbEntity
  8
0
100
AcDbBlockEnd
  0
BLOCK
  5
404
100
AcDbEntity
  8
0
100
AcDbBlockBegin
  2
CLUMP39
 70
         0
 10
0.0
 20
0.0
 30
0.0
  3

  1

  0
LINE
  5
405
100
AcDbEntity
  8
LAYER0
  6
CENTER
100
AcDbLine
 10
-65.6249155154
 20
-25.7470552749
 30
0.0
 11
-47.9166155852
 21
-25.7470552749
 31
0.0
  0
LINE
  5
406
100
AcDbEntity
  8
LAYER0
 62
         2
100
AcDbLine
 10
-51.7926565392
 20
-29.2470552749
 30
0.0
 11
-51.7926565392
 21
-22.2470552749
 31
0.0
  0
LINE
  5
407
100
AcDbEntity
  8
LAYER0
 62
         2
100
AcDbLine
 10
-51.7926565392
 20
-29.2470552749
 30
0.0
 11
-50.494438144
 21
-29.1790185318
 31
0.0
  0
LINE
  5
408
100
AcDbEntity
  8
LAYER0
 62
         2
100
AcDbLine
 10
-51.7926565392
 20
-22.2470552749
 30
0.0
 11
-50.494438144
 21
-22.315092018
 31
0.0
  0
ARC
  5
409
100
AcDbEntity
  8
LAYER0
 62
         2
100
AcDbCircle
 10
-50.5448571113
 20
-28.2169673248
 30
0.0
 40
0.9633714741
210
0.0
220
0.0
230
1.0
100
AcDbArc
 50
272.9999985159
 51
341.1510308509
  0
ARC
  5
40A
100
AcDbEntity
  8
LAYER0
 62
         2
100
AcDbCircle
 10
-50.5448571113
 20
-23.277143225
 30
0.0
 40
0.9633714741
210
0.0
220
0.0
230
1.0
100
AcDbArc
 50
18.8489691491
 51
87.0000014841
  0
ARC
  5
40B
100
AcDbEntity
  8
LAYER0
 62
         2
100
AcDbCircle
 10
-58.1926565392
 20
-25.7470552749
 30
0.0
 40
9.0
210
-0.0
220
0.0
230
1.0
100
AcDbArc
 50
341.999999693
 51
18.000000307
  0
LINE
  5
40C
100
AcDbEntity
  8
LAYER0
 62
         5
100
AcDbLine
 10
-51.7926565392
 20
-27.4970552749
 30
0.0
 11
-61.7926565392
 21
-27.4970552749
 31
0.0
  0
LINE
  5
40D
100
AcDbEntity
  8
LAYER0
 62
         5
100
AcDbLine
 10
-51.7926565392
 20
-23.9970552749
 30
0.0
 11
-61.7926565392
 21
-23.9970552749
 31
0.0
  0
LINE
  5
40E
100
AcDbEntity
  8
LAYER0
 62
         2
100
AcDbLine
 10
-51.7926565392
 20
-27.7470552749
 30
0.0
 11
-61.7926565392
 21
-27.7470552749
 31
0.0
  0
LINE
  5
40F
100
AcDbEntity
  8
LAYER0
 62
         2
100
AcDbLine
 10
-51.7926565392
 20
-23.7470552749
 30
0.0
 11
-61.7926565392
 21
-23.7470552749
 31
0.0
  0
ENDBLK
  5
410
100
AcDbEntity
  8
0
100
AcDbBlockEnd
  0
BLOCK
  5
414
100
AcDbEntity
  8
0
100
AcDbBlockBegin
  2
CLUMP40
 70
         0
 10
0.0
 20
0.0
 30
0.0
  3

  1

  0
INSERT
  5
416
100
AcDbEntity
  8
0
100
AcDbBlockReference
  2
CLUMP41
 10
0.0
 20
0.0
 30
0.0
  0
ENDBLK
  5
424
100
AcDbEntity
  8
0
100
AcDbBlockEnd
  0
BLOCK
  5
417
100
AcDbEntity
  8
0
100
AcDbBlockBegin
  2
CLUMP41
 70
         0
 10
0.0
 20
0.0
 30
0.0
  3

  1

  0
LINE
  5
418
100
AcDbEntity
  8
LAYER0
  6
CENTER
100
AcDbLine
 10
-65.6249155154
 20
-42.7470552749
 30
0.0
 11
-47.9166155852
 21
-42.7470552749
 31
0.0
  0
LINE
  5
419
100
AcDbEntity
  8
LAYER0
 62
         2
100
AcDbLine
 10
-51.7926565392
 20
-46.2470552749
 30
0.0
 11
-51.7926565392
 21
-39.2470552749
 31
0.0
  0
LINE
  5
41A
100
AcDbEntity
  8
LAYER0
 62
         2
100
AcDbLine
 10
-51.7926565392
 20
-46.2470552749
 30
0.0
 11
-50.494438144
 21
-46.1790185318
 31
0.0
  0
LINE
  5
41B
100
AcDbEntity
  8
LAYER0
 62
         2
100
AcDbLine
 10
-51.7926565392
 20
-39.2470552749
 30
0.0
 11
-50.494438144
 21
-39.315092018
 31
0.0
  0
ARC
  5
41C
100
AcDbEntity
  8
LAYER0
 62
         2
100
AcDbCircle
 10
-50.5448571113
 20
-45.2169673248
 30
0.0
 40
0.9633714741
210
0.0
220
0.0
230
1.0
100
AcDbArc
 50
272.9999985159
 51
341.1510308509
  0
ARC
  5
41D
100
AcDbEntity
  8
LAYER0
 62
         2
100
AcDbCircle
 10
-50.5448571113
 20
-40.277143225
 30
0.0
 40
0.9633714741
210
0.0
220
0.0
230
1.0
100
AcDbArc
 50
18.8489691491
 51
87.0000014841
  0
ARC
  5
41E
100
AcDbEntity
  8
LAYER0
 62
         2
100
AcDbCircle
 10
-58.1926565392
 20
-42.7470552749
 30
0.0
 40
9.0
210
-0.0
220
0.0
230
1.0
100
AcDbArc
 50
341.999999693
 51
18.000000307
  0
LINE
  5
41F
100
AcDbEntity
  8
LAYER0
 62
         5
100
AcDbLine
 10
-51.7926565392
 20
-44.4970552749
 30
0.0
 11
-61.7926565392
 21
-44.4970552749
 31
0.0
  0
LINE
  5
420
100
AcDbEntity
  8
LAYER0
 62
         5
100
AcDbLine
 10
-51.7926565392
 20
-40.9970552749
 30
0.0
 11
-61.7926565392
 21
-40.9970552749
 31
0.0
  0
LINE
  5
421
100
AcDbEntity
  8
LAYER0
 62
         2
100
AcDbLine
 10
-51.7926565392
 20
-44.7470552749
 30
0.0
 11
-61.7926565392
 21
-44.7470552749
 31
0.0
  0
LINE
  5
422
100
AcDbEntity
  8
LAYER0
 62
         2
100
AcDbLine
 10
-51.7926565392
 20
-40.7470552749
 30
0.0
 11
-61.7926565392
 21
-40.7470552749
 31
0.0
  0
ENDBLK
  5
423
100
AcDbEntity
  8
0
100
AcDbBlockEnd
  0
BLOCK
  5
4B3
100
AcDbEntity
  8
0
100
AcDbBlockBegin
  2
CLUMP42
 70
         0
 10
0.0
 20
0.0
 30
0.0
  3

  1

  0
INSERT
  5
4B5
100
AcDbEntity
  8
0
100
AcDbBlockReference
  2
CLUMP43
 10
0.0
 20
0.0
 30
0.0
  0
ENDBLK
  5
531
100
AcDbEntity
  8
0
100
AcDbBlockEnd
  0
BLOCK
  5
4B6
100
AcDbEntity
  8
0
100
AcDbBlockBegin
  2
CLUMP43
 70
         0
 10
0.0
 20
0.0
 30
0.0
  3

  1

  0
LINE
  5
4B7
100
AcDbEntity
  8
LAYER0
 62
         4
100
AcDbLine
 10
-40.0784427682
 20
64.2809482129
 30
0.0
 11
-42.6269710397
 21
66.8294764845
 31
0.0
  0
LINE
  5
4B8
100
AcDbEntity
  8
LAYER0
 62
         4
100
AcDbLine
 10
-36.9926560028
 20
37.2558219322
 30
0.0
 11
-41.000625443
 21
37.2558219322
 31
0.0
  0
LINE
  5
4B9
100
AcDbEntity
  8
LAYER0
 62
         4
100
AcDbLine
 10
-39.0177825964
 20
41.1700356287
 30
0.0
 11
-41.566310868
 21
38.6215073571
 31
0.0
  0
LINE
  5
4BA
100
AcDbEntity
  8
LAYER0
 62
         4
100
AcDbLine
 10
-43.9926564647
 20
44.2558223941
 30
0.0
 11
-43.9926564647
 21
40.2478529539
 31
0.0
  0
LINE
  5
4BB
100
AcDbEntity
  8
LAYER0
 62
         4
100
AcDbLine
 10
-40.0784427682
 20
42.2306958004
 30
0.0
 11
-42.6269710397
 21
39.6821675289
 31
0.0
  0
LINE
  5
4BC
100
AcDbEntity
  8
LAYER0
 62
         4
100
AcDbLine
 10
-28.5926563902
 20
41.7558220663
 30
0.0
 11
-37.6035690341
 21
41.7558220663
 31
0.0
  0
LINE
  5
4BD
100
AcDbEntity
  8
LAYER0
 62
         4
100
AcDbLine
 10
-36.9926560028
 20
37.2558219322
 30
0.0
 11
-36.9926560028
 21
36.2558210828
 31
0.0
  0
ARC
  5
4BE
100
AcDbEntity
  8
LAYER0
 62
         4
100
AcDbCircle
 10
-37.4926563902
 20
36.2558220067
 30
0.0
 40
0.5
210
0.0
220
0.0
230
1.0
100
AcDbArc
 50
269.9999984648
 51
359.9999969295
  0
LINE
  5
4BF
100
AcDbEntity
  8
LAYER0
 62
         4
100
AcDbLine
 10
-37.4926560847
 20
35.7558219322
 30
0.0
 11
-41.9926564647
 21
35.7558219322
 31
0.0
  0
LINE
  5
4C0
100
AcDbEntity
  8
LAYER0
 62
         4
100
AcDbLine
 10
-37.6035690341
 20
64.7558219471
 30
0.0
 11
-28.5926563902
 21
64.7558219471
 31
0.0
  0
LINE
  5
4C1
100
AcDbEntity
  8
LAYER0
 62
         4
100
AcDbLine
 10
-45.4926564647
 20
39.2558219322
 30
0.0
 11
-45.4926564647
 21
43.7558223121
 31
0.0
  0
ARC
  5
4C2
100
AcDbEntity
  8
LAYER0
 62
         4
100
AcDbCircle
 10
-44.9926563902
 20
43.7558220067
 30
0.0
 40
0.5
210
0.0
220
0.0
230
1.0
100
AcDbArc
 50
90.0000015352
 51
180.0
  0
LINE
  5
4C3
100
AcDbEntity
  8
LAYER0
 62
         4
100
AcDbLine
 10
-44.9926573141
 20
44.2558223941
 30
0.0
 11
-43.9926564647
 21
44.2558223941
 31
0.0
  0
LINE
  5
4C4
100
AcDbEntity
  8
LAYER0
 62
         4
100
AcDbLine
 10
-39.4926563306
 20
43.6449093628
 30
0.0
 11
-39.4926563306
 21
52.6558220067
 31
0.0
  0
LINE
  5
4C5
100
AcDbEntity
  8
LAYER0
 62
         4
100
AcDbLine
 10
-39.4926563306
 20
52.6558220067
 30
0.0
 11
-38.9926562486
 21
53.2558220067
 31
0.0
  0
LINE
  5
4C6
100
AcDbEntity
  8
LAYER0
 62
         4
100
AcDbLine
 10
-38.9926562486
 20
53.2558220067
 30
0.0
 11
-39.4926563306
 21
53.8558220067
 31
0.0
  0
LINE
  5
4C7
100
AcDbEntity
  8
LAYER0
 62
         4
100
AcDbLine
 10
-36.9926560028
 20
69.2558220812
 30
0.0
 11
-36.9926560028
 21
70.2558229306
 31
0.0
  0
ARC
  5
4C8
100
AcDbEntity
  8
LAYER0
 62
         4
100
AcDbCircle
 10
-37.4926563902
 20
70.2558220067
 30
0.0
 40
0.5
210
-0.0
220
-0.0
230
1.0
100
AcDbArc
 50
359.9999969295
 51
90.0000015352
  0
LINE
  5
4C9
100
AcDbEntity
  8
LAYER0
 62
         4
100
AcDbLine
 10
-37.4926560847
 20
70.7558220812
 30
0.0
 11
-41.9926564647
 21
70.7558220812
 31
0.0
  0
LINE
  5
4CA
100
AcDbEntity
  8
LAYER0
 62
         4
100
AcDbLine
 10
-45.4926564647
 20
67.2558220812
 30
0.0
 11
-45.4926564647
 21
62.7558217012
 31
0.0
  0
ARC
  5
4CB
100
AcDbEntity
  8
LAYER0
 62
         4
100
AcDbCircle
 10
-44.9926563902
 20
62.7558220067
 30
0.0
 40
0.5
210
0.0
220
0.0
230
1.0
100
AcDbArc
 50
180.0
 51
269.9999984648
  0
LINE
  5
4CC
100
AcDbEntity
  8
LAYER0
 62
         4
100
AcDbLine
 10
-27.9926563902
 20
42.2558221482
 30
0.0
 11
-28.5926563902
 21
41.7558220663
 31
0.0
  0
LINE
  5
4CD
100
AcDbEntity
  8
LAYER0
 62
         4
100
AcDbLine
 10
-18.3817437463
 20
64.7558219471
 30
0.0
 11
-27.9926563902
 21
64.7558219471
 31
0.0
  0
LINE
  5
4CE
100
AcDbEntity
  8
LAYER0
 62
         4
100
AcDbLine
 10
-18.0281903557
 20
41.7558220663
 30
0.0
 11
-27.3926563902
 21
41.7558220663
 31
0.0
  0
LINE
  5
4CF
100
AcDbEntity
  8
LAYER0
 62
         4
100
AcDbLine
 10
-39.4926563306
 20
62.8667346506
 30
0.0
 11
-39.4926563306
 21
53.8558220067
 31
0.0
  0
ARC
  5
4D0
100
AcDbEntity
  8
LAYER0
 62
         4
100
AcDbCircle
 10
-37.6035690341
 20
39.7558220663
 30
0.0
 40
2.0
210
0.0
220
0.0
230
1.0
100
AcDbArc
 50
90.0000015352
 51
135.0000038381
  0
ARC
  5
4D1
100
AcDbEntity
  8
LAYER0
 62
         4
100
AcDbCircle
 10
-41.4926563306
 20
43.6449093628
 30
0.0
 40
2.0
210
0.0
220
0.0
230
1.0
100
AcDbArc
 50
314.9999946267
 51
359.9999969295
  0
ARC
  5
4D2
100
AcDbEntity
  8
LAYER0
 62
         4
100
AcDbCircle
 10
-41.4926563306
 20
62.8667346506
 30
0.0
 40
2.0
210
-0.0
220
0.0
230
1.0
100
AcDbArc
 50
359.9999969295
 51
44.9999992324
  0
ARC
  5
4D3
100
AcDbEntity
  8
LAYER0
 62
         4
100
AcDbCircle
 10
-37.6035690341
 20
66.7558219471
 30
0.0
 40
2.0
210
0.0
220
0.0
230
1.0
100
AcDbArc
 50
225.0000023029
 51
269.9999984648
  0
ARC
  5
4D4
100
AcDbEntity
  8
LAYER0
 62
         4
100
AcDbCircle
 10
-41.000625443
 20
68.4558220812
 30
0.0
 40
0.8
210
0.0
220
0.0
230
1.0
100
AcDbArc
 50
90.0000015352
 51
225.0000023029
  0
ARC
  5
4D5
100
AcDbEntity
  8
LAYER0
 62
         4
100
AcDbCircle
 10
-43.1926564647
 20
66.2637910595
 30
0.0
 40
0.8
210
0.0
220
-0.0
230
1.0
100
AcDbArc
 50
44.9999992324
 51
180.0
  0
ARC
  5
4D6
100
AcDbEntity
  8
LAYER0
 62
         4
100
AcDbCircle
 10
-41.000625443
 20
38.0558219322
 30
0.0
 40
0.8
210
0.0
220
0.0
230
1.0
100
AcDbArc
 50
135.0000038381
 51
269.9999984648
  0
ARC
  5
4D7
100
AcDbEntity
  8
LAYER0
 62
         4
100
AcDbCircle
 10
-43.1926564647
 20
40.2478529539
 30
0.0
 40
0.8
210
0.0
220
0.0
230
1.0
100
AcDbArc
 50
180.0
 51
314.9999946267
  0
LINE
  5
4D8
100
AcDbEntity
  8
LAYER0
 62
         4
100
AcDbLine
 10
-14.9846873374
 20
69.2558220812
 30
0.0
 11
-18.9926567776
 21
69.2558220812
 31
0.0
  0
LINE
  5
4D9
100
AcDbEntity
  8
LAYER0
 62
         4
100
AcDbLine
 10
-14.9846873374
 20
37.2558219322
 30
0.0
 11
-18.9926567776
 21
37.2558219322
 31
0.0
  0
LINE
  5
4DA
100
AcDbEntity
  8
LAYER0
 62
         4
100
AcDbLine
 10
-18.9926567776
 20
37.2558219322
 30
0.0
 11
-18.9926567776
 21
36.2558210828
 31
0.0
  0
ARC
  5
4DB
100
AcDbEntity
  8
LAYER0
 62
         4
100
AcDbCircle
 10
-18.4926563902
 20
36.2558220067
 30
0.0
 40
0.5
210
0.0
220
0.0
230
1.0
100
AcDbArc
 50
180.0
 51
269.9999984648
  0
LINE
  5
4DC
100
AcDbEntity
  8
LAYER0
 62
         4
100
AcDbLine
 10
-18.4926566956
 20
35.7558219322
 30
0.0
 11
-9.4926563157
 21
35.7558219322
 31
0.0
  0
LINE
  5
4DD
100
AcDbEntity
  8
LAYER0
 62
         4
100
AcDbLine
 10
-18.9926567776
 20
69.2558220812
 30
0.0
 11
-18.9926567776
 21
70.2558229306
 31
0.0
  0
ARC
  5
4DE
100
AcDbEntity
  8
LAYER0
 62
         4
100
AcDbCircle
 10
-18.4926563902
 20
70.2558220067
 30
0.0
 40
0.5
210
0.0
220
0.0
230
1.0
100
AcDbArc
 50
90.0000015352
 51
180.0
  0
LINE
  5
4DF
100
AcDbEntity
  8
LAYER0
 62
         4
100
AcDbLine
 10
-18.4926566956
 20
70.7558220812
 30
0.0
 11
-14.9926563902
 21
70.7558220812
 31
0.0
  0
LINE
  5
4E0
100
AcDbEntity
  8
LAYER0
 62
         4
100
AcDbLine
 10
2.5073436843
 20
47.7558219322
 30
0.0
 11
2.5073436843
 21
51.7558220067
 31
0.0
  0
POINT
  5
4E1
100
AcDbEntity
  8
LAYER0
 62
         2
100
AcDbPoint
 10
-27.9926563902
 20
53.2558220067
 30
0.0
  0
LINE
  5
4E2
100
AcDbEntity
  8
LAYER0
 62
         4
100
AcDbLine
 10
-36.9926560028
 20
69.2558220812
 30
0.0
 11
-41.000625443
 21
69.2558220812
 31
0.0
  0
LINE
  5
4E3
100
AcDbEntity
  8
LAYER0
 62
         4
100
AcDbLine
 10
-43.9926564647
 20
62.2558216193
 30
0.0
 11
-43.9926564647
 21
66.2637910595
 31
0.0
  0
LINE
  5
4E4
100
AcDbEntity
  8
LAYER0
 62
         4
100
AcDbLine
 10
-39.0177825964
 20
65.3416083847
 30
0.0
 11
-41.566310868
 21
67.8901366562
 31
0.0
  0
LINE
  5
4E5
100
AcDbEntity
  8
LAYER0
 62
         4
100
AcDbLine
 10
2.0073436843
 20
52.2558220067
 30
0.0
 11
-6.3926563157
 21
52.2558220067
 31
0.0
  0
LINE
  5
4E6
100
AcDbEntity
  8
LAYER0
 62
         4
100
AcDbLine
 10
-7.5926563157
 20
52.2558220067
 30
0.0
 11
-16.1926566137
 21
52.2558220067
 31
0.0
  0
LINE
  5
4E7
100
AcDbEntity
  8
LAYER0
 62
         4
100
AcDbLine
 10
-16.4926566137
 20
63.280948049
 30
0.0
 11
-16.4926566137
 21
52.5558220067
 31
0.0
  0
ARC
  5
4E8
100
AcDbEntity
  8
LAYER0
 62
         4
100
AcDbCircle
 10
-14.9846873374
 20
68.4558220812
 30
0.0
 40
0.8
210
-0.0
220
-0.0
230
1.0
100
AcDbArc
 50
314.9999946267
 51
90.0000015352
  0
LINE
  5
4E9
100
AcDbEntity
  8
LAYER0
 62
         4
100
AcDbLine
 10
-16.9675301839
 20
65.3416083847
 30
0.0
 11
-14.4190019124
 21
67.8901366562
 31
0.0
  0
LINE
  5
4EA
100
AcDbEntity
  8
LAYER0
 62
         4
100
AcDbLine
 10
-18.4926566137
 20
42.7558220663
 30
0.0
 11
-23.4926563902
 21
42.7558220663
 31
0.0
  0
LINE
  5
4EB
100
AcDbEntity
  8
LAYER0
 62
         4
100
AcDbLine
 10
-16.4926566137
 20
50.9558220067
 30
0.0
 11
-16.4926566137
 21
42.5235891832
 31
0.0
  0
LINE
  5
4EC
100
AcDbEntity
  8
LAYER0
 62
         4
100
AcDbLine
 10
-10.9926563157
 20
51.2558220067
 30
0.0
 11
-16.1926566137
 21
51.2558220067
 31
0.0
  0
LINE
  5
4ED
100
AcDbEntity
  8
LAYER0
 62
         4
100
AcDbLine
 10
-9.4926563157
 20
36.7558219322
 30
0.0
 11
-12.6926563902
 21
36.7558219322
 31
0.0
  0
LINE
  5
4EE
100
AcDbEntity
  8
LAYER0
 62
         4
100
AcDbLine
 10
1.0073436843
 20
51.2558220067
 30
0.0
 11
-2.9926563157
 21
51.2558220067
 31
0.0
  0
LINE
  5
4EF
100
AcDbEntity
  8
LAYER0
 62
         4
100
AcDbLine
 10
1.5073436843
 20
47.7558219322
 30
0.0
 11
1.5073436843
 21
50.7558220067
 31
0.0
  0
LINE
  5
4F0
100
AcDbEntity
  8
LAYER0
 62
         4
100
AcDbLine
 10
-18.4926566137
 20
63.7558219471
 30
0.0
 11
-23.4926563902
 21
63.7558219471
 31
0.0
  0
LINE
  5
4F1
100
AcDbEntity
  8
LAYER0
 62
         4
100
AcDbLine
 10
-37.4926563306
 20
42.7558220663
 30
0.0
 11
-32.4926563902
 21
42.7558220663
 31
0.0
  0
LINE
  5
4F2
100
AcDbEntity
  8
LAYER0
 62
         4
100
AcDbLine
 10
-37.4926563306
 20
63.7558219471
 30
0.0
 11
-32.4926563902
 21
63.7558219471
 31
0.0
  0
LINE
  5
4F3
100
AcDbEntity
  8
LAYER0
 62
         4
100
AcDbLine
 10
-38.4926563306
 20
62.7558219471
 30
0.0
 11
-38.4926563306
 21
57.7558220067
 31
0.0
  0
LINE
  5
4F4
100
AcDbEntity
  8
LAYER0
 62
         4
100
AcDbLine
 10
-38.4926563306
 20
48.7558220067
 30
0.0
 11
-38.4926563306
 21
43.7558220663
 31
0.0
  0
ARC
  5
4F5
100
AcDbEntity
  8
LAYER0
 62
         4
100
AcDbCircle
 10
-37.4926563306
 20
62.7558219471
 30
0.0
 40
1.0
210
0.0
220
0.0
230
1.0
100
AcDbArc
 50
90.0000015352
 51
179.9999984648
  0
ARC
  5
4F6
100
AcDbEntity
  8
LAYER0
 62
         4
100
AcDbCircle
 10
-37.4926563306
 20
43.7558220663
 30
0.0
 40
1.0
210
0.0
220
0.0
230
1.0
100
AcDbArc
 50
179.9999984648
 51
269.9999953943
  0
LINE
  5
4F7
100
AcDbEntity
  8
LAYER0
 62
         4
100
AcDbLine
 10
-17.2604234028
 20
41.4629288475
 30
0.0
 11
-14.4190019124
 21
38.6215073571
 31
0.0
  0
ARC
  5
4F8
100
AcDbEntity
  8
LAYER0
 62
         4
100
AcDbCircle
 10
-17.9675301839
 20
40.7558220663
 30
0.0
 40
1.0
210
0.0
220
-0.0
230
1.0
100
AcDbArc
 50
45.0000023029
 51
90.0000046057
  0
ARC
  5
4F9
100
AcDbEntity
  8
LAYER0
 62
         4
100
AcDbCircle
 10
-14.9846873374
 20
38.0558219322
 30
0.0
 40
0.8
210
-0.0
220
0.0
230
1.0
100
AcDbArc
 50
269.9999953943
 51
45.0000023029
  0
LINE
  5
4FA
100
AcDbEntity
  8
LAYER0
 62
         4
100
AcDbLine
 10
-44.9926573141
 20
62.2558216193
 30
0.0
 11
-43.9926564647
 21
62.2558216193
 31
0.0
  0
LINE
  5
4FB
100
AcDbEntity
  8
LAYER0
 62
         4
100
AcDbLine
 10
-28.5926563902
 20
64.7558219471
 30
0.0
 11
-27.9926563902
 21
64.2558218651
 31
0.0
  0
LINE
  5
4FC
100
AcDbEntity
  8
LAYER0
 62
         4
100
AcDbLine
 10
-27.9926563902
 20
64.2558218651
 30
0.0
 11
-27.3926563902
 21
64.7558219471
 31
0.0
  0
LINE
  5
4FD
100
AcDbEntity
  8
LAYER0
 62
         4
100
AcDbLine
 10
-27.3926563902
 20
41.7558220663
 30
0.0
 11
-27.9926563902
 21
42.2558221482
 31
0.0
  0
LINE
  5
4FE
100
AcDbEntity
  8
LAYER0
 62
         4
100
AcDbLine
 10
-17.4926566137
 20
62.7558219471
 30
0.0
 11
-17.4926566137
 21
43.7558220663
 31
0.0
  0
ARC
  5
4FF
100
AcDbEntity
  8
LAYER0
 62
         4
100
AcDbCircle
 10
-15.4926566137
 20
42.5235891832
 30
0.0
 40
1.0
210
0.0
220
0.0
230
1.0
100
AcDbArc
 50
179.9999984648
 51
225.0
  0
ARC
  5
500
100
AcDbEntity
  8
LAYER0
 62
         4
100
AcDbCircle
 10
-15.4926566137
 20
63.280948049
 30
0.0
 40
1.0
210
0.0
220
0.0
230
1.0
100
AcDbArc
 50
135.0000030705
 51
179.9999984648
  0
ARC
  5
501
100
AcDbEntity
  8
LAYER0
 62
         4
100
AcDbCircle
 10
-9.4926563157
 20
47.7558219322
 30
0.0
 40
12.0
210
0.0
220
0.0
230
1.0
100
AcDbArc
 50
269.9999953943
 51
359.9999984648
  0
ARC
  5
502
100
AcDbEntity
  8
LAYER0
 62
         4
100
AcDbCircle
 10
-9.4926563157
 20
47.7558219322
 30
0.0
 40
11.0
210
0.0
220
0.0
230
1.0
100
AcDbArc
 50
269.9999953943
 51
359.9999984648
  0
ARC
  5
503
100
AcDbEntity
  8
LAYER0
 62
         4
100
AcDbCircle
 10
-14.9926563902
 20
68.4558220812
 30
0.0
 40
2.3
210
-0.0
220
-0.0
230
1.0
100
AcDbArc
 50
359.9999984648
 51
90.0000015352
  0
LINE
  5
504
100
AcDbEntity
  8
LAYER0
 62
         4
100
AcDbLine
 10
-12.6926563902
 20
68.4558220812
 30
0.0
 11
-12.6926563902
 21
68.1164821785
 31
0.0
  0
ARC
  5
505
100
AcDbEntity
  8
LAYER0
 62
         4
100
AcDbCircle
 10
-14.1926563902
 20
68.1164821785
 30
0.0
 40
1.5
210
0.0
220
0.0
230
1.0
100
AcDbArc
 50
314.9999969295
 51
359.9999984648
  0
LINE
  5
506
100
AcDbEntity
  8
LAYER0
 62
         4
100
AcDbLine
 10
-13.1926563902
 20
37.2558219322
 30
0.0
 11
-13.1926563902
 21
38.063790985
 31
0.0
  0
ARC
  5
507
100
AcDbEntity
  8
LAYER0
 62
         4
100
AcDbCircle
 10
-14.9926563902
 20
38.063790985
 30
0.0
 40
1.8
210
-0.0
220
0.0
230
1.0
100
AcDbArc
 50
359.9999984648
 51
45.0
  0
ARC
  5
508
100
AcDbEntity
  8
LAYER0
 62
         4
100
AcDbCircle
 10
1.0073436843
 20
50.7558220067
 30
0.0
 40
0.5
210
-0.0
220
-0.0
230
1.0
100
AcDbArc
 50
359.9999984648
 51
90.0000015352
  0
ARC
  5
509
100
AcDbEntity
  8
LAYER0
 62
         4
100
AcDbCircle
 10
-12.6926563902
 20
37.2558219322
 30
0.0
 40
0.5
210
0.0
220
0.0
230
1.0
100
AcDbArc
 50
179.9999984648
 51
269.9999953943
  0
ARC
  5
50A
100
AcDbEntity
  8
LAYER0
 62
         4
100
AcDbCircle
 10
-41.9926564647
 20
39.2558219322
 30
0.0
 40
3.5
210
0.0
220
0.0
230
1.0
100
AcDbArc
 50
179.9999984648
 51
269.9999953943
  0
ARC
  5
50B
100
AcDbEntity
  8
LAYER0
 62
         4
100
AcDbCircle
 10
-41.9926564647
 20
67.2558220812
 30
0.0
 40
3.5
210
0.0
220
0.0
230
1.0
100
AcDbArc
 50
90.0000015352
 51
179.9999984648
  0
ARC
  5
50C
100
AcDbEntity
  8
LAYER0
 62
         4
100
AcDbCircle
 10
-16.1926566137
 20
52.5558220067
 30
0.0
 40
0.3
210
0.0
220
0.0
230
1.0
100
AcDbArc
 50
179.9999984648
 51
269.9999953943
  0
ARC
  5
50D
100
AcDbEntity
  8
LAYER0
 62
         4
100
AcDbCircle
 10
-16.1926566137
 20
50.9558220067
 30
0.0
 40
0.3
210
0.0
220
0.0
230
1.0
100
AcDbArc
 50
90.0000015352
 51
179.9999984648
  0
LINE
  5
50E
100
AcDbEntity
  8
LAYER0
 62
         4
100
AcDbLine
 10
-8.9664847267
 20
50.0558220067
 30
0.0
 11
-5.0188279047
 21
50.0558220067
 31
0.0
  0
LINE
  5
50F
100
AcDbEntity
  8
LAYER0
 62
         4
100
AcDbLine
 10
-2.9926563157
 20
51.2558220067
 30
0.0
 11
-4.0817853334
 21
50.3845187925
 31
0.0
  0
LINE
  5
510
100
AcDbEntity
  8
LAYER0
 62
         4
100
AcDbLine
 10
-9.903527298
 20
50.3845187925
 30
0.0
 11
-10.9926563157
 21
51.2558220067
 31
0.0
  0
ARC
  5
511
100
AcDbEntity
  8
LAYER0
 62
         4
100
AcDbCircle
 10
-5.0188279047
 20
51.5558220067
 30
0.0
 40
1.5
210
0.0
220
0.0
230
1.0
100
AcDbArc
 50
269.9999953943
 51
308.6598049673
  0
ARC
  5
512
100
AcDbEntity
  8
LAYER0
 62
         4
100
AcDbCircle
 10
-8.9664847267
 20
51.5558220067
 30
0.0
 40
1.5
210
0.0
220
0.0
230
1.0
100
AcDbArc
 50
231.3401919622
 51
269.9999953943
  0
LINE
  5
513
100
AcDbEntity
  8
LAYER0
 62
         4
100
AcDbLine
 10
-16.1997633949
 20
63.9880548302
 30
0.0
 11
-13.1319962184
 21
67.0558220067
 31
0.0
  0
ARC
  5
514
100
AcDbEntity
  8
LAYER0
 62
         4
100
AcDbCircle
 10
2.0073436843
 20
51.7558220067
 30
0.0
 40
0.5
210
-0.0
220
-0.0
230
1.0
100
AcDbArc
 50
359.9999969295
 51
90.0000015352
  0
LINE
  5
515
100
AcDbEntity
  8
LAYER0
 62
         4
100
AcDbLine
 10
-7.5926563157
 20
52.2558220067
 30
0.0
 11
-6.9926563157
 21
51.7558219247
 31
0.0
  0
LINE
  5
516
100
AcDbEntity
  8
LAYER0
 62
         4
100
AcDbLine
 10
-6.9926563157
 20
51.7558219247
 30
0.0
 11
-6.3926563157
 21
52.2558220067
 31
0.0
  0
LINE
  5
517
100
AcDbEntity
  8
LAYER0
 62
         4
100
AcDbLine
 10
-24.5817854079
 20
43.6271252805
 30
0.0
 11
-23.4926563902
 21
42.7558220663
 31
0.0
  0
ARC
  5
518
100
AcDbEntity
  8
LAYER0
 62
         4
100
AcDbCircle
 10
-25.5188279792
 20
42.4558220663
 30
0.0
 40
1.5
210
0.0
220
-0.0
230
1.0
100
AcDbArc
 50
51.3401919622
 51
90.0000015352
  0
LINE
  5
519
100
AcDbEntity
  8
LAYER0
 62
         4
100
AcDbLine
 10
-28.5926563902
 20
43.9558220663
 30
0.0
 11
-27.9926563902
 21
43.4558219843
 31
0.0
  0
LINE
  5
51A
100
AcDbEntity
  8
LAYER0
 62
         4
100
AcDbLine
 10
-27.9926563902
 20
43.4558219843
 30
0.0
 11
-27.3926563902
 21
43.9558220663
 31
0.0
  0
LINE
  5
51B
100
AcDbEntity
  8
LAYER0
 62
         4
100
AcDbLine
 10
-25.5188279792
 20
43.9558220663
 30
0.0
 11
-27.3926563902
 21
43.9558220663
 31
0.0
  0
LINE
  5
51C
100
AcDbEntity
  8
LAYER0
 62
         4
100
AcDbLine
 10
-28.5926563902
 20
43.9558220663
 30
0.0
 11
-30.4664848012
 21
43.9558220663
 31
0.0
  0
ARC
  5
51D
100
AcDbEntity
  8
LAYER0
 62
         4
100
AcDbCircle
 10
-30.4664848012
 20
42.4558220663
 30
0.0
 40
1.5
210
0.0
220
0.0
230
1.0
100
AcDbArc
 50
90.0000015352
 51
128.6598111083
  0
LINE
  5
51E
100
AcDbEntity
  8
LAYER0
 62
         4
100
AcDbLine
 10
-31.4035273725
 20
43.6271252805
 30
0.0
 11
-32.4926563902
 21
42.7558220663
 31
0.0
  0
LINE
  5
51F
100
AcDbEntity
  8
LAYER0
 62
         4
100
AcDbLine
 10
-37.2926563306
 20
50.7819935957
 30
0.0
 11
-37.2926563306
 21
55.7296504176
 31
0.0
  0
LINE
  5
520
100
AcDbEntity
  8
LAYER0
 62
         4
100
AcDbLine
 10
-37.6213531164
 20
56.666692989
 30
0.0
 11
-38.4926563306
 21
57.7558220067
 31
0.0
  0
LINE
  5
521
100
AcDbEntity
  8
LAYER0
 62
         4
100
AcDbLine
 10
-37.6213531164
 20
49.8449510244
 30
0.0
 11
-38.4926563306
 21
48.7558220067
 31
0.0
  0
ARC
  5
522
100
AcDbEntity
  8
LAYER0
 62
         4
100
AcDbCircle
 10
-38.7926563306
 20
50.7819935957
 30
0.0
 40
1.5
210
0.0
220
0.0
230
1.0
100
AcDbArc
 50
321.3401888917
 51
359.9999984648
  0
ARC
  5
523
100
AcDbEntity
  8
LAYER0
 62
         4
100
AcDbCircle
 10
-38.7926563306
 20
55.7296504176
 30
0.0
 40
1.5
210
-0.0
220
0.0
230
1.0
100
AcDbArc
 50
359.9999984648
 51
38.6598080378
  0
LINE
  5
524
100
AcDbEntity
  8
LAYER0
 62
         4
100
AcDbLine
 10
-24.5817854079
 20
62.8845187329
 30
0.0
 11
-23.4926563902
 21
63.7558219471
 31
0.0
  0
ARC
  5
525
100
AcDbEntity
  8
LAYER0
 62
         4
100
AcDbCircle
 10
-25.5188279792
 20
64.0558219471
 30
0.0
 40
1.5
210
0.0
220
0.0
230
1.0
100
AcDbArc
 50
269.9999953943
 51
308.6598049673
  0
LINE
  5
526
100
AcDbEntity
  8
LAYER0
 62
         4
100
AcDbLine
 10
-28.5926563902
 20
62.5558219471
 30
0.0
 11
-27.9926563902
 21
63.055822029
 31
0.0
  0
LINE
  5
527
100
AcDbEntity
  8
LAYER0
 62
         4
100
AcDbLine
 10
-27.9926563902
 20
63.055822029
 30
0.0
 11
-27.3926563902
 21
62.5558219471
 31
0.0
  0
LINE
  5
528
100
AcDbEntity
  8
LAYER0
 62
         4
100
AcDbLine
 10
-25.5188279792
 20
62.5558219471
 30
0.0
 11
-27.3926563902
 21
62.5558219471
 31
0.0
  0
LINE
  5
529
100
AcDbEntity
  8
LAYER0
 62
         4
100
AcDbLine
 10
-28.5926563902
 20
62.5558219471
 30
0.0
 11
-30.4664848012
 21
62.5558219471
 31
0.0
  0
ARC
  5
52A
100
AcDbEntity
  8
LAYER0
 62
         4
100
AcDbCircle
 10
-30.4664848012
 20
64.0558219471
 30
0.0
 40
1.5
210
0.0
220
0.0
230
1.0
100
AcDbArc
 50
231.3401919622
 51
269.9999953943
  0
LINE
  5
52B
100
AcDbEntity
  8
LAYER0
 62
         4
100
AcDbLine
 10
-31.4035273725
 20
62.8845187329
 30
0.0
 11
-32.4926563902
 21
63.7558219471
 31
0.0
  0
LINE
  5
52C
100
AcDbEntity
  8
LAYER0
 62
         4
100
AcDbLine
 10
-13.7198641841
 20
39.3365831911
 30
0.0
 11
-16.1997633949
 21
41.816482402
 31
0.0
  0
ARC
  5
52D
100
AcDbEntity
  8
LAYER0
 62
         4
100
AcDbCircle
 10
-18.3817437463
 20
66.7558219471
 30
0.0
 40
2.0
210
0.0
220
0.0
230
1.0
100
AcDbArc
 50
269.9999984648
 51
314.9999946267
  0
ARC
  5
52E
100
AcDbEntity
  8
LAYER0
 62
         4
100
AcDbCircle
 10
-18.4926566137
 20
62.7558219471
 30
0.0
 40
1.0
210
-0.0
220
-0.0
230
1.0
100
AcDbArc
 50
359.9999984648
 51
90.0000015352
  0
ARC
  5
52F
100
AcDbEntity
  8
LAYER0
 62
         4
100
AcDbCircle
 10
-18.4926566137
 20
43.7558220663
 30
0.0
 40
1.0
210
0.0
220
0.0
230
1.0
100
AcDbArc
 50
269.9999953943
 51
359.9999984648
  0
ENDBLK
  5
530
100
AcDbEntity
  8
0
100
AcDbBlockEnd
  0
ENDSEC
  0
SECTION
  2
ENTITIES
  0
LINE
  5
2F
100
AcDbEntity
  8
LAYER3
 62
         4
100
AcDbLine
 10
13.90275057
 20
82.2558220067
 30
0.0
 11
14.5264856424
 21
79.3213792045
 31
0.0
  0
LINE
  5
30
100
AcDbEntity
  8
LAYER3
 62
         4
100
AcDbLine
 10
13.90275057
 20
82.2558220067
 30
0.0
 11
13.2790154975
 21
79.3213792045
 31
0.0
  0
LINE
  5
31
100
AcDbEntity
  8
LAYER3
 62
         4
100
AcDbLine
 10
13.90275057
 20
82.2558220067
 30
0.0
 11
13.90275057
 21
24.2558220067
 31
0.0
  0
LINE
  5
32
100
AcDbEntity
  8
LAYER3
 62
         4
100
AcDbLine
 10
15.5645171333
 20
24.2558220067
 30
0.0
 11
12.90275057
 21
24.2558220067
 31
0.0
  0
LINE
  5
33
100
AcDbEntity
  8
LAYER3
 62
         4
100
AcDbLine
 10
15.5645171333
 20
82.2558220067
 30
0.0
 11
12.90275057
 21
82.2558220067
 31
0.0
  0
INSERT
  5
35
100
AcDbEntity
  8
0
100
AcDbBlockReference
  2
CLUMP0
 10
0.0
 20
0.0
 30
0.0
  0
INSERT
  5
4D
100
AcDbEntity
  8
0
100
AcDbBlockReference
  2
CLUMP2
 10
0.0
 20
0.0
 30
0.0
  0
MTEXT
  5
63
100
AcDbEntity
  8
LAYER3
100
AcDbMText
 10
19.6831751456
 20
50.855821932
 30
0.0
 40
2.1473683357
 41
2.5646459961
 71
         1
 72
         1
  1
\W0.8;35
 11
-0.0000000268
 21
1.0
 31
0.0
  0
LINE
  5
64
100
AcDbEntity
  8
LAYER3
 62
         4
100
AcDbLine
 10
23.470833837
 20
35.7558219322
 30
0.0
 11
22.8470987645
 21
38.6902647344
 31
0.0
  0
LINE
  5
65
100
AcDbEntity
  8
LAYER0
 62
         5
100
AcDbLine
 10
55.6084775366
 20
67.8905668396
 30
0.0
 11
60.4091851417
 21
67.5236555644
 31
0.0
  0
LINE
  5
66
100
AcDbEntity
  8
LAYER0
 62
         5
100
AcDbLine
 10
68.2999251363
 20
68.1240771887
 30
0.0
 11
63.5113403793
 21
68.4900619318
 31
0.0
  0
ARC
  5
67
100
AcDbEntity
  8
LAYER0
 62
         5
100
AcDbCircle
 10
68.2542013365
 20
70.6558220812
 30
0.0
 40
0.6
210
0.0
220
0.0
230
1.0
100
AcDbArc
 50
269.9999984648
 51
90.0000015352
  0
ARC
  5
68
100
AcDbEntity
  8
LAYER0
 62
         5
100
AcDbCircle
 10
55.6542013365
 20
70.6558220812
 30
0.0
 40
0.6
210
0.0
220
0.0
230
1.0
100
AcDbArc
 50
90.0000015352
 51
269.9999984648
  0
LINE
  5
69
100
AcDbEntity
  8
LAYER0
 62
         3
100
AcDbLine
 10
38.1542011875
 20
35.7558220067
 30
0.0
 11
35.4542011875
 21
35.7558220067
 31
0.0
  0
INSERT
  5
6B
100
AcDbEntity
  8
0
100
AcDbBlockReference
  2
CLUMP4
 10
0.0
 20
0.0
 30
0.0
  0
INSERT
  5
86
100
AcDbEntity
  8
0
100
AcDbBlockReference
  2
CLUMP6
 10
0.0
 20
0.0
 30
0.0
  0
INSERT
  5
A1
100
AcDbEntity
  8
0
100
AcDbBlockReference
  2
CLUMP8
 10
0.0
 20
0.0
 30
0.0
  0
INSERT
  5
DD
100
AcDbEntity
  8
0
100
AcDbBlockReference
  2
CLUMP10
 10
0.0
 20
0.0
 30
0.0
  0
INSERT
  5
105
100
AcDbEntity
  8
0
100
AcDbBlockReference
  2
CLUMP12
 10
0.0
 20
0.0
 30
0.0
  0
INSERT
  5
12D
100
AcDbEntity
  8
0
100
AcDbBlockReference
  2
CLUMP14
 10
0.0
 20
0.0
 30
0.0
  0
LINE
  5
1AD
100
AcDbEntity
  8
LAYER0
 62
         5
100
AcDbLine
 10
34.9542011875
 20
15.6030083388
 30
0.0
 11
27.9542011875
 21
8.6030083388
 31
0.0
  0
LINE
  5
1AE
100
AcDbEntity
  8
LAYER0
 62
         5
100
AcDbLine
 10
34.9542011875
 20
43.8872795863
 30
0.0
 11
27.9542011875
 21
36.8872795863
 31
0.0
  0
LINE
  5
1AF
100
AcDbEntity
  8
LAYER0
 62
         5
100
AcDbLine
 10
34.9542011875
 20
36.8162117744
 30
0.0
 11
27.9542011875
 21
29.8162117744
 31
0.0
  0
LINE
  5
1B0
100
AcDbEntity
  8
LAYER0
 62
         5
100
AcDbLine
 10
27.9542011875
 20
22.7451439625
 30
0.0
 11
34.9542011875
 21
29.7451439625
 31
0.0
  0
LINE
  5
1B1
100
AcDbEntity
  8
LAYER0
 62
         5
100
AcDbLine
 10
34.9542011875
 20
22.6740761507
 30
0.0
 11
27.9542011875
 21
15.6740761507
 31
0.0
  0
LINE
  5
1B2
100
AcDbEntity
  8
LAYER3
 62
         4
100
AcDbLine
 10
23.470833837
 20
35.7558219322
 30
0.0
 11
24.0945689094
 21
38.6902647344
 31
0.0
  0
LINE
  5
1B3
100
AcDbEntity
  8
LAYER3
 62
         4
100
AcDbLine
 10
23.470833837
 20
70.7558220812
 30
0.0
 11
24.0945689094
 21
67.821379279
 31
0.0
  0
LINE
  5
1B4
100
AcDbEntity
  8
LAYER3
 62
         4
100
AcDbLine
 10
23.470833837
 20
70.7558220812
 30
0.0
 11
22.8470987645
 21
67.821379279
 31
0.0
  0
LINE
  5
1B5
100
AcDbEntity
  8
LAYER3
 62
         4
100
AcDbLine
 10
23.470833837
 20
70.7558220812
 30
0.0
 11
23.470833837
 21
35.7558219322
 31
0.0
  0
LINE
  5
1B6
100
AcDbEntity
  8
LAYER3
 62
         4
100
AcDbLine
 10
34.2542011875
 20
35.7558219322
 30
0.0
 11
22.470833837
 21
35.7558219322
 31
0.0
  0
LINE
  5
1B7
100
AcDbEntity
  8
LAYER3
 62
         4
100
AcDbLine
 10
34.2542011875
 20
70.7558220812
 30
0.0
 11
22.470833837
 21
70.7558220812
 31
0.0
  0
MTEXT
  5
1B8
100
AcDbEntity
  8
LAYER3
100
AcDbMText
 10
10.1150918786
 20
50.855821932
 30
0.0
 40
2.1473683357
 41
2.5646459961
 71
         1
 72
         1
  1
\W0.8;58
 11
-0.0000000268
 21
1.0
 31
0.0
  0
LINE
  5
1B9
100
AcDbEntity
  8
LAYER3
 62
         4
100
AcDbLine
 10
13.90275057
 20
24.2558220067
 30
0.0
 11
13.2790154975
 21
27.1902648089
 31
0.0
  0
LINE
  5
1BA
100
AcDbEntity
  8
LAYER3
 62
         4
100
AcDbLine
 10
13.90275057
 20
24.2558220067
 30
0.0
 11
14.5264856424
 21
27.1902648089
 31
0.0
  0
LINE
  5
1BB
100
AcDbEntity
  8
LAYER0
 62
         5
100
AcDbLine
 10
68.2542013365
 20
64.7558219471
 30
0.0
 11
55.6542013365
 21
64.7558219471
 31
0.0
  0
LINE
  5
1BC
100
AcDbEntity
  8
LAYER0
 62
         5
100
AcDbLine
 10
55.6542013365
 20
65.9558219471
 30
0.0
 11
68.2542013365
 21
65.9558219471
 31
0.0
  0
LINE
  5
1BD
100
AcDbEntity
  8
LAYER0
 62
         5
100
AcDbLine
 10
68.3002555428
 20
66.9275920497
 30
0.0
 11
55.7002555428
 21
65.9575920497
 31
0.0
  0
LINE
  5
1BE
100
AcDbEntity
  8
LAYER0
 62
         5
100
AcDbLine
 10
68.2081471301
 20
68.1240518444
 30
0.0
 11
55.6081471301
 21
67.1540518444
 31
0.0
  0
LINE
  5
1BF
100
AcDbEntity
  8
LAYER0
 62
         5
100
AcDbLine
 10
68.3001139425
 20
68.8575812997
 30
0.0
 11
55.7001139425
 21
67.8905812997
 31
0.0
  0
LINE
  5
1C0
100
AcDbEntity
  8
LAYER0
 62
         5
100
AcDbLine
 10
68.2082887304
 20
70.0540628627
 30
0.0
 11
55.6082887304
 21
69.0870628627
 31
0.0
  0
LINE
  5
1C1
100
AcDbEntity
  8
LAYER0
 62
         5
100
AcDbLine
 10
55.6542013365
 20
70.0558220812
 30
0.0
 11
68.2542013365
 21
70.0558220812
 31
0.0
  0
LINE
  5
1C2
100
AcDbEntity
  8
LAYER0
 62
         5
100
AcDbLine
 10
68.2542013365
 20
71.2558220812
 30
0.0
 11
55.6542013365
 21
71.2558220812
 31
0.0
  0
ARC
  5
1C3
100
AcDbEntity
  8
LAYER0
 62
         6
100
AcDbCircle
 10
49.654201262
 20
74.3558220067
 30
0.0
 40
3.2
210
0.0
220
0.0
230
1.0
100
AcDbArc
 50
179.9999969295
 51
269.9999984648
  0
LINE
  5
1C4
100
AcDbEntity
  8
LAYER0
 62
         5
100
AcDbLine
 10
71.9542013365
 20
74.3558220067
 30
0.0
 11
51.9542013365
 21
74.3558220067
 31
0.0
  0
ARC
  5
1C5
100
AcDbEntity
  8
LAYER0
 62
         6
100
AcDbCircle
 10
68.9542013365
 20
87.6558220067
 30
0.0
 40
3.0
210
0.0
220
-0.0
230
1.0
100
AcDbArc
 50
0.0
 51
90.0000015352
  0
ARC
  5
1C6
100
AcDbEntity
  8
LAYER0
 62
         6
100
AcDbCircle
 10
54.9542013365
 20
87.6558220067
 30
0.0
 40
3.0
210
0.0
220
0.0
230
1.0
100
AcDbArc
 50
90.0000015352
 51
179.9999969295
  0
LINE
  5
1C7
100
AcDbEntity
  8
LAYER0
 62
         6
100
AcDbLine
 10
54.9542013365
 20
90.6558220067
 30
0.0
 11
68.9542013365
 21
90.6558220067
 31
0.0
  0
LINE
  5
1C8
100
AcDbEntity
  8
LAYER0
 62
         6
100
AcDbLine
 10
51.9542013365
 20
87.6558220067
 30
0.0
 11
51.9542013365
 21
71.1558220067
 31
0.0
  0
LINE
  5
1C9
100
AcDbEntity
  8
LAYER0
 62
         6
100
AcDbLine
 10
71.9542013365
 20
87.6558220067
 30
0.0
 11
71.9542013365
 21
71.1558220067
 31
0.0
  0
LINE
  5
1CA
100
AcDbEntity
  8
LAYER0
 62
         6
100
AcDbLine
 10
73.9542013365
 20
74.3558220067
 30
0.0
 11
73.9542013365
 21
71.1558220067
 31
0.0
  0
LINE
  5
1CB
100
AcDbEntity
  8
LAYER0
 62
         6
100
AcDbLine
 10
73.9542013365
 20
71.1558220067
 30
0.0
 11
49.654201262
 21
71.1558220067
 31
0.0
  0
LINE
  5
1CC
100
AcDbEntity
  8
LAYER0
 62
         6
100
AcDbLine
 10
46.454201262
 20
90.6558220067
 30
0.0
 11
46.454201262
 21
74.3558220067
 31
0.0
  0
LINE
  5
1CD
100
AcDbEntity
  8
LAYER0
 62
         6
100
AcDbLine
 10
49.654201262
 20
90.6558220067
 30
0.0
 11
46.454201262
 21
90.6558220067
 31
0.0
  0
LINE
  5
1CE
100
AcDbEntity
  8
LAYER0
 62
         5
100
AcDbLine
 10
34.9542011875
 20
72.1715508337
 30
0.0
 11
27.9542011875
 21
65.1715508337
 31
0.0
  0
LINE
  5
1CF
100
AcDbEntity
  8
LAYER0
 62
         5
100
AcDbLine
 10
34.9542011875
 20
65.1004830219
 30
0.0
 11
27.9542011875
 21
58.1004830219
 31
0.0
  0
LINE
  5
1D0
100
AcDbEntity
  8
LAYER0
 62
         5
100
AcDbLine
 10
27.9542011875
 20
51.02941521
 30
0.0
 11
34.9542011875
 21
58.02941521
 31
0.0
  0
LINE
  5
1D1
100
AcDbEntity
  8
LAYER0
 62
         5
100
AcDbLine
 10
34.9542011875
 20
50.9583473981
 30
0.0
 11
27.9542011875
 21
43.9583473981
 31
0.0
  0
LINE
  5
1D2
100
AcDbEntity
  8
LAYER0
 62
         5
100
AcDbLine
 10
68.311086792
 20
65.9531192306
 30
0.0
 11
62.6480159015
 21
66.4924593155
 31
0.0
  0
LINE
  5
1D3
100
AcDbEntity
  8
LAYER0
 62
         5
100
AcDbLine
 10
61.2507681773
 20
69.5201007694
 30
0.0
 11
55.5973158809
 21
70.0585247976
 31
0.0
  0
ARC
  5
1D4
100
AcDbEntity
  8
LAYER0
 62
         5
100
AcDbCircle
 10
61.9542013365
 20
71.3039701548
 30
0.0
 40
6.5518518519
210
0.0
220
-0.0
230
1.0
100
AcDbArc
 50
36.0083238261
 51
143.9916792444
  0
LINE
  5
1D5
100
AcDbEntity
  8
LAYER0
 62
         5
100
AcDbLine
 10
56.6542013365
 20
74.4558220067
 30
0.0
 11
56.6542013365
 21
75.1558220067
 31
0.0
  0
LINE
  5
1D6
100
AcDbEntity
  8
LAYER0
 62
         5
100
AcDbLine
 10
67.2542013365
 20
74.4558220067
 30
0.0
 11
67.2542013365
 21
75.1558220067
 31
0.0
  0
LINE
  5
1D7
100
AcDbEntity
  8
LAYER0
 62
         5
100
AcDbLine
 10
56.6542013365
 20
75.1558220067
 30
0.0
 11
67.2542013365
 21
75.1558220067
 31
0.0
  0
LINE
  5
1D8
100
AcDbEntity
  8
LAYER0
 62
         5
100
AcDbLine
 10
61.9542013365
 20
77.8558220067
 30
0.0
 11
61.9542013365
 21
76.1058220067
 31
0.0
  0
LINE
  5
1D9
100
AcDbEntity
  8
LAYER0
 62
         5
100
AcDbLine
 10
67.2542013365
 20
74.4558220067
 30
0.0
 11
56.6542013365
 21
74.4558220067
 31
0.0
  0
LINE
  5
1DA
100
AcDbEntity
  8
LAYER0
 62
         5
100
AcDbLine
 10
61.9542013365
 20
74.3558220067
 30
0.0
 11
61.9542013365
 21
74.4558220067
 31
0.0
  0
LINE
  5
1DB
100
AcDbEntity
  8
LAYER0
 62
         6
100
AcDbLine
 10
61.9542013365
 20
71.2558220812
 30
0.0
 11
57.9542013365
 21
71.2558220812
 31
0.0
  0
LINE
  5
1DC
100
AcDbEntity
  8
LAYER0
 62
         5
100
AcDbLine
 10
65.9542013365
 20
74.4558220067
 30
0.0
 11
61.9542013365
 21
74.4558220067
 31
0.0
  0
ARC
  5
1DD
100
AcDbEntity
  8
LAYER0
 62
         6
100
AcDbCircle
 10
49.654201262
 20
32.1558220067
 30
0.0
 40
3.2
210
0.0
220
0.0
230
1.0
100
AcDbArc
 50
90.0000015352
 51
180.0000030705
  0
LINE
  5
1DE
100
AcDbEntity
  8
LAYER0
 62
         5
100
AcDbLine
 10
71.9542013365
 20
32.1558220067
 30
0.0
 11
51.9542013365
 21
32.1558220067
 31
0.0
  0
ARC
  5
1DF
100
AcDbEntity
  8
LAYER0
 62
         6
100
AcDbCircle
 10
68.9542013365
 20
18.8558220067
 30
0.0
 40
3.0
210
-0.0
220
0.0
230
1.0
100
AcDbArc
 50
269.9999984648
 51
0.0
  0
ARC
  5
1E0
100
AcDbEntity
  8
LAYER0
 62
         6
100
AcDbCircle
 10
54.9542013365
 20
18.8558220067
 30
0.0
 40
3.0
210
0.0
220
0.0
230
1.0
100
AcDbArc
 50
180.0000030705
 51
269.9999984648
  0
LINE
  5
1E1
100
AcDbEntity
  8
LAYER0
 62
         6
100
AcDbLine
 10
54.9542013365
 20
15.8558220067
 30
0.0
 11
68.9542013365
 21
15.8558220067
 31
0.0
  0
LINE
  5
1E2
100
AcDbEntity
  8
LAYER0
 62
         6
100
AcDbLine
 10
51.9542013365
 20
18.8558220067
 30
0.0
 11
51.9542013365
 21
35.3558220067
 31
0.0
  0
LINE
  5
1E3
100
AcDbEntity
  8
LAYER0
 62
         6
100
AcDbLine
 10
71.9542013365
 20
18.8558220067
 30
0.0
 11
71.9542013365
 21
35.3558220067
 31
0.0
  0
LINE
  5
1E4
100
AcDbEntity
  8
LAYER0
 62
         6
100
AcDbLine
 10
73.9542013365
 20
32.1558220067
 30
0.0
 11
73.9542013365
 21
35.3558220067
 31
0.0
  0
LINE
  5
1E5
100
AcDbEntity
  8
LAYER0
 62
         6
100
AcDbLine
 10
73.9542013365
 20
35.3558220067
 30
0.0
 11
49.654201262
 21
35.3558220067
 31
0.0
  0
LINE
  5
1E6
100
AcDbEntity
  8
LAYER0
 62
         6
100
AcDbLine
 10
46.454201262
 20
15.8558220067
 30
0.0
 11
46.454201262
 21
32.1558220067
 31
0.0
  0
ARC
  5
1E7
100
AcDbEntity
  8
LAYER0
 62
         5
100
AcDbCircle
 10
55.6542013365
 20
68.4888220812
 30
0.0
 40
0.6
210
-0.0
220
-0.0
230
1.0
100
AcDbArc
 50
90.0000015352
 51
274.388619487
  0
ARC
  5
1E8
100
AcDbEntity
  8
LAYER0
 62
         5
100
AcDbCircle
 10
55.6542013365
 20
66.5558219471
 30
0.0
 40
0.6
210
-0.0
220
-0.0
230
1.0
100
AcDbArc
 50
90.0000015352
 51
274.4021812135
  0
ARC
  5
1E9
100
AcDbEntity
  8
LAYER0
 62
         5
100
AcDbCircle
 10
55.6542013365
 20
65.3558219471
 30
0.0
 40
0.6
210
0.0
220
0.0
230
1.0
100
AcDbArc
 50
90.0000015352
 51
269.9999984648
  0
ARC
  5
1EA
100
AcDbEntity
  8
LAYER0
 62
         5
100
AcDbCircle
 10
68.2542013365
 20
65.3558219471
 30
0.0
 40
0.6
210
0.0
220
0.0
230
1.0
100
AcDbArc
 50
269.9999984648
 51
90.0000015352
  0
ARC
  5
1EB
100
AcDbEntity
  8
LAYER0
 62
         5
100
AcDbCircle
 10
68.2542013365
 20
67.5258219471
 30
0.0
 40
0.6
210
-0.0
220
-0.0
230
1.0
100
AcDbArc
 50
274.4021812135
 51
90.0000015352
  0
ARC
  5
1EC
100
AcDbEntity
  8
LAYER0
 62
         5
100
AcDbCircle
 10
68.2542013365
 20
69.4558220812
 30
0.0
 40
0.6
210
-0.0
220
-0.0
230
1.0
100
AcDbArc
 50
274.388619487
 51
90.0000015352
  0
LINE
  5
1ED
100
AcDbEntity
  8
LAYER0
 62
         6
100
AcDbLine
 10
57.9542013365
 20
71.1558220067
 30
0.0
 11
57.9542013365
 21
64.7558219471
 31
0.0
  0
LINE
  5
1EE
100
AcDbEntity
  8
LAYER0
 62
         6
100
AcDbLine
 10
65.9542013365
 20
64.7558219471
 30
0.0
 11
65.9542013365
 21
71.1558220067
 31
0.0
  0
LINE
  5
1EF
100
AcDbEntity
  8
LAYER0
 62
         6
100
AcDbLine
 10
57.9542013365
 20
42.7558222302
 30
0.0
 11
57.9542013365
 21
63.7558217831
 31
0.0
  0
LINE
  5
1F0
100
AcDbEntity
  8
LAYER0
 62
         6
100
AcDbLine
 10
65.9542013365
 20
63.7558217832
 30
0.0
 11
65.9542013365
 21
42.7558222302
 31
0.0
  0
LINE
  5
1F1
100
AcDbEntity
  8
LAYER0
 62
         6
100
AcDbLine
 10
57.9542013365
 20
35.3558220067
 30
0.0
 11
57.9542013365
 21
41.7558220663
 31
0.0
  0
LINE
  5
1F2
100
AcDbEntity
  8
LAYER0
 62
         6
100
AcDbLine
 10
65.9542013365
 20
41.7558220663
 30
0.0
 11
65.9542013365
 21
35.3558220067
 31
0.0
  0
LINE
  5
1F3
100
AcDbEntity
  8
LAYER0
 62
         5
100
AcDbLine
 10
65.9542013365
 20
32.1558220067
 30
0.0
 11
65.9542013365
 21
32.0558220067
 31
0.0
  0
LINE
  5
1F4
100
AcDbEntity
  8
LAYER0
 62
         5
100
AcDbLine
 10
59.4542013365
 20
32.1558220067
 30
0.0
 11
59.4542013365
 21
32.0558220067
 31
0.0
  0
ARC
  5
1F5
100
AcDbEntity
  8
LAYER0
 62
         5
100
AcDbCircle
 10
61.9542013365
 20
35.2076738585
 30
0.0
 40
6.5518518519
210
0.0
220
0.0
230
1.0
100
AcDbArc
 50
216.0083207556
 51
323.9916761739
  0
LINE
  5
1F6
100
AcDbEntity
  8
LAYER0
 62
         5
100
AcDbLine
 10
56.6542013365
 20
32.0558220067
 30
0.0
 11
56.6542013365
 21
31.3558220067
 31
0.0
  0
LINE
  5
1F7
100
AcDbEntity
  8
LAYER0
 62
         5
100
AcDbLine
 10
67.2542013365
 20
32.0558220067
 30
0.0
 11
67.2542013365
 21
31.3558220067
 31
0.0
  0
LINE
  5
1F8
100
AcDbEntity
  8
LAYER0
 62
         5
100
AcDbLine
 10
56.6542013365
 20
31.3558220067
 30
0.0
 11
67.2542013365
 21
31.3558220067
 31
0.0
  0
LINE
  5
1F9
100
AcDbEntity
  8
LAYER0
 62
         5
100
AcDbLine
 10
61.9542013365
 20
28.6558220067
 30
0.0
 11
61.9542013365
 21
30.4058220067
 31
0.0
  0
LINE
  5
1FA
100
AcDbEntity
  8
LAYER0
 62
         5
100
AcDbLine
 10
67.2542013365
 20
32.0558220067
 30
0.0
 11
56.6542013365
 21
32.0558220067
 31
0.0
  0
LINE
  5
1FB
100
AcDbEntity
  8
LAYER0
 62
         5
100
AcDbLine
 10
61.9542013365
 20
32.1558220067
 30
0.0
 11
61.9542013365
 21
32.0558220067
 31
0.0
  0
LINE
  5
1FC
100
AcDbEntity
  8
LAYER0
 62
         6
100
AcDbLine
 10
61.9542013365
 20
35.3558220067
 30
0.0
 11
57.9542013365
 21
35.3558220067
 31
0.0
  0
LINE
  5
1FD
100
AcDbEntity
  8
LAYER0
 62
         5
100
AcDbLine
 10
65.9542013365
 20
32.0558220067
 30
0.0
 11
61.9542013365
 21
32.0558220067
 31
0.0
  0
LINE
  5
1FE
100
AcDbEntity
  8
LAYER0
  6
CENTER
100
AcDbLine
 10
61.9542013365
 20
35.7558219322
 30
0.0
 11
61.9542013365
 21
72.3595783649
 31
0.0
  0
LINE
  5
1FF
100
AcDbEntity
  8
LAYER0
  6
CENTER
100
AcDbLine
 10
44.454201262
 20
53.2558220067
 30
0.0
 11
61.9542013365
 21
53.2558220067
 31
0.0
  0
LINE
  5
200
100
AcDbEntity
  8
LAYER0
 62
         6
100
AcDbLine
 10
51.9542013365
 20
74.3558220067
 30
0.0
 11
49.654201262
 21
74.3558220067
 31
0.0
  0
LINE
  5
201
100
AcDbEntity
  8
LAYER0
 62
         6
100
AcDbLine
 10
73.9542013365
 20
74.3558220067
 30
0.0
 11
71.9542013365
 21
74.3558220067
 31
0.0
  0
LINE
  5
202
100
AcDbEntity
  8
LAYER0
 62
         6
100
AcDbLine
 10
49.654201262
 20
90.6558220067
 30
0.0
 11
49.654201262
 21
74.3558220067
 31
0.0
  0
LINE
  5
203
100
AcDbEntity
  8
LAYER0
 62
         6
100
AcDbLine
 10
71.9542013365
 20
73.1558220067
 30
0.0
 11
51.9542013365
 21
73.1558220067
 31
0.0
  0
LINE
  5
204
100
AcDbEntity
  8
LAYER0
 62
         5
100
AcDbLine
 10
65.9542013365
 20
74.3558220067
 30
0.0
 11
65.9542013365
 21
74.4558220067
 31
0.0
  0
LINE
  5
205
100
AcDbEntity
  8
LAYER0
 62
         5
100
AcDbLine
 10
59.4542013365
 20
74.3558220067
 30
0.0
 11
59.4542013365
 21
74.4558220067
 31
0.0
  0
MTEXT
  5
206
100
AcDbEntity
  8
LAYER0
100
AcDbMText
 10
32.0542682872
 20
-126.7970201517
 30
0.0
 40
2.1473683357
 41
7.6538653946
 71
         1
 72
         1
  1
\W0.8;品　名
  0
LINE
  5
207
100
AcDbEntity
  8
LAYER0
 62
         3
100
AcDbLine
 10
10.0
 20
-138.5
 30
0.0
 11
10.0
 21
-125.5
 31
0.0
  0
LINE
  5
208
100
AcDbEntity
  8
LAYER0
 62
         3
100
AcDbLine
 10
95.0
 20
-138.5
 30
0.0
 11
95.0
 21
-125.5
 31
0.0
  0
LINE
  5
209
100
AcDbEntity
  8
LAYER3
 62
         4
100
AcDbLine
 10
92.454201411
 20
-15.0157670359
 30
0.0
 11
89.5197586088
 21
-15.6395021084
 31
0.0
  0
LINE
  5
20A
100
AcDbEntity
  8
LAYER3
 62
         4
100
AcDbLine
 10
92.454201411
 20
-15.0157670359
 30
0.0
 11
89.5197586088
 21
-14.3920319635
 31
0.0
  0
LINE
  5
20B
100
AcDbEntity
  8
LAYER3
 62
         4
100
AcDbLine
 10
34.9542011875
 20
-15.0157670359
 30
0.0
 11
37.8886439897
 21
-14.3920319635
 31
0.0
  0
LINE
  5
20C
100
AcDbEntity
  8
LAYER3
 62
         4
100
AcDbLine
 10
34.9542011875
 20
-15.0157670359
 30
0.0
 11
37.8886439897
 21
-15.6395021084
 31
0.0
  0
LINE
  5
20D
100
AcDbEntity
  8
LAYER3
 62
         4
100
AcDbLine
 10
34.9542011875
 20
-15.0157670359
 30
0.0
 11
92.454201411
 21
-15.0157670359
 31
0.0
  0
MTEXT
  5
20E
100
AcDbEntity
  8
LAYER3
100
AcDbMText
 10
52.054201262
 20
-4.1998356394
 30
0.0
 40
2.1473683357
 41
2.5646459961
 71
         1
 72
         1
  1
\W0.8;39
  0
LINE
  5
20F
100
AcDbEntity
  8
LAYER3
 62
         4
100
AcDbLine
 10
73.9542013365
 20
-7.9874943308
 30
0.0
 11
71.0197585343
 21
-8.6112294033
 31
0.0
  0
LINE
  5
210
100
AcDbEntity
  8
LAYER3
 62
         4
100
AcDbLine
 10
73.9542013365
 20
-7.9874943308
 30
0.0
 11
71.0197585343
 21
-7.3637592583
 31
0.0
  0
LINE
  5
211
100
AcDbEntity
  8
LAYER3
 62
         4
100
AcDbLine
 10
34.9542011875
 20
-7.9874943308
 30
0.0
 11
37.8886439897
 21
-7.3637592583
 31
0.0
  0
LINE
  5
212
100
AcDbEntity
  8
LAYER3
 62
         4
100
AcDbLine
 10
34.9542011875
 20
-7.9874943308
 30
0.0
 11
37.8886439897
 21
-8.6112294033
 31
0.0
  0
LINE
  5
213
100
AcDbEntity
  8
LAYER3
 62
         4
100
AcDbLine
 10
34.9542011875
 20
-7.9874943308
 30
0.0
 11
73.9542013365
 21
-7.9874943308
 31
0.0
  0
MTEXT
  5
214
100
AcDbEntity
  8
LAYER3
100
AcDbMText
 10
58.9042012992
 20
-11.2281083445
 30
0.0
 40
2.1473683357
 41
5.1292919922
 71
         1
 72
         1
  1
\W0.8;57.5
  0
LINE
  5
215
100
AcDbEntity
  8
LAYER0
 62
         5
100
AcDbLine
 10
34.9542011875
 20
79.2426186456
 30
0.0
 11
27.9542011875
 21
72.2426186456
 31
0.0
  0
LINE
  5
216
100
AcDbEntity
  8
LAYER0
 62
         5
100
AcDbLine
 10
34.9542011875
 20
86.3136864575
 30
0.0
 11
27.9542011875
 21
79.3136864575
 31
0.0
  0
LINE
  5
217
100
AcDbEntity
  8
LAYER0
 62
         5
100
AcDbLine
 10
34.9542011875
 20
93.3847542693
 30
0.0
 11
27.9542011875
 21
86.3847542693
 31
0.0
  0
LINE
  5
218
100
AcDbEntity
  8
LAYER0
 62
         5
100
AcDbLine
 10
34.9542011875
 20
100.4558220812
 30
0.0
 11
27.9542011875
 21
93.4558220812
 31
0.0
  0
LINE
  5
219
100
AcDbEntity
  8
LAYER0
 62
         1
100
AcDbLine
 10
34.9542011875
 20
7.8389211423
 30
0.0
 11
34.9542011875
 21
100.4558220812
 31
0.0
  0
LINE
  5
21A
100
AcDbEntity
  8
LAYER0
 62
         6
100
AcDbLine
 10
49.654201262
 20
15.8558220067
 30
0.0
 11
46.454201262
 21
15.8558220067
 31
0.0
  0
LINE
  5
21B
100
AcDbEntity
  8
LAYER0
 62
         6
100
AcDbLine
 10
51.9542013365
 20
32.1558220067
 30
0.0
 11
49.654201262
 21
32.1558220067
 31
0.0
  0
LINE
  5
21C
100
AcDbEntity
  8
LAYER0
 62
         6
100
AcDbLine
 10
73.9542013365
 20
32.1558220067
 30
0.0
 11
71.9542013365
 21
32.1558220067
 31
0.0
  0
LINE
  5
21D
100
AcDbEntity
  8
LAYER0
 62
         6
100
AcDbLine
 10
49.654201262
 20
15.8558220067
 30
0.0
 11
49.654201262
 21
32.1558220067
 31
0.0
  0
LINE
  5
21E
100
AcDbEntity
  8
LAYER0
 62
         6
100
AcDbLine
 10
71.9542013365
 20
33.3558220067
 30
0.0
 11
51.9542013365
 21
33.3558220067
 31
0.0
  0
ARC
  5
21F
100
AcDbEntity
  8
LAYER0
 62
         2
100
AcDbCircle
 10
-60.24156444
 20
21.8496786268
 30
0.0
 40
1.1510920992
210
0.0
220
0.0
230
1.0
100
AcDbArc
 50
136.397183354
 51
223.602816646
  0
LINE
  5
220
100
AcDbEntity
  8
LAYER0
 62
         2
100
AcDbLine
 10
-58.1926565392
 20
25.8681087664
 30
0.0
 11
-61.0751138911
 21
25.8681087664
 31
0.0
  0
LINE
  5
221
100
AcDbEntity
  8
LAYER0
 62
         2
100
AcDbLine
 10
-58.5073859392
 20
27.4558220067
 30
0.0
 11
-61.0751138911
 21
27.4558220067
 31
0.0
  0
LINE
  5
222
100
AcDbEntity
  8
LAYER0
 62
         2
100
AcDbLine
 10
-61.3926565392
 20
21.8496786268
 30
0.0
 11
-61.3926565392
 21
26.6619653866
 31
0.0
  0
INSERT
  5
224
100
AcDbEntity
  8
0
100
AcDbBlockReference
  2
CLUMP16
 10
0.0
 20
0.0
 30
0.0
  0
INSERT
  5
237
100
AcDbEntity
  8
0
100
AcDbBlockReference
  2
CLUMP18
 10
0.0
 20
0.0
 30
0.0
  0
INSERT
  5
24E
100
AcDbEntity
  8
0
100
AcDbBlockReference
  2
CLUMP20
 10
0.0
 20
0.0
 30
0.0
  0
INSERT
  5
265
100
AcDbEntity
  8
0
100
AcDbBlockReference
  2
CLUMP22
 10
0.0
 20
0.0
 30
0.0
  0
INSERT
  5
276
100
AcDbEntity
  8
0
100
AcDbBlockReference
  2
CLUMP24
 10
0.0
 20
0.0
 30
0.0
  0
INSERT
  5
291
100
AcDbEntity
  8
0
100
AcDbBlockReference
  2
CLUMP26
 10
0.0
 20
0.0
 30
0.0
  0
INSERT
  5
2AC
100
AcDbEntity
  8
0
100
AcDbBlockReference
  2
CLUMP28
 10
0.0
 20
0.0
 30
0.0
  0
LINE
  5
2E6
100
AcDbEntity
  8
LAYER3
 62
         4
100
AcDbLine
 10
-49.9926565392
 20
56.7369563175
 30
0.0
 11
-54.9926565392
 21
56.7369563175
 31
0.0
  0
LINE
  5
2E7
100
AcDbEntity
  8
LAYER3
 62
         4
100
AcDbLine
 10
-67.9926565392
 20
56.7369563175
 30
0.0
 11
-70.9270993414
 21
56.113221245
 31
0.0
  0
LINE
  5
2E8
100
AcDbEntity
  8
LAYER3
 62
         4
100
AcDbLine
 10
-67.9926565392
 20
56.7369563175
 30
0.0
 11
-70.9270993414
 21
57.3606913899
 31
0.0
  0
LINE
  5
2E9
100
AcDbEntity
  8
LAYER3
 62
         4
100
AcDbLine
 10
-84.0948529287
 20
56.7369563175
 30
0.0
 11
-67.9926565392
 21
56.7369563175
 31
0.0
  0
MTEXT
  5
2EA
100
AcDbEntity
  8
LAYER3
100
AcDbMText
 10
-83.0948529287
 20
60.5246150089
 30
0.0
 40
2.1473683357
 41
2.5646459961
 71
         1
 72
         1
  1
\W0.8;13
  0
LINE
  5
2EB
100
AcDbEntity
  8
LAYER3
 62
         4
100
AcDbLine
 10
-54.9926565392
 20
56.7369563175
 30
0.0
 11
-67.9926565392
 21
56.7369563175
 31
0.0
  0
LINE
  5
2EC
100
AcDbEntity
  8
LAYER3
 62
         4
100
AcDbLine
 10
-67.9926565392
 20
52.6455060608
 30
0.0
 11
-67.9926565392
 21
57.7369563175
 31
0.0
  0
LINE
  5
2ED
100
AcDbEntity
  8
LAYER3
 62
         4
100
AcDbLine
 10
-54.9926565392
 20
56.7369563175
 30
0.0
 11
-52.058213737
 21
57.3606913899
 31
0.0
  0
LINE
  5
2EE
100
AcDbEntity
  8
LAYER3
 62
         4
100
AcDbLine
 10
-54.9926565392
 20
56.7369563175
 30
0.0
 11
-52.058213737
 21
56.113221245
 31
0.0
  0
LINE
  5
2EF
100
AcDbEntity
  8
LAYER0
 62
         4
100
AcDbLine
 10
2.5073436843
 20
-2.7470552749
 30
0.0
 11
2.5073436843
 21
-100.7470552749
 31
0.0
  0
MTEXT
  5
2F0
100
AcDbEntity
  8
LAYER0
100
AcDbMText
 10
12.9007595939
 20
-132.943297737
 30
0.0
 40
2.4737683892
 41
47.2715562702
 71
         1
 72
         1
  1
\W0.8;マグネットバー用片開きロック金具
  0
MTEXT
  5
2F1
100
AcDbEntity
  8
LAYER0
100
AcDbMText
 10
68.6999898377
 20
-133.1227062422
 30
0.0
 40
2.4737683892
 41
8.8634168007
 71
         1
 72
         1
  1
\W0.8;D56541
  0
LINE
  5
2F2
100
AcDbEntity
  8
LAYER0
 62
         3
100
AcDbLine
 10
60.0
 20
-125.5
 30
0.0
 11
60.0
 21
-138.5
 31
0.0
  0
MTEXT
  5
2F3
100
AcDbEntity
  8
LAYER0
100
AcDbMText
 10
72.5158633528
 20
-126.7970201517
 30
0.0
 40
2.1473683357
 41
10.2585839844
 71
         1
 72
         1
  1
\W0.8;管理図番
  0
ARC
  5
2F4
100
AcDbEntity
  8
LAYER0
 62
         5
100
AcDbCircle
 10
-34.2926563902
 20
66.5558219471
 30
0.0
 40
0.6
210
-0.0
220
-0.0
230
1.0
100
AcDbArc
 50
90.0000015352
 51
274.4021812135
  0
ARC
  5
2F5
100
AcDbEntity
  8
LAYER0
 62
         5
100
AcDbCircle
 10
-34.2926563902
 20
65.3558219471
 30
0.0
 40
0.6
210
0.0
220
0.0
230
1.0
100
AcDbArc
 50
90.0000015352
 51
269.9999984648
  0
ARC
  5
2F6
100
AcDbEntity
  8
LAYER0
 62
         5
100
AcDbCircle
 10
-21.6926563902
 20
65.3558219471
 30
0.0
 40
0.6
210
0.0
220
0.0
230
1.0
100
AcDbArc
 50
269.9999984648
 51
90.0000015352
  0
ARC
  5
2F7
100
AcDbEntity
  8
LAYER0
 62
         5
100
AcDbCircle
 10
-21.6926563902
 20
67.5258219471
 30
0.0
 40
0.6
210
-0.0
220
-0.0
230
1.0
100
AcDbArc
 50
274.4021812135
 51
90.0000015352
  0
ARC
  5
2F8
100
AcDbEntity
  8
LAYER0
 62
         5
100
AcDbCircle
 10
-21.6926563902
 20
69.4558220812
 30
0.0
 40
0.6
210
-0.0
220
-0.0
230
1.0
100
AcDbArc
 50
274.388619487
 51
90.0000015352
  0
LINE
  5
2F9
100
AcDbEntity
  8
LAYER0
 62
         5
100
AcDbLine
 10
-21.6926563902
 20
64.7558219471
 30
0.0
 11
-34.2926563902
 21
64.7558219471
 31
0.0
  0
LINE
  5
2FA
100
AcDbEntity
  8
LAYER0
 62
         5
100
AcDbLine
 10
-34.2926563902
 20
65.9558219471
 30
0.0
 11
-21.6926563902
 21
65.9558219471
 31
0.0
  0
LINE
  5
2FB
100
AcDbEntity
  8
LAYER0
 62
         5
100
AcDbLine
 10
-21.6466021838
 20
66.9275920497
 30
0.0
 11
-34.2466021838
 21
65.9575920497
 31
0.0
  0
LINE
  5
2FC
100
AcDbEntity
  8
LAYER0
 62
         5
100
AcDbLine
 10
-21.7387105966
 20
68.1240518444
 30
0.0
 11
-34.3387105966
 21
67.1540518444
 31
0.0
  0
LINE
  5
2FD
100
AcDbEntity
  8
LAYER0
 62
         3
100
AcDbLine
 10
-51.7926565392
 20
35.7558220067
 30
0.0
 11
-54.4926565392
 21
35.7558220067
 31
0.0
  0
LINE
  5
2FE
100
AcDbEntity
  8
LAYER0
 62
         5
100
AcDbLine
 10
-65.7926565392
 20
30.0558220067
 30
0.0
 11
-65.7926565392
 21
33.2558220067
 31
0.0
  0
LINE
  5
2FF
100
AcDbEntity
  8
LAYER0
 62
         5
100
AcDbLine
 10
-70.1926565392
 20
33.2558220067
 30
0.0
 11
-70.1926565392
 21
30.0558220067
 31
0.0
  0
LINE
  5
300
100
AcDbEntity
  8
LAYER0
 62
         5
100
AcDbLine
 10
-54.9926565392
 20
27.2558220067
 30
0.0
 11
-58.1926565392
 21
27.2558220067
 31
0.0
  0
LINE
  5
301
100
AcDbEntity
  8
LAYER0
 62
         5
100
AcDbLine
 10
-54.9926565392
 20
19.7558220067
 30
0.0
 11
-58.1926565392
 21
19.7558220067
 31
0.0
  0
LINE
  5
302
100
AcDbEntity
  8
LAYER0
 62
         2
100
AcDbLine
 10
-58.1926565392
 20
21.0558220067
 30
0.0
 11
-58.1926565392
 21
27.4558220067
 31
0.0
  0
LINE
  5
303
100
AcDbEntity
  8
LAYER0
 62
         2
100
AcDbLine
 10
-58.1926565392
 20
22.643535247
 30
0.0
 11
-61.0751138911
 21
22.643535247
 31
0.0
  0
LINE
  5
304
100
AcDbEntity
  8
LAYER0
 62
         2
100
AcDbLine
 10
-58.1926565392
 20
21.0558220067
 30
0.0
 11
-61.0751138911
 21
21.0558220067
 31
0.0
  0
ARC
  5
305
100
AcDbEntity
  8
LAYER0
 62
         2
100
AcDbCircle
 10
-61.5926565392
 20
24.2558220067
 30
0.0
 40
2.8
210
0.0
220
0.0
230
1.0
100
AcDbArc
 50
90.0000015352
 51
269.9999984648
  0
LINE
  5
306
100
AcDbEntity
  8
LAYER0
 62
         2
100
AcDbLine
 10
-61.3231789663
 20
21.4558220067
 30
0.0
 11
-61.5926565392
 21
21.4558220067
 31
0.0
  0
LINE
  5
307
100
AcDbEntity
  8
LAYER0
 62
         2
100
AcDbLine
 10
-61.5926565392
 20
27.0558220067
 30
0.0
 11
-61.3231789663
 21
27.0558220067
 31
0.0
  0
LINE
  5
308
100
AcDbEntity
  8
LAYER0
 62
         2
100
AcDbLine
 10
-61.7926565392
 20
26.2558220067
 30
0.0
 11
-61.7926565392
 21
22.2558220067
 31
0.0
  0
INSERT
  5
30A
100
AcDbEntity
  8
0
100
AcDbBlockReference
  2
CLUMP30
 10
0.0
 20
0.0
 30
0.0
  0
INSERT
  5
332
100
AcDbEntity
  8
0
100
AcDbBlockReference
  2
CLUMP32
 10
0.0
 20
0.0
 30
0.0
  0
ARC
  5
359
100
AcDbEntity
  8
LAYER0
 62
         2
100
AcDbCircle
 10
-57.1407836877
 20
24.2558220067
 30
0.0
 40
4.2518728515
210
0.0
220
0.0
230
1.0
100
AcDbArc
 50
157.7162062168
 51
202.2837937832
  0
ARC
  5
35A
100
AcDbEntity
  8
LAYER0
 62
         2
100
AcDbCircle
 10
-60.24156444
 20
26.6619653866
 30
0.0
 40
1.1510920992
210
0.0
220
0.0
230
1.0
100
AcDbArc
 50
136.397183354
 51
223.602816646
  0
LINE
  5
35B
100
AcDbEntity
  8
LAYER0
 62
         6
100
AcDbLine
 10
-15.9926563902
 20
74.3558220067
 30
0.0
 11
-17.9926563902
 21
74.3558220067
 31
0.0
  0
LINE
  5
35C
100
AcDbEntity
  8
LAYER0
 62
         6
100
AcDbLine
 10
-40.2926564647
 20
90.6558220067
 30
0.0
 11
-40.2926564647
 21
74.3558220067
 31
0.0
  0
LINE
  5
35D
100
AcDbEntity
  8
LAYER0
 62
         6
100
AcDbLine
 10
-17.9926563902
 20
73.1558220067
 30
0.0
 11
-37.9926563902
 21
73.1558220067
 31
0.0
  0
LINE
  5
35E
100
AcDbEntity
  8
LAYER0
 62
         5
100
AcDbLine
 10
-23.9926563902
 20
74.3558220067
 30
0.0
 11
-23.9926563902
 21
74.4558220067
 31
0.0
  0
LINE
  5
35F
100
AcDbEntity
  8
LAYER0
 62
         5
100
AcDbLine
 10
-30.4926563902
 20
74.3558220067
 30
0.0
 11
-30.4926563902
 21
74.4558220067
 31
0.0
  0
ARC
  5
360
100
AcDbEntity
  8
LAYER0
 62
         5
100
AcDbCircle
 10
-27.9926563902
 20
71.3039701548
 30
0.0
 40
6.5518518519
210
0.0
220
-0.0
230
1.0
100
AcDbArc
 50
36.0083238261
 51
143.9916792444
  0
LINE
  5
361
100
AcDbEntity
  8
LAYER0
 62
         5
100
AcDbLine
 10
-33.2926563902
 20
74.4558220067
 30
0.0
 11
-33.2926563902
 21
75.1558220067
 31
0.0
  0
LINE
  5
362
100
AcDbEntity
  8
LAYER0
 62
         5
100
AcDbLine
 10
-22.6926563902
 20
74.4558220067
 30
0.0
 11
-22.6926563902
 21
75.1558220067
 31
0.0
  0
LINE
  5
363
100
AcDbEntity
  8
LAYER0
 62
         5
100
AcDbLine
 10
-33.2926563902
 20
75.1558220067
 30
0.0
 11
-22.6926563902
 21
75.1558220067
 31
0.0
  0
LINE
  5
364
100
AcDbEntity
  8
LAYER0
 62
         5
100
AcDbLine
 10
-86.9083853662
 20
40.2558220067
 30
0.0
 11
-93.9083853662
 21
33.2558220067
 31
0.0
  0
LINE
  5
365
100
AcDbEntity
  8
LAYER0
 62
         5
100
AcDbLine
 10
-54.9926565392
 20
72.1715508337
 30
0.0
 11
-61.9926565392
 21
65.1715508337
 31
0.0
  0
LINE
  5
366
100
AcDbEntity
  8
LAYER0
 62
         5
100
AcDbLine
 10
-79.8373175544
 20
40.2558220067
 30
0.0
 11
-86.8373175544
 21
33.2558220067
 31
0.0
  0
LINE
  5
367
100
AcDbEntity
  8
LAYER0
 62
         5
100
AcDbLine
 10
-54.9926565392
 20
65.1004830219
 30
0.0
 11
-61.9926565392
 21
58.1004830219
 31
0.0
  0
LINE
  5
368
100
AcDbEntity
  8
LAYER0
 62
         5
100
AcDbLine
 10
-61.9926565392
 20
51.02941521
 30
0.0
 11
-54.9926565392
 21
58.02941521
 31
0.0
  0
LINE
  5
369
100
AcDbEntity
  8
LAYER0
 62
         5
100
AcDbLine
 10
-79.7662497425
 20
33.2558220067
 30
0.0
 11
-72.7662497425
 21
40.2558220067
 31
0.0
  0
LINE
  5
36A
100
AcDbEntity
  8
LAYER0
 62
         5
100
AcDbLine
 10
-65.6951819306
 20
40.2558220067
 30
0.0
 11
-72.6951819306
 21
33.2558220067
 31
0.0
  0
LINE
  5
36B
100
AcDbEntity
  8
LAYER0
 62
         5
100
AcDbLine
 10
-54.9926565392
 20
50.9583473981
 30
0.0
 11
-61.9926565392
 21
43.9583473981
 31
0.0
  0
LINE
  5
36C
100
AcDbEntity
  8
LAYER0
 62
         1
100
AcDbLine
 10
-54.9926565392
 20
33.2558220067
 30
0.0
 11
-95.8400081612
 21
33.2558220067
 31
0.0
  0
LINE
  5
36D
100
AcDbEntity
  8
LAYER0
 62
         5
100
AcDbLine
 10
-21.6357709346
 20
65.9531192306
 30
0.0
 11
-27.2988418251
 21
66.4924593155
 31
0.0
  0
LINE
  5
36E
100
AcDbEntity
  8
LAYER0
 62
         5
100
AcDbLine
 10
-28.6960895494
 20
69.5201007694
 30
0.0
 11
-34.3495418458
 21
70.0585247976
 31
0.0
  0
LINE
  5
36F
100
AcDbEntity
  8
LAYER0
 62
         5
100
AcDbLine
 10
-34.33838019
 20
67.8905668396
 30
0.0
 11
-29.537672585
 21
67.5236555644
 31
0.0
  0
LINE
  5
370
100
AcDbEntity
  8
LAYER0
 62
         5
100
AcDbLine
 10
-21.6469325904
 20
68.1240771887
 30
0.0
 11
-26.4355173474
 21
68.4900619318
 31
0.0
  0
ARC
  5
371
100
AcDbEntity
  8
LAYER0
 62
         5
100
AcDbCircle
 10
-21.6926563902
 20
70.6558220812
 30
0.0
 40
0.6
210
0.0
220
0.0
230
1.0
100
AcDbArc
 50
269.9999984648
 51
90.0000015352
  0
ARC
  5
372
100
AcDbEntity
  8
LAYER0
 62
         5
100
AcDbCircle
 10
-34.2926563902
 20
70.6558220812
 30
0.0
 40
0.6
210
0.0
220
0.0
230
1.0
100
AcDbArc
 50
90.0000015352
 51
269.9999984648
  0
ARC
  5
373
100
AcDbEntity
  8
LAYER0
 62
         5
100
AcDbCircle
 10
-34.2926563902
 20
68.4888220812
 30
0.0
 40
0.6
210
-0.0
220
-0.0
230
1.0
100
AcDbArc
 50
90.0000015352
 51
274.388619487
  0
LINE
  5
374
100
AcDbEntity
  8
LAYER0
 62
         6
100
AcDbLine
 10
-37.9926563902
 20
32.1558220067
 30
0.0
 11
-40.2926564647
 21
32.1558220067
 31
0.0
  0
LINE
  5
375
100
AcDbEntity
  8
LAYER0
 62
         6
100
AcDbLine
 10
-15.9926563902
 20
32.1558220067
 30
0.0
 11
-17.9926563902
 21
32.1558220067
 31
0.0
  0
LINE
  5
376
100
AcDbEntity
  8
LAYER0
 62
         6
100
AcDbLine
 10
-40.2926564647
 20
15.8558220067
 30
0.0
 11
-40.2926564647
 21
32.1558220067
 31
0.0
  0
LINE
  5
377
100
AcDbEntity
  8
LAYER0
 62
         6
100
AcDbLine
 10
-17.9926563902
 20
33.3558220067
 30
0.0
 11
-37.9926563902
 21
33.3558220067
 31
0.0
  0
LINE
  5
378
100
AcDbEntity
  8
LAYER0
 62
         6
100
AcDbLine
 10
-31.9926563902
 20
71.1558220067
 30
0.0
 11
-31.9926563902
 21
64.7558219471
 31
0.0
  0
LINE
  5
379
100
AcDbEntity
  8
LAYER0
 62
         6
100
AcDbLine
 10
-23.9926563902
 20
64.7558219471
 30
0.0
 11
-23.9926563902
 21
71.1558220067
 31
0.0
  0
LINE
  5
37A
100
AcDbEntity
  8
LAYER0
 62
         6
100
AcDbLine
 10
-31.9926563902
 20
42.7558222302
 30
0.0
 11
-31.9926563902
 21
63.7558217831
 31
0.0
  0
LINE
  5
37B
100
AcDbEntity
  8
LAYER0
 62
         6
100
AcDbLine
 10
-23.9926563902
 20
63.7558217832
 30
0.0
 11
-23.9926563902
 21
42.7558222302
 31
0.0
  0
LINE
  5
37C
100
AcDbEntity
  8
LAYER0
 62
         6
100
AcDbLine
 10
-31.9926563902
 20
35.3558220067
 30
0.0
 11
-31.9926563902
 21
41.7558220663
 31
0.0
  0
LINE
  5
37D
100
AcDbEntity
  8
LAYER0
 62
         5
100
AcDbLine
 10
-21.6467437842
 20
68.8575812997
 30
0.0
 11
-34.2467437842
 21
67.8905812997
 31
0.0
  0
LINE
  5
37E
100
AcDbEntity
  8
LAYER0
 62
         5
100
AcDbLine
 10
-21.7385689962
 20
70.0540628627
 30
0.0
 11
-34.3385689962
 21
69.0870628627
 31
0.0
  0
LINE
  5
37F
100
AcDbEntity
  8
LAYER0
 62
         5
100
AcDbLine
 10
-34.2926563902
 20
70.0558220812
 30
0.0
 11
-21.6926563902
 21
70.0558220812
 31
0.0
  0
LINE
  5
380
100
AcDbEntity
  8
LAYER0
 62
         5
100
AcDbLine
 10
-21.6926563902
 20
71.2558220812
 30
0.0
 11
-34.2926563902
 21
71.2558220812
 31
0.0
  0
ARC
  5
381
100
AcDbEntity
  8
LAYER0
 62
         6
100
AcDbCircle
 10
-40.2926564647
 20
74.3558220067
 30
0.0
 40
3.2
210
0.0
220
0.0
230
1.0
100
AcDbArc
 50
179.9999969295
 51
269.9999984648
  0
LINE
  5
382
100
AcDbEntity
  8
LAYER0
 62
         5
100
AcDbLine
 10
-17.9926563902
 20
74.3558220067
 30
0.0
 11
-37.9926563902
 21
74.3558220067
 31
0.0
  0
ARC
  5
383
100
AcDbEntity
  8
LAYER0
 62
         6
100
AcDbCircle
 10
-20.9926563902
 20
87.6558220067
 30
0.0
 40
3.0
210
0.0
220
-0.0
230
1.0
100
AcDbArc
 50
0.0
 51
90.0000015352
  0
ARC
  5
384
100
AcDbEntity
  8
LAYER0
 62
         6
100
AcDbCircle
 10
-34.9926563902
 20
87.6558220067
 30
0.0
 40
3.0
210
0.0
220
0.0
230
1.0
100
AcDbArc
 50
90.0000015352
 51
179.9999969295
  0
LINE
  5
385
100
AcDbEntity
  8
LAYER0
 62
         6
100
AcDbLine
 10
-34.9926563902
 20
90.6558220067
 30
0.0
 11
-20.9926563902
 21
90.6558220067
 31
0.0
  0
LINE
  5
386
100
AcDbEntity
  8
LAYER0
 62
         6
100
AcDbLine
 10
-37.9926563902
 20
87.6558220067
 30
0.0
 11
-37.9926563902
 21
71.1558220067
 31
0.0
  0
LINE
  5
387
100
AcDbEntity
  8
LAYER0
 62
         6
100
AcDbLine
 10
-17.9926563902
 20
87.6558220067
 30
0.0
 11
-17.9926563902
 21
71.1558220067
 31
0.0
  0
LINE
  5
388
100
AcDbEntity
  8
LAYER0
 62
         6
100
AcDbLine
 10
-15.9926563902
 20
74.3558220067
 30
0.0
 11
-15.9926563902
 21
71.1558220067
 31
0.0
  0
LINE
  5
389
100
AcDbEntity
  8
LAYER0
 62
         6
100
AcDbLine
 10
-15.9926563902
 20
71.1558220067
 30
0.0
 11
-40.2926564647
 21
71.1558220067
 31
0.0
  0
LINE
  5
38A
100
AcDbEntity
  8
LAYER0
 62
         6
100
AcDbLine
 10
-43.4926564647
 20
90.6558220067
 30
0.0
 11
-43.4926564647
 21
74.3558220067
 31
0.0
  0
LINE
  5
38B
100
AcDbEntity
  8
LAYER0
 62
         6
100
AcDbLine
 10
-40.2926564647
 20
90.6558220067
 30
0.0
 11
-43.4926564647
 21
90.6558220067
 31
0.0
  0
LINE
  5
38C
100
AcDbEntity
  8
LAYER0
 62
         6
100
AcDbLine
 10
-37.9926563902
 20
74.3558220067
 30
0.0
 11
-40.2926564647
 21
74.3558220067
 31
0.0
  0
LINE
  5
38D
100
AcDbEntity
  8
LAYER0
  6
CENTER
100
AcDbLine
 10
-27.9926563902
 20
35.7558219322
 30
0.0
 11
-27.9926563902
 21
72.3595783649
 31
0.0
  0
LINE
  5
38E
100
AcDbEntity
  8
LAYER0
  6
CENTER
100
AcDbLine
 10
-45.4926564647
 20
53.2558220067
 30
0.0
 11
-27.9926563902
 21
53.2558220067
 31
0.0
  0
LINE
  5
38F
100
AcDbEntity
  8
LAYER0
 62
         5
100
AcDbLine
 10
-54.9926565392
 20
36.8162117744
 30
0.0
 11
-58.5530463069
 21
33.2558220067
 31
0.0
  0
LINE
  5
390
100
AcDbEntity
  8
LAYER0
 62
         5
100
AcDbLine
 10
-54.9926565392
 20
43.8872795863
 30
0.0
 11
-65.6241141188
 21
33.2558220067
 31
0.0
  0
LINE
  5
391
100
AcDbEntity
  8
LAYER0
 62
         5
100
AcDbLine
 10
-54.9926565392
 20
79.2426186456
 30
0.0
 11
-61.9926565392
 21
72.2426186456
 31
0.0
  0
LINE
  5
392
100
AcDbEntity
  8
LAYER0
 62
         5
100
AcDbLine
 10
-54.9926565392
 20
86.3136864575
 30
0.0
 11
-61.9926565392
 21
79.3136864575
 31
0.0
  0
LINE
  5
393
100
AcDbEntity
  8
LAYER0
 62
         5
100
AcDbLine
 10
-54.9926565392
 20
93.3847542693
 30
0.0
 11
-61.9926565392
 21
86.3847542693
 31
0.0
  0
LINE
  5
394
100
AcDbEntity
  8
LAYER0
 62
         5
100
AcDbLine
 10
-54.9926565392
 20
100.4558220812
 30
0.0
 11
-61.9926565392
 21
93.4558220812
 31
0.0
  0
LINE
  5
395
100
AcDbEntity
  8
LAYER0
 62
         1
100
AcDbLine
 10
-54.9926565392
 20
33.2558220067
 30
0.0
 11
-54.9926565392
 21
100.4558220812
 31
0.0
  0
LINE
  5
396
100
AcDbEntity
  8
LAYER0
 62
         5
100
AcDbLine
 10
-27.9926563902
 20
77.8558220067
 30
0.0
 11
-27.9926563902
 21
76.1058220067
 31
0.0
  0
LINE
  5
397
100
AcDbEntity
  8
LAYER0
 62
         5
100
AcDbLine
 10
-22.6926563902
 20
74.4558220067
 30
0.0
 11
-33.2926563902
 21
74.4558220067
 31
0.0
  0
LINE
  5
398
100
AcDbEntity
  8
LAYER0
 62
         5
100
AcDbLine
 10
-27.9926563902
 20
74.3558220067
 30
0.0
 11
-27.9926563902
 21
74.4558220067
 31
0.0
  0
LINE
  5
399
100
AcDbEntity
  8
LAYER0
 62
         6
100
AcDbLine
 10
-27.9926563902
 20
71.2558220812
 30
0.0
 11
-31.9926563902
 21
71.2558220812
 31
0.0
  0
LINE
  5
39A
100
AcDbEntity
  8
LAYER0
 62
         5
100
AcDbLine
 10
-23.9926563902
 20
74.4558220067
 30
0.0
 11
-27.9926563902
 21
74.4558220067
 31
0.0
  0
ARC
  5
39B
100
AcDbEntity
  8
LAYER0
 62
         6
100
AcDbCircle
 10
-40.2926564647
 20
32.1558220067
 30
0.0
 40
3.2
210
0.0
220
0.0
230
1.0
100
AcDbArc
 50
90.0000015352
 51
180.0000030705
  0
LINE
  5
39C
100
AcDbEntity
  8
LAYER0
 62
         5
100
AcDbLine
 10
-17.9926563902
 20
32.1558220067
 30
0.0
 11
-37.9926563902
 21
32.1558220067
 31
0.0
  0
ARC
  5
39D
100
AcDbEntity
  8
LAYER0
 62
         6
100
AcDbCircle
 10
-20.9926563902
 20
18.8558220067
 30
0.0
 40
3.0
210
-0.0
220
0.0
230
1.0
100
AcDbArc
 50
269.9999984648
 51
0.0
  0
ARC
  5
39E
100
AcDbEntity
  8
LAYER0
 62
         6
100
AcDbCircle
 10
-34.9926563902
 20
18.8558220067
 30
0.0
 40
3.0
210
0.0
220
0.0
230
1.0
100
AcDbArc
 50
180.0000030705
 51
269.9999984648
  0
LINE
  5
39F
100
AcDbEntity
  8
LAYER0
 62
         6
100
AcDbLine
 10
-34.9926563902
 20
15.8558220067
 30
0.0
 11
-20.9926563902
 21
15.8558220067
 31
0.0
  0
LINE
  5
3A0
100
AcDbEntity
  8
LAYER0
 62
         6
100
AcDbLine
 10
-37.9926563902
 20
18.8558220067
 30
0.0
 11
-37.9926563902
 21
35.3558220067
 31
0.0
  0
LINE
  5
3A1
100
AcDbEntity
  8
LAYER0
 62
         6
100
AcDbLine
 10
-17.9926563902
 20
18.8558220067
 30
0.0
 11
-17.9926563902
 21
35.3558220067
 31
0.0
  0
LINE
  5
3A2
100
AcDbEntity
  8
LAYER0
 62
         6
100
AcDbLine
 10
-15.9926563902
 20
32.1558220067
 30
0.0
 11
-15.9926563902
 21
35.3558220067
 31
0.0
  0
LINE
  5
3A3
100
AcDbEntity
  8
LAYER0
 62
         6
100
AcDbLine
 10
-15.9926563902
 20
35.3558220067
 30
0.0
 11
-40.2926564647
 21
35.3558220067
 31
0.0
  0
LINE
  5
3A4
100
AcDbEntity
  8
LAYER0
 62
         6
100
AcDbLine
 10
-43.4926564647
 20
15.8558220067
 30
0.0
 11
-43.4926564647
 21
32.1558220067
 31
0.0
  0
LINE
  5
3A5
100
AcDbEntity
  8
LAYER0
 62
         6
100
AcDbLine
 10
-40.2926564647
 20
15.8558220067
 30
0.0
 11
-43.4926564647
 21
15.8558220067
 31
0.0
  0
LINE
  5
3A6
100
AcDbEntity
  8
LAYER3
 62
         4
100
AcDbLine
 10
-77.9926565392
 20
-85.2527081443
 30
0.0
 11
-75.058213737
 21
-84.6289730719
 31
0.0
  0
LINE
  5
3A7
100
AcDbEntity
  8
LAYER3
 62
         4
100
AcDbLine
 10
-77.9926565392
 20
-85.2527081443
 30
0.0
 11
-75.058213737
 21
-85.8764432168
 31
0.0
  0
LINE
  5
3A8
100
AcDbEntity
  8
LAYER3
 62
         4
100
AcDbLine
 10
-77.9926565392
 20
-85.2527081443
 30
0.0
 11
-54.9926565392
 21
-85.2527081443
 31
0.0
  0
LINE
  5
3A9
100
AcDbEntity
  8
LAYER3
 62
         4
100
AcDbLine
 10
-77.9926565392
 20
-64.7470552749
 30
0.0
 11
-77.9926565392
 21
-86.2527081443
 31
0.0
  0
MTEXT
  5
3AA
100
AcDbEntity
  8
LAYER3
100
AcDbMText
 10
-94.2915148587
 20
-82.6470553496
 30
0.0
 40
2.1473683357
 41
2.5646459961
 71
         1
 72
         1
  1
\W0.8;25
 11
-0.0000000268
 21
1.0
 31
0.0
  0
LINE
  5
3AB
100
AcDbEntity
  8
LAYER3
 62
         4
100
AcDbLine
 10
-90.5038561673
 20
-92.7470552749
 30
0.0
 11
-91.1275912398
 21
-89.8126124727
 31
0.0
  0
LINE
  5
3AC
100
AcDbEntity
  8
LAYER3
 62
         4
100
AcDbLine
 10
-90.5038561673
 20
-92.7470552749
 30
0.0
 11
-89.8801210949
 21
-89.8126124727
 31
0.0
  0
LINE
  5
3AD
100
AcDbEntity
  8
LAYER3
 62
         4
100
AcDbLine
 10
-90.5038561673
 20
-67.7470552749
 30
0.0
 11
-89.8801210949
 21
-70.6814980771
 31
0.0
  0
LINE
  5
3AE
100
AcDbEntity
  8
LAYER3
 62
         4
100
AcDbLine
 10
-90.5038561673
 20
-67.7470552749
 30
0.0
 11
-91.1275912398
 21
-70.6814980771
 31
0.0
  0
LINE
  5
3AF
100
AcDbEntity
  8
LAYER3
 62
         4
100
AcDbLine
 10
-90.5038561673
 20
-67.7470552749
 30
0.0
 11
-90.5038561673
 21
-92.7470552749
 31
0.0
  0
LINE
  5
3B0
100
AcDbEntity
  8
LAYER3
 62
         4
100
AcDbLine
 10
-38.9926563902
 20
-92.7470552749
 30
0.0
 11
-91.5038561673
 21
-92.7470552749
 31
0.0
  0
LINE
  5
3B1
100
AcDbEntity
  8
LAYER3
 62
         4
100
AcDbLine
 10
-78.9926565392
 20
-67.7470552749
 30
0.0
 11
-91.5038561673
 21
-67.7470552749
 31
0.0
  0
MTEXT
  5
3B2
100
AcDbEntity
  8
LAYER3
100
AcDbMText
 10
-94.2915148587
 20
-45.1470553496
 30
0.0
 40
2.1473683357
 41
2.5646459961
 71
         1
 72
         1
  1
\W0.8;50
 11
-0.0000000268
 21
1.0
 31
0.0
  0
LINE
  5
3B3
100
AcDbEntity
  8
LAYER0
 62
         6
100
AcDbLine
 10
-23.9926563902
 20
41.7558220663
 30
0.0
 11
-23.9926563902
 21
35.3558220067
 31
0.0
  0
LINE
  5
3B4
100
AcDbEntity
  8
LAYER0
 62
         5
100
AcDbLine
 10
-23.9926563902
 20
32.1558220067
 30
0.0
 11
-23.9926563902
 21
32.0558220067
 31
0.0
  0
LINE
  5
3B5
100
AcDbEntity
  8
LAYER0
 62
         5
100
AcDbLine
 10
-30.4926563902
 20
32.1558220067
 30
0.0
 11
-30.4926563902
 21
32.0558220067
 31
0.0
  0
ARC
  5
3B6
100
AcDbEntity
  8
LAYER0
 62
         5
100
AcDbCircle
 10
-27.9926563902
 20
35.2076738585
 30
0.0
 40
6.5518518519
210
0.0
220
0.0
230
1.0
100
AcDbArc
 50
216.0083207556
 51
323.9916761739
  0
LINE
  5
3B7
100
AcDbEntity
  8
LAYER0
 62
         5
100
AcDbLine
 10
-33.2926563902
 20
32.0558220067
 30
0.0
 11
-33.2926563902
 21
31.3558220067
 31
0.0
  0
LINE
  5
3B8
100
AcDbEntity
  8
LAYER0
 62
         5
100
AcDbLine
 10
-22.6926563902
 20
32.0558220067
 30
0.0
 11
-22.6926563902
 21
31.3558220067
 31
0.0
  0
LINE
  5
3B9
100
AcDbEntity
  8
LAYER0
 62
         5
100
AcDbLine
 10
-33.2926563902
 20
31.3558220067
 30
0.0
 11
-22.6926563902
 21
31.3558220067
 31
0.0
  0
LINE
  5
3BA
100
AcDbEntity
  8
LAYER0
 62
         5
100
AcDbLine
 10
-27.9926563902
 20
28.6558220067
 30
0.0
 11
-27.9926563902
 21
30.4058220067
 31
0.0
  0
LINE
  5
3BB
100
AcDbEntity
  8
LAYER0
 62
         5
100
AcDbLine
 10
-22.6926563902
 20
32.0558220067
 30
0.0
 11
-33.2926563902
 21
32.0558220067
 31
0.0
  0
LINE
  5
3BC
100
AcDbEntity
  8
LAYER0
 62
         5
100
AcDbLine
 10
-27.9926563902
 20
32.1558220067
 30
0.0
 11
-27.9926563902
 21
32.0558220067
 31
0.0
  0
LINE
  5
3BD
100
AcDbEntity
  8
LAYER0
 62
         6
100
AcDbLine
 10
-27.9926563902
 20
35.3558220067
 30
0.0
 11
-31.9926563902
 21
35.3558220067
 31
0.0
  0
LINE
  5
3BE
100
AcDbEntity
  8
LAYER0
 62
         5
100
AcDbLine
 10
-23.9926563902
 20
32.0558220067
 30
0.0
 11
-27.9926563902
 21
32.0558220067
 31
0.0
  0
LINE
  5
3BF
100
AcDbEntity
  8
LAYER3
 62
         4
100
AcDbLine
 10
-83.9550507508
 20
-51.7470552749
 30
0.0
 11
-84.5787858232
 21
-48.8126124727
 31
0.0
  0
LINE
  5
3C0
100
AcDbEntity
  8
LAYER3
 62
         4
100
AcDbLine
 10
-83.9550507508
 20
-51.7470552749
 30
0.0
 11
-83.3313156783
 21
-48.8126124727
 31
0.0
  0
LINE
  5
3C1
100
AcDbEntity
  8
LAYER3
 62
         4
100
AcDbLine
 10
-83.9550507508
 20
-33.7470552749
 30
0.0
 11
-83.3313156783
 21
-36.6814980771
 31
0.0
  0
LINE
  5
3C2
100
AcDbEntity
  8
LAYER3
 62
         4
100
AcDbLine
 10
-83.9550507508
 20
-33.7470552749
 30
0.0
 11
-84.5787858232
 21
-36.6814980771
 31
0.0
  0
LINE
  5
3C3
100
AcDbEntity
  8
LAYER3
 62
         4
100
AcDbLine
 10
-83.9550507508
 20
-33.7470552749
 30
0.0
 11
-83.9550507508
 21
-51.7470552749
 31
0.0
  0
LINE
  5
3C4
100
AcDbEntity
  8
LAYER3
 62
         4
100
AcDbLine
 10
-76.4887702506
 20
-51.7470552749
 30
0.0
 11
-84.9550507508
 21
-51.7470552749
 31
0.0
  0
LINE
  5
3C5
100
AcDbEntity
  8
LAYER3
 62
         4
100
AcDbLine
 10
-76.4887702506
 20
-33.7470552749
 30
0.0
 11
-84.9550507508
 21
-33.7470552749
 31
0.0
  0
LINE
  5
3C6
100
AcDbEntity
  8
LAYER3
 62
         4
100
AcDbLine
 10
-90.5038561673
 20
-67.7470552749
 30
0.0
 11
-91.1275912398
 21
-64.8126124727
 31
0.0
  0
LINE
  5
3C7
100
AcDbEntity
  8
LAYER3
 62
         4
100
AcDbLine
 10
-90.5038561673
 20
-67.7470552749
 30
0.0
 11
-89.8801210949
 21
-64.8126124727
 31
0.0
  0
LINE
  5
3C8
100
AcDbEntity
  8
LAYER3
 62
         4
100
AcDbLine
 10
-90.5038561673
 20
-17.7470552749
 30
0.0
 11
-89.8801210949
 21
-20.6814980771
 31
0.0
  0
LINE
  5
3C9
100
AcDbEntity
  8
LAYER3
 62
         4
100
AcDbLine
 10
-90.5038561673
 20
-17.7470552749
 30
0.0
 11
-91.1275912398
 21
-20.6814980771
 31
0.0
  0
LINE
  5
3CA
100
AcDbEntity
  8
LAYER3
 62
         4
100
AcDbLine
 10
-90.5038561673
 20
-17.7470552749
 30
0.0
 11
-90.5038561673
 21
-67.7470552749
 31
0.0
  0
LINE
  5
3CB
100
AcDbEntity
  8
LAYER3
 62
         4
100
AcDbLine
 10
-74.9926565392
 20
-67.7470552749
 30
0.0
 11
-91.5038561673
 21
-67.7470552749
 31
0.0
  0
LINE
  5
3CC
100
AcDbEntity
  8
LAYER3
 62
         4
100
AcDbLine
 10
-83.9550507508
 20
-17.7470552749
 30
0.0
 11
-91.5038561673
 21
-17.7470552749
 31
0.0
  0
MTEXT
  5
3CD
100
AcDbEntity
  8
LAYER3
100
AcDbMText
 10
-87.7427094422
 20
-28.1470553496
 30
0.0
 40
2.1473683357
 41
2.5646459961
 71
         1
 72
         1
  1
\W0.8;16
 11
-0.0000000268
 21
1.0
 31
0.0
  0
LINE
  5
3CE
100
AcDbEntity
  8
LAYER3
 62
         4
100
AcDbLine
 10
-83.9550507508
 20
-17.7470552749
 30
0.0
 11
-83.3313156783
 21
-20.6814980771
 31
0.0
  0
LINE
  5
3CF
100
AcDbEntity
  8
LAYER3
 62
         4
100
AcDbLine
 10
-83.9550507508
 20
-17.7470552749
 30
0.0
 11
-84.5787858232
 21
-20.6814980771
 31
0.0
  0
LINE
  5
3D0
100
AcDbEntity
  8
LAYER3
 62
         4
100
AcDbLine
 10
-83.9550507508
 20
-33.7470552749
 30
0.0
 11
-84.5787858232
 21
-30.8126124727
 31
0.0
  0
LINE
  5
3D1
100
AcDbEntity
  8
LAYER3
 62
         4
100
AcDbLine
 10
-83.9550507508
 20
-33.7470552749
 30
0.0
 11
-83.3313156783
 21
-30.8126124727
 31
0.0
  0
LINE
  5
3D2
100
AcDbEntity
  8
LAYER3
 62
         4
100
AcDbLine
 10
-83.9550507508
 20
-33.7470552749
 30
0.0
 11
-83.9550507508
 21
-17.7470552749
 31
0.0
  0
LINE
  5
3D3
100
AcDbEntity
  8
LAYER3
 62
         4
100
AcDbLine
 10
-74.9926565392
 20
-17.7470552749
 30
0.0
 11
-84.9550507508
 21
-17.7470552749
 31
0.0
  0
LINE
  5
3D4
100
AcDbEntity
  8
LAYER3
 62
         4
100
AcDbLine
 10
-76.4887702506
 20
-33.7470552749
 30
0.0
 11
-84.9550507508
 21
-33.7470552749
 31
0.0
  0
MTEXT
  5
3D5
100
AcDbEntity
  8
LAYER3
100
AcDbMText
 10
-68.8926565392
 20
-81.4650494529
 30
0.0
 40
2.1473683357
 41
2.5646459961
 71
         1
 72
         1
  1
\W0.8;23
  0
LINE
  5
3D6
100
AcDbEntity
  8
LAYER3
 62
         4
100
AcDbLine
 10
-54.9926565392
 20
-85.2527081443
 30
0.0
 11
-57.9270993414
 21
-85.8764432168
 31
0.0
  0
LINE
  5
3D7
100
AcDbEntity
  8
LAYER3
 62
         4
100
AcDbLine
 10
-54.9926565392
 20
-85.2527081443
 30
0.0
 11
-57.9270993414
 21
-84.6289730719
 31
0.0
  0
LINE
  5
3D8
100
AcDbEntity
  8
LAYER0
 62
         2
100
AcDbLine
 10
-61.5926565392
 20
-22.9470552749
 30
0.0
 11
-61.3231789663
 21
-22.9470552749
 31
0.0
  0
LINE
  5
3D9
100
AcDbEntity
  8
LAYER0
 62
         2
100
AcDbLine
 10
-61.7926565392
 20
-23.7470552749
 30
0.0
 11
-61.7926565392
 21
-27.7470552749
 31
0.0
  0
ARC
  5
3DA
100
AcDbEntity
  8
LAYER0
 62
         2
100
AcDbCircle
 10
-57.1407836877
 20
-42.7470552749
 30
0.0
 40
4.2518728515
210
0.0
220
0.0
230
1.0
100
AcDbArc
 50
157.7162062168
 51
202.2837937832
  0
ARC
  5
3DB
100
AcDbEntity
  8
LAYER0
 62
         2
100
AcDbCircle
 10
-60.24156444
 20
-40.340911895
 30
0.0
 40
1.1510920992
210
0.0
220
0.0
230
1.0
100
AcDbArc
 50
136.397183354
 51
223.602816646
  0
ARC
  5
3DC
100
AcDbEntity
  8
LAYER0
 62
         2
100
AcDbCircle
 10
-60.24156444
 20
-45.1531986548
 30
0.0
 40
1.1510920992
210
0.0
220
0.0
230
1.0
100
AcDbArc
 50
136.397183354
 51
223.602816646
  0
LINE
  5
3DD
100
AcDbEntity
  8
LAYER0
 62
         2
100
AcDbLine
 10
-58.1926565392
 20
-41.1347685152
 30
0.0
 11
-61.0751138911
 21
-41.1347685152
 31
0.0
  0
LINE
  5
3DE
100
AcDbEntity
  8
LAYER0
 62
         2
100
AcDbLine
 10
-58.5073859392
 20
-39.5470552749
 30
0.0
 11
-61.0751138911
 21
-39.5470552749
 31
0.0
  0
INSERT
  5
3E0
100
AcDbEntity
  8
0
100
AcDbBlockReference
  2
CLUMP34
 10
0.0
 20
0.0
 30
0.0
  0
INSERT
  5
3F0
100
AcDbEntity
  8
0
100
AcDbBlockReference
  2
CLUMP36
 10
0.0
 20
0.0
 30
0.0
  0
LINE
  5
3FC
100
AcDbEntity
  8
LAYER0
 62
         4
100
AcDbLine
 10
-47.4926564647
 20
-71.9470552749
 30
0.0
 11
-47.4926564647
 21
-100.7470552749
 31
0.0
  0
LINE
  5
3FD
100
AcDbEntity
  8
LAYER0
 62
         4
100
AcDbLine
 10
-47.4926564647
 20
-2.7470552749
 30
0.0
 11
-47.4926564647
 21
-68.7470552749
 31
0.0
  0
CIRCLE
  5
3FE
100
AcDbEntity
  8
LAYER0
 62
         2
100
AcDbCircle
 10
-27.9926563902
 20
-57.7470552749
 30
0.0
 40
6.0
210
0.0
220
0.0
230
1.0
  0
INSERT
  5
400
100
AcDbEntity
  8
0
100
AcDbBlockReference
  2
CLUMP38
 10
0.0
 20
0.0
 30
0.0
  0
INSERT
  5
413
100
AcDbEntity
  8
0
100
AcDbBlockReference
  2
CLUMP40
 10
0.0
 20
0.0
 30
0.0
  0
LINE
  5
425
100
AcDbEntity
  8
LAYER3
 62
         4
100
AcDbLine
 10
-83.9550507508
 20
-51.7470552749
 30
0.0
 11
-84.5787858232
 21
-48.8126124727
 31
0.0
  0
LINE
  5
426
100
AcDbEntity
  8
LAYER3
 62
         4
100
AcDbLine
 10
-83.9550507508
 20
-51.7470552749
 30
0.0
 11
-83.3313156783
 21
-48.8126124727
 31
0.0
  0
LINE
  5
427
100
AcDbEntity
  8
LAYER3
 62
         4
100
AcDbLine
 10
-83.9550507508
 20
-46.7470552749
 30
0.0
 11
-83.9550507508
 21
-51.7470552749
 31
0.0
  0
LINE
  5
428
100
AcDbEntity
  8
LAYER3
 62
         4
100
AcDbLine
 10
-83.9550507508
 20
-57.7470552749
 30
0.0
 11
-83.3313156783
 21
-60.6814980771
 31
0.0
  0
LINE
  5
429
100
AcDbEntity
  8
LAYER3
 62
         4
100
AcDbLine
 10
-83.9550507508
 20
-57.7470552749
 30
0.0
 11
-84.5787858232
 21
-60.6814980771
 31
0.0
  0
LINE
  5
42A
100
AcDbEntity
  8
LAYER3
 62
         4
100
AcDbLine
 10
-83.9550507508
 20
-65.1470552749
 30
0.0
 11
-83.9550507508
 21
-57.7470552749
 31
0.0
  0
MTEXT
  5
42B
100
AcDbEntity
  8
LAYER3
100
AcDbMText
 10
-87.7427094422
 20
-64.1470553496
 30
0.0
 40
2.1473683357
 41
1.282322998
 71
         1
 72
         1
  1
\W0.8;6
 11
-0.0000000268
 21
1.0
 31
0.0
  0
LINE
  5
42C
100
AcDbEntity
  8
LAYER3
 62
         4
100
AcDbLine
 10
-83.9550507508
 20
-51.7470552749
 30
0.0
 11
-83.9550507508
 21
-57.7470552749
 31
0.0
  0
LINE
  5
42D
100
AcDbEntity
  8
LAYER3
 62
         4
100
AcDbLine
 10
-48.515402787
 20
-57.7470552749
 30
0.0
 11
-84.9550507508
 21
-57.7470552749
 31
0.0
  0
LINE
  5
42E
100
AcDbEntity
  8
LAYER3
 62
         4
100
AcDbLine
 10
-76.4887702506
 20
-51.7470552749
 30
0.0
 11
-84.9550507508
 21
-51.7470552749
 31
0.0
  0
MTEXT
  5
42F
100
AcDbEntity
  8
LAYER3
100
AcDbMText
 10
-87.7427094422
 20
-45.1470553496
 30
0.0
 40
2.1473683357
 41
2.5646459961
 71
         1
 72
         1
  1
\W0.8;18
 11
-0.0000000268
 21
1.0
 31
0.0
  0
ARC
  5
430
100
AcDbEntity
  8
LAYER0
 62
         2
100
AcDbCircle
 10
-67.9926565392
 20
-51.7470552749
 30
0.0
 40
2.8
210
-0.0
220
0.0
230
1.0
100
AcDbArc
 50
349.7134392131
 51
10.2865607869
  0
LINE
  5
431
100
AcDbEntity
  8
LAYER0
 62
         2
100
AcDbLine
 10
-67.4926565392
 20
-52.2470552749
 30
0.0
 11
-65.2376610764
 21
-52.2470552749
 31
0.0
  0
LINE
  5
432
100
AcDbEntity
  8
LAYER0
 62
         2
100
AcDbLine
 10
-70.747652002
 20
-52.2470552749
 30
0.0
 11
-68.4926565392
 21
-52.2470552749
 31
0.0
  0
LINE
  5
433
100
AcDbEntity
  8
LAYER0
 62
         2
100
AcDbLine
 10
-68.4926565392
 20
-51.2470552749
 30
0.0
 11
-70.747652002
 21
-51.2470552749
 31
0.0
  0
LINE
  5
434
100
AcDbEntity
  8
LAYER0
 62
         2
100
AcDbLine
 10
-65.2376610764
 20
-51.2470552749
 30
0.0
 11
-67.4926565392
 21
-51.2470552749
 31
0.0
  0
LINE
  5
435
100
AcDbEntity
  8
LAYER0
 62
         2
100
AcDbLine
 10
-68.4926565392
 20
-51.2470552749
 30
0.0
 11
-68.4926565392
 21
-48.9920598121
 31
0.0
  0
LINE
  5
436
100
AcDbEntity
  8
LAYER0
 62
         2
100
AcDbLine
 10
-68.4926565392
 20
-54.5020507377
 30
0.0
 11
-68.4926565392
 21
-52.2470552749
 31
0.0
  0
LINE
  5
437
100
AcDbEntity
  8
LAYER0
 62
         2
100
AcDbLine
 10
-67.4926565392
 20
-52.2470552749
 30
0.0
 11
-67.4926565392
 21
-54.5020507377
 31
0.0
  0
LINE
  5
438
100
AcDbEntity
  8
LAYER0
 62
         2
100
AcDbLine
 10
-67.4926565392
 20
-48.9920598121
 30
0.0
 11
-67.4926565392
 21
-51.2470552749
 31
0.0
  0
ARC
  5
439
100
AcDbEntity
  8
LAYER0
 62
         2
100
AcDbCircle
 10
-67.9926565392
 20
-33.7470552749
 30
0.0
 40
2.8
210
0.0
220
0.0
230
1.0
100
AcDbArc
 50
259.7134376778
 51
280.2865592517
  0
ARC
  5
43A
100
AcDbEntity
  8
LAYER0
 62
         2
100
AcDbCircle
 10
-67.9926565392
 20
-33.7470552749
 30
0.0
 40
2.8
210
0.0
220
0.0
230
1.0
100
AcDbArc
 50
169.7134422835
 51
190.2865577165
  0
ARC
  5
43B
100
AcDbEntity
  8
LAYER0
 62
         2
100
AcDbCircle
 10
-67.9926565392
 20
-33.7470552749
 30
0.0
 40
2.8
210
0.0
220
-0.0
230
1.0
100
AcDbArc
 50
79.7134407483
 51
100.2865623222
  0
ARC
  5
43C
100
AcDbEntity
  8
LAYER0
 62
         2
100
AcDbCircle
 10
-67.9926565392
 20
-33.7470552749
 30
0.0
 40
2.8
210
-0.0
220
0.0
230
1.0
100
AcDbArc
 50
349.7134392131
 51
10.2865607869
  0
LINE
  5
43D
100
AcDbEntity
  8
LAYER0
 62
         2
100
AcDbLine
 10
-67.4926565392
 20
-34.2470552749
 30
0.0
 11
-65.2376610764
 21
-34.2470552749
 31
0.0
  0
ARC
  5
43E
100
AcDbEntity
  8
LAYER0
 62
         2
100
AcDbCircle
 10
-57.1407836877
 20
-25.7470552749
 30
0.0
 40
4.2518728515
210
0.0
220
0.0
230
1.0
100
AcDbArc
 50
157.7162062168
 51
202.2837937832
  0
ARC
  5
43F
100
AcDbEntity
  8
LAYER0
 62
         2
100
AcDbCircle
 10
-60.24156444
 20
-23.340911895
 30
0.0
 40
1.1510920992
210
0.0
220
0.0
230
1.0
100
AcDbArc
 50
136.397183354
 51
223.602816646
  0
ARC
  5
440
100
AcDbEntity
  8
LAYER0
 62
         2
100
AcDbCircle
 10
-60.24156444
 20
-28.1531986548
 30
0.0
 40
1.1510920992
210
0.0
220
0.0
230
1.0
100
AcDbArc
 50
136.397183354
 51
223.602816646
  0
LINE
  5
441
100
AcDbEntity
  8
LAYER0
 62
         2
100
AcDbLine
 10
-58.1926565392
 20
-24.1347685152
 30
0.0
 11
-61.0751138911
 21
-24.1347685152
 31
0.0
  0
LINE
  5
442
100
AcDbEntity
  8
LAYER0
 62
         2
100
AcDbLine
 10
-58.5073859392
 20
-22.5470552749
 30
0.0
 11
-61.0751138911
 21
-22.5470552749
 31
0.0
  0
LINE
  5
443
100
AcDbEntity
  8
LAYER0
 62
         2
100
AcDbLine
 10
-61.3926565392
 20
-28.1531986548
 30
0.0
 11
-61.3926565392
 21
-23.340911895
 31
0.0
  0
LINE
  5
444
100
AcDbEntity
  8
LAYER0
 62
         2
100
AcDbLine
 10
-58.1926565392
 20
-28.9470552749
 30
0.0
 11
-58.1926565392
 21
-22.5470552749
 31
0.0
  0
LINE
  5
445
100
AcDbEntity
  8
LAYER0
 62
         2
100
AcDbLine
 10
-58.1926565392
 20
-27.3593420346
 30
0.0
 11
-61.0751138911
 21
-27.3593420346
 31
0.0
  0
LINE
  5
446
100
AcDbEntity
  8
LAYER0
 62
         2
100
AcDbLine
 10
-58.1926565392
 20
-28.9470552749
 30
0.0
 11
-61.0751138911
 21
-28.9470552749
 31
0.0
  0
ARC
  5
447
100
AcDbEntity
  8
LAYER0
 62
         2
100
AcDbCircle
 10
-61.5926565392
 20
-25.7470552749
 30
0.0
 40
2.8
210
0.0
220
0.0
230
1.0
100
AcDbArc
 50
90.0000015352
 51
269.9999984648
  0
LINE
  5
448
100
AcDbEntity
  8
LAYER0
 62
         2
100
AcDbLine
 10
-61.3231789663
 20
-28.5470552749
 30
0.0
 11
-61.5926565392
 21
-28.5470552749
 31
0.0
  0
LINE
  5
449
100
AcDbEntity
  8
LAYER0
 62
         2
100
AcDbLine
 10
-67.4926565392
 20
-30.9920598121
 30
0.0
 11
-67.4926565392
 21
-33.2470552749
 31
0.0
  0
CIRCLE
  5
44A
100
AcDbEntity
  8
LAYER0
 62
         2
100
AcDbCircle
 10
-67.9926565392
 20
-51.7470552749
 30
0.0
 40
3.5
210
0.0
220
0.0
230
1.0
  0
CIRCLE
  5
44B
100
AcDbEntity
  8
LAYER0
 62
         2
100
AcDbCircle
 10
-67.9926565392
 20
-33.7470552749
 30
0.0
 40
3.5
210
0.0
220
0.0
230
1.0
  0
ARC
  5
44C
100
AcDbEntity
  8
LAYER0
 62
         3
100
AcDbCircle
 10
-73.9926565392
 20
-63.7470552749
 30
0.0
 40
4.0
210
0.0
220
0.0
230
1.0
100
AcDbArc
 50
180.0000030705
 51
269.9999984648
  0
ARC
  5
44D
100
AcDbEntity
  8
LAYER0
 62
         3
100
AcDbCircle
 10
-73.9926565392
 20
-21.7470552749
 30
0.0
 40
4.0
210
0.0
220
0.0
230
1.0
100
AcDbArc
 50
90.0000015352
 51
180.0000030705
  0
LINE
  5
44E
100
AcDbEntity
  8
LAYER0
  6
CENTER
100
AcDbLine
 10
-61.0409623997
 20
-51.7470552749
 30
0.0
 11
-75.4887702506
 21
-51.7470552749
 31
0.0
  0
LINE
  5
44F
100
AcDbEntity
  8
LAYER0
  6
CENTER
100
AcDbLine
 10
-61.0409623997
 20
-33.7470552749
 30
0.0
 11
-75.4887702506
 21
-33.7470552749
 31
0.0
  0
ARC
  5
450
100
AcDbEntity
  8
LAYER0
 62
         3
100
AcDbCircle
 10
-57.6926565392
 20
-67.2470552749
 30
0.0
 40
0.5
210
0.0
220
0.0
230
1.0
100
AcDbArc
 50
180.0000030705
 51
269.9999984648
  0
ARC
  5
451
100
AcDbEntity
  8
LAYER0
 62
         3
100
AcDbCircle
 10
-57.6926565392
 20
-18.2470552749
 30
0.0
 40
0.5
210
0.0
220
0.0
230
1.0
100
AcDbArc
 50
90.0000015352
 51
180.0000030705
  0
LINE
  5
452
100
AcDbEntity
  8
LAYER0
 62
         3
100
AcDbLine
 10
-58.1926565392
 20
-18.2470552749
 30
0.0
 11
-58.1926565392
 21
-67.2470552749
 31
0.0
  0
LINE
  5
453
100
AcDbEntity
  8
LAYER0
 62
         3
100
AcDbLine
 10
-54.9926565392
 20
-67.7470552749
 30
0.0
 11
-73.9926565392
 21
-67.7470552749
 31
0.0
  0
LINE
  5
454
100
AcDbEntity
  8
LAYER0
 62
         3
100
AcDbLine
 10
-54.9926565392
 20
-17.7470552749
 30
0.0
 11
-73.9926565392
 21
-17.7470552749
 31
0.0
  0
LINE
  5
455
100
AcDbEntity
  8
LAYER0
 62
         3
100
AcDbLine
 10
-77.9926565392
 20
-21.7470552749
 30
0.0
 11
-77.9926565392
 21
-63.7470552749
 31
0.0
  0
LINE
  5
456
100
AcDbEntity
  8
LAYER0
 62
         3
100
AcDbLine
 10
-54.9926565392
 20
-17.7470552749
 30
0.0
 11
-54.9926565392
 21
-67.7470552749
 31
0.0
  0
LINE
  5
457
100
AcDbEntity
  8
LAYER0
 62
         2
100
AcDbLine
 10
-61.3926565392
 20
-45.1531986548
 30
0.0
 11
-61.3926565392
 21
-40.340911895
 31
0.0
  0
LINE
  5
458
100
AcDbEntity
  8
LAYER0
 62
         2
100
AcDbLine
 10
-58.1926565392
 20
-45.9470552749
 30
0.0
 11
-58.1926565392
 21
-39.5470552749
 31
0.0
  0
LINE
  5
459
100
AcDbEntity
  8
LAYER0
 62
         2
100
AcDbLine
 10
-58.1926565392
 20
-44.3593420346
 30
0.0
 11
-61.0751138911
 21
-44.3593420346
 31
0.0
  0
LINE
  5
45A
100
AcDbEntity
  8
LAYER0
 62
         2
100
AcDbLine
 10
-58.1926565392
 20
-45.9470552749
 30
0.0
 11
-61.0751138911
 21
-45.9470552749
 31
0.0
  0
ARC
  5
45B
100
AcDbEntity
  8
LAYER0
 62
         2
100
AcDbCircle
 10
-61.5926565392
 20
-42.7470552749
 30
0.0
 40
2.8
210
0.0
220
0.0
230
1.0
100
AcDbArc
 50
90.0000015352
 51
269.9999984648
  0
LINE
  5
45C
100
AcDbEntity
  8
LAYER0
 62
         2
100
AcDbLine
 10
-61.3231789663
 20
-45.5470552749
 30
0.0
 11
-61.5926565392
 21
-45.5470552749
 31
0.0
  0
LINE
  5
45D
100
AcDbEntity
  8
LAYER0
 62
         2
100
AcDbLine
 10
-61.5926565392
 20
-39.9470552749
 30
0.0
 11
-61.3231789663
 21
-39.9470552749
 31
0.0
  0
LINE
  5
45E
100
AcDbEntity
  8
LAYER0
 62
         2
100
AcDbLine
 10
-61.7926565392
 20
-40.7470552749
 30
0.0
 11
-61.7926565392
 21
-44.7470552749
 31
0.0
  0
ARC
  5
45F
100
AcDbEntity
  8
LAYER0
 62
         2
100
AcDbCircle
 10
-67.9926565392
 20
-51.7470552749
 30
0.0
 40
2.8
210
0.0
220
0.0
230
1.0
100
AcDbArc
 50
259.7134376778
 51
280.2865592517
  0
ARC
  5
460
100
AcDbEntity
  8
LAYER0
 62
         2
100
AcDbCircle
 10
-67.9926565392
 20
-51.7470552749
 30
0.0
 40
2.8
210
0.0
220
0.0
230
1.0
100
AcDbArc
 50
169.7134422835
 51
190.2865577165
  0
ARC
  5
461
100
AcDbEntity
  8
LAYER0
 62
         2
100
AcDbCircle
 10
-67.9926565392
 20
-51.7470552749
 30
0.0
 40
2.8
210
0.0
220
-0.0
230
1.0
100
AcDbArc
 50
79.7134407483
 51
100.2865623222
  0
LINE
  5
462
100
AcDbEntity
  8
LAYER0
 62
         6
100
AcDbLine
 10
-37.9926563902
 20
-67.7470552749
 30
0.0
 11
-43.4926564647
 21
-67.7470552749
 31
0.0
  0
LINE
  5
463
100
AcDbEntity
  8
LAYER0
 62
         5
100
AcDbLine
 10
-51.7926565392
 20
-22.5470552749
 30
0.0
 11
-54.9926565392
 21
-22.5470552749
 31
0.0
  0
ARC
  5
464
100
AcDbEntity
  8
LAYER0
 62
         3
100
AcDbCircle
 10
-54.4926565392
 20
-67.2470552749
 30
0.0
 40
0.5
210
0.0
220
0.0
230
1.0
100
AcDbArc
 50
180.0000030705
 51
269.9999984648
  0
ARC
  5
465
100
AcDbEntity
  8
LAYER0
 62
         3
100
AcDbCircle
 10
-54.4926565392
 20
-18.2470552749
 30
0.0
 40
0.5
210
0.0
220
0.0
230
1.0
100
AcDbArc
 50
90.0000015352
 51
180.0000030705
  0
ARC
  5
466
100
AcDbEntity
  8
LAYER0
 62
         3
100
AcDbCircle
 10
-35.2926563902
 20
-49.2470552749
 30
0.0
 40
0.5
210
0.0
220
-0.0
230
1.0
100
AcDbArc
 50
0.0
 51
90.0000015352
  0
LINE
  5
467
100
AcDbEntity
  8
LAYER0
 62
         3
100
AcDbLine
 10
-51.7926565392
 20
-67.7470552749
 30
0.0
 11
-54.4926565392
 21
-67.7470552749
 31
0.0
  0
ARC
  5
468
100
AcDbEntity
  8
LAYER0
 62
         3
100
AcDbCircle
 10
-51.7926565392
 20
-68.7470552749
 30
0.0
 40
3.2
210
0.0
220
0.0
230
1.0
100
AcDbArc
 50
180.0000030705
 51
269.9999984648
  0
ARC
  5
469
100
AcDbEntity
  8
LAYER0
 62
         3
100
AcDbCircle
 10
-37.9926563902
 20
-68.7470552749
 30
0.0
 40
3.2
210
-0.0
220
0.0
230
1.0
100
AcDbArc
 50
269.9999984648
 51
0.0
  0
LINE
  5
46A
100
AcDbEntity
  8
LAYER0
 62
         3
100
AcDbLine
 10
-54.4926565392
 20
-17.7470552749
 30
0.0
 11
-51.7926565392
 21
-17.7470552749
 31
0.0
  0
LINE
  5
46B
100
AcDbEntity
  8
LAYER0
 62
         3
100
AcDbLine
 10
-34.7926563902
 20
-49.2470552749
 30
0.0
 11
-34.7926563902
 21
-68.7470552749
 31
0.0
  0
LINE
  5
46C
100
AcDbEntity
  8
LAYER0
 62
         3
100
AcDbLine
 10
-37.9926563902
 20
-71.9470552749
 30
0.0
 11
-51.7926565392
 21
-71.9470552749
 31
0.0
  0
LINE
  5
46D
100
AcDbEntity
  8
LAYER0
 62
         3
100
AcDbLine
 10
-51.7926565392
 20
-68.7470552749
 30
0.0
 11
-51.7926565392
 21
-17.7470552749
 31
0.0
  0
LINE
  5
46E
100
AcDbEntity
  8
LAYER0
 62
         3
100
AcDbLine
 10
-54.9926565392
 20
-18.2470552749
 30
0.0
 11
-54.9926565392
 21
-68.7470552749
 31
0.0
  0
LINE
  5
46F
100
AcDbEntity
  8
LAYER0
 62
         3
100
AcDbLine
 10
-37.9926563902
 20
-48.7470552749
 30
0.0
 11
-35.2926563902
 21
-48.7470552749
 31
0.0
  0
LINE
  5
470
100
AcDbEntity
  8
LAYER0
 62
         3
100
AcDbLine
 10
-37.9926563902
 20
-68.7470552749
 30
0.0
 11
-51.7926565392
 21
-68.7470552749
 31
0.0
  0
LINE
  5
471
100
AcDbEntity
  8
LAYER0
 62
         3
100
AcDbLine
 10
-37.9926563902
 20
-48.7470552749
 30
0.0
 11
-37.9926563902
 21
-68.7470552749
 31
0.0
  0
LINE
  5
472
100
AcDbEntity
  8
LAYER0
 62
         5
100
AcDbLine
 10
-51.7926565392
 20
-45.9470552749
 30
0.0
 11
-54.9926565392
 21
-45.9470552749
 31
0.0
  0
LINE
  5
473
100
AcDbEntity
  8
LAYER0
 62
         5
100
AcDbLine
 10
-51.7926565392
 20
-39.5470552749
 30
0.0
 11
-54.9926565392
 21
-39.5470552749
 31
0.0
  0
LINE
  5
474
100
AcDbEntity
  8
LAYER0
 62
         5
100
AcDbLine
 10
-51.7926565392
 20
-28.9470552749
 30
0.0
 11
-54.9926565392
 21
-28.9470552749
 31
0.0
  0
LINE
  5
475
100
AcDbEntity
  8
LAYER0
 62
         2
100
AcDbLine
 10
-70.747652002
 20
-34.2470552749
 30
0.0
 11
-68.4926565392
 21
-34.2470552749
 31
0.0
  0
LINE
  5
476
100
AcDbEntity
  8
LAYER0
 62
         2
100
AcDbLine
 10
-68.4926565392
 20
-33.2470552749
 30
0.0
 11
-70.747652002
 21
-33.2470552749
 31
0.0
  0
LINE
  5
477
100
AcDbEntity
  8
LAYER0
 62
         2
100
AcDbLine
 10
-65.2376610764
 20
-33.2470552749
 30
0.0
 11
-67.4926565392
 21
-33.2470552749
 31
0.0
  0
LINE
  5
478
100
AcDbEntity
  8
LAYER0
 62
         2
100
AcDbLine
 10
-68.4926565392
 20
-33.2470552749
 30
0.0
 11
-68.4926565392
 21
-30.9920598121
 31
0.0
  0
LINE
  5
479
100
AcDbEntity
  8
LAYER0
 62
         2
100
AcDbLine
 10
-68.4926565392
 20
-36.5020507377
 30
0.0
 11
-68.4926565392
 21
-34.2470552749
 31
0.0
  0
LINE
  5
47A
100
AcDbEntity
  8
LAYER0
 62
         2
100
AcDbLine
 10
-67.4926565392
 20
-34.2470552749
 30
0.0
 11
-67.4926565392
 21
-36.5020507377
 31
0.0
  0
LINE
  5
47B
100
AcDbEntity
  8
LAYER0
 62
         4
100
AcDbLine
 10
-36.9926563902
 20
-2.7470552749
 30
0.0
 11
-36.9926563902
 21
-22.7470552749
 31
0.0
  0
ARC
  5
47C
100
AcDbEntity
  8
LAYER0
 62
         2
100
AcDbCircle
 10
-27.9926563902
 20
-57.7470552749
 30
0.0
 40
2.8
210
0.0
220
0.0
230
1.0
100
AcDbArc
 50
259.7134376778
 51
280.2865592517
  0
ARC
  5
47D
100
AcDbEntity
  8
LAYER0
 62
         2
100
AcDbCircle
 10
-27.9926563902
 20
-57.7470552749
 30
0.0
 40
2.8
210
0.0
220
0.0
230
1.0
100
AcDbArc
 50
169.7134422835
 51
190.2865577165
  0
ARC
  5
47E
100
AcDbEntity
  8
LAYER0
 62
         2
100
AcDbCircle
 10
-27.9926563902
 20
-57.7470552749
 30
0.0
 40
2.8
210
0.0
220
-0.0
230
1.0
100
AcDbArc
 50
79.7134407483
 51
100.2865623222
  0
ARC
  5
47F
100
AcDbEntity
  8
LAYER0
 62
         2
100
AcDbCircle
 10
-27.9926563902
 20
-57.7470552749
 30
0.0
 40
2.8
210
-0.0
220
0.0
230
1.0
100
AcDbArc
 50
349.7134392131
 51
10.2865607869
  0
LINE
  5
480
100
AcDbEntity
  8
LAYER0
 62
         2
100
AcDbLine
 10
-27.4926563902
 20
-58.2470552749
 30
0.0
 11
-25.2376609274
 21
-58.2470552749
 31
0.0
  0
LINE
  5
481
100
AcDbEntity
  8
LAYER0
 62
         6
100
AcDbLine
 10
-34.6259059709
 20
-67.7470552749
 30
0.0
 11
-34.7926563902
 21
-67.7470552749
 31
0.0
  0
ARC
  5
482
100
AcDbEntity
  8
LAYER0
 62
         6
100
AcDbCircle
 10
-27.9926563902
 20
-57.7470552749
 30
0.0
 40
12.0
210
-0.0
220
0.0
230
1.0
100
AcDbArc
 50
236.4426881304
 51
33.5573103343
  0
LINE
  5
483
100
AcDbEntity
  8
LAYER0
 62
         6
100
AcDbLine
 10
-17.9926563902
 20
-51.1138056942
 30
0.0
 11
-17.9926563902
 21
-22.7470552749
 31
0.0
  0
LINE
  5
484
100
AcDbEntity
  8
LAYER0
 62
         6
100
AcDbLine
 10
-17.9926563902
 20
-25.9470552749
 30
0.0
 11
-37.9926563902
 21
-25.9470552749
 31
0.0
  0
LINE
  5
485
100
AcDbEntity
  8
LAYER0
 62
         6
100
AcDbLine
 10
-17.9926563902
 20
-22.7470552749
 30
0.0
 11
-37.9926563902
 21
-22.7470552749
 31
0.0
  0
ARC
  5
486
100
AcDbEntity
  8
LAYER0
 62
         6
100
AcDbCircle
 10
-38.9926563902
 20
-46.7470552749
 30
0.0
 40
1.0
210
-0.0
220
0.0
230
1.0
100
AcDbArc
 50
269.9999984648
 51
0.0
  0
LINE
  5
487
100
AcDbEntity
  8
LAYER0
 62
         6
100
AcDbLine
 10
-37.9926563902
 20
-46.7470552749
 30
0.0
 11
-37.9926563902
 21
-22.7470552749
 31
0.0
  0
LINE
  5
488
100
AcDbEntity
  8
LAYER0
 62
         6
100
AcDbLine
 10
-40.2926564647
 20
-47.7470552749
 30
0.0
 11
-40.2926564647
 21
-67.7470552749
 31
0.0
  0
LINE
  5
489
100
AcDbEntity
  8
LAYER0
 62
         6
100
AcDbLine
 10
-43.4926564647
 20
-47.7470552749
 30
0.0
 11
-43.4926564647
 21
-67.7470552749
 31
0.0
  0
LINE
  5
48A
100
AcDbEntity
  8
LAYER0
 62
         6
100
AcDbLine
 10
-43.4926564647
 20
-47.7470552749
 30
0.0
 11
-38.9926563902
 21
-47.7470552749
 31
0.0
  0
LINE
  5
48B
100
AcDbEntity
  8
LAYER0
  6
CENTER
 62
         6
100
AcDbLine
 10
-17.9926563902
 20
-43.0470552004
 30
0.0
 11
-37.9926563902
 21
-43.0470552004
 31
0.0
  0
LINE
  5
48C
100
AcDbEntity
  8
LAYER0
 62
         6
100
AcDbLine
 10
-17.9926563902
 20
-45.0470552004
 30
0.0
 11
-37.9926563902
 21
-45.0470552004
 31
0.0
  0
MTEXT
  5
48D
100
AcDbEntity
  8
LAYER0
100
AcDbMText
 10
-8.0681952881
 20
-77.2907459621
 30
0.0
 40
2.1473683357
 41
5.1292919922
 71
         1
 72
         1
  1
\W0.8;解除
  0
MTEXT
  5
48E
100
AcDbEntity
  8
LAYER0
100
AcDbMText
 10
-8.8291954643
 20
-35.3871085635
 30
0.0
 40
2.1473683357
 41
7.6939379883
 71
         1
 72
         1
  1
\W0.8;ロック
  0
LINE
  5
48F
100
AcDbEntity
  8
LAYER0
100
AcDbLine
 10
-15.2926563157
 20
-80.5606249694
 30
0.0
 11
-13.1060037239
 21
-77.442973466
 31
0.0
  0
LINE
  5
490
100
AcDbEntity
  8
LAYER0
100
AcDbLine
 10
-15.2926563157
 20
-80.5606249694
 30
0.0
 11
-11.617190291
 21
-79.8840492448
 31
0.0
  0
LINE
  5
491
100
AcDbEntity
  8
LAYER0
100
AcDbLine
 10
-15.2926563157
 20
-34.9334855804
 30
0.0
 11
-13.1060037239
 21
-38.0511370839
 31
0.0
  0
LINE
  5
492
100
AcDbEntity
  8
LAYER0
100
AcDbLine
 10
-15.2926563157
 20
-34.9334855804
 30
0.0
 11
-11.617190291
 21
-35.610061305
 31
0.0
  0
LINE
  5
493
100
AcDbEntity
  8
LAYER0
 62
         5
100
AcDbLine
 10
-54.9926565392
 20
-97.4633609603
 30
0.0
 11
-58.2763508538
 21
-100.7470552749
 31
0.0
  0
LINE
  5
494
100
AcDbEntity
  8
LAYER0
  6
CENTER
100
AcDbLine
 10
-4.6549168985
 20
-57.7470552749
 30
0.0
 11
-47.515402787
 21
-57.7470552749
 31
0.0
  0
MTEXT
  5
495
100
AcDbEntity
  8
LAYER0
100
AcDbMText
 10
-15.6501737419
 20
-132.5157576176
 30
0.0
 40
3.0922104359
 41
9.2327256828
 71
         1
 72
         1
  1
\W0.8;MR-9K
  0
MTEXT
  5
496
100
AcDbEntity
  8
LAYER0
100
AcDbMText
 10
-35.7051459079
 20
-126.6461242782
 30
0.0
 40
2.1473683357
 41
6.4116149902
 71
         1
 72
         1
  1
\W0.8;Ｎｏ.
  0
LINE
  5
497
100
AcDbEntity
  8
LAYER0
 62
         3
100
AcDbLine
 10
-25.0
 20
-125.5
 30
0.0
 11
-25.0
 21
-138.5
 31
0.0
  0
MTEXT
  5
498
100
AcDbEntity
  8
LAYER0
100
AcDbMText
 10
-10.6564309049
 20
-126.7970201517
 30
0.0
 40
2.1473683357
 41
7.6538653946
 71
         1
 72
         1
  1
\W0.8;品　番
  0
LINE
  5
499
100
AcDbEntity
  8
LAYER0
 62
         3
100
AcDbLine
 10
-40.0
 20
-138.5
 30
0.0
 11
-40.0
 21
-125.5
 31
0.0
  0
LINE
  5
49A
100
AcDbEntity
  8
LAYER0
 62
         5
100
AcDbLine
 10
-54.9926565392
 20
-90.3922931484
 30
0.0
 11
-61.9926565392
 21
-97.3922931484
 31
0.0
  0
LINE
  5
49B
100
AcDbEntity
  8
LAYER0
 62
         5
100
AcDbLine
 10
-54.9926565392
 20
-83.3212253366
 30
0.0
 11
-61.9926565392
 21
-90.3212253366
 31
0.0
  0
LINE
  5
49C
100
AcDbEntity
  8
LAYER0
 62
         5
100
AcDbLine
 10
-54.9926565392
 20
-76.2501575247
 30
0.0
 11
-61.9926565392
 21
-83.2501575247
 31
0.0
  0
LINE
  5
49D
100
AcDbEntity
  8
LAYER0
 62
         5
100
AcDbLine
 10
-61.9926565392
 20
-76.1790897128
 30
0.0
 11
-54.9926565392
 21
-69.1790897128
 31
0.0
  0
LINE
  5
49E
100
AcDbEntity
  8
LAYER0
 62
         5
100
AcDbLine
 10
-60.1291645962
 20
-17.7470552749
 30
0.0
 11
-54.9926565392
 21
-12.6105472179
 31
0.0
  0
LINE
  5
49F
100
AcDbEntity
  8
LAYER0
 62
         5
100
AcDbLine
 10
-54.9926565392
 20
-5.539479406
 30
0.0
 11
-61.9926565392
 21
-12.539479406
 31
0.0
  0
LINE
  5
4A0
100
AcDbEntity
  8
LAYER0
 62
         6
100
AcDbLine
 10
-54.9926565392
 20
-100.7470552749
 30
0.0
 11
-54.9926565392
 21
-2.7470552749
 31
0.0
  0
LINE
  5
4A1
100
AcDbEntity
  8
LAYER0
 62
         4
100
AcDbLine
 10
-27.9926563902
 20
-69.7470552749
 30
0.0
 11
-27.9926563902
 21
-100.7470552749
 31
0.0
  0
LINE
  5
4A2
100
AcDbEntity
  8
LAYER0
 62
         4
100
AcDbLine
 10
-27.3926563902
 20
-69.7320458882
 30
0.0
 11
-27.3926563902
 21
-100.7470552749
 31
0.0
  0
LINE
  5
4A3
100
AcDbEntity
  8
LAYER0
 62
         4
100
AcDbLine
 10
-28.5926563902
 20
-69.7320458882
 30
0.0
 11
-28.5926563902
 21
-100.7470552749
 31
0.0
  0
LINE
  5
4A4
100
AcDbEntity
  8
LAYER0
 62
         4
100
AcDbLine
 10
-27.3926563902
 20
-2.7470552749
 30
0.0
 11
-27.3926563902
 21
-22.7470552749
 31
0.0
  0
LINE
  5
4A5
100
AcDbEntity
  8
LAYER0
 62
         4
100
AcDbLine
 10
-27.9926563902
 20
-2.7470552749
 30
0.0
 11
-27.9926563902
 21
-22.7470552749
 31
0.0
  0
LINE
  5
4A6
100
AcDbEntity
  8
LAYER0
 62
         4
100
AcDbLine
 10
-28.5926563902
 20
-2.7470552749
 30
0.0
 11
-28.5926563902
 21
-22.7470552749
 31
0.0
  0
LINE
  5
4A7
100
AcDbEntity
  8
LAYER0
 62
         3
100
AcDbLine
 10
-54.9926565392
 20
-44.7470552749
 30
0.0
 11
-54.9926565392
 21
-67.7470552749
 31
0.0
  0
LINE
  5
4A8
100
AcDbEntity
  8
LAYER0
 62
         4
100
AcDbLine
 10
-18.9926563902
 20
-65.6843092081
 30
0.0
 11
-18.9926563902
 21
-100.7470552749
 31
0.0
  0
LINE
  5
4A9
100
AcDbEntity
  8
LAYER0
 62
         4
100
AcDbLine
 10
-18.9926563902
 20
-2.7470552749
 30
0.0
 11
-18.9926563902
 21
-22.7470552749
 31
0.0
  0
LINE
  5
4AA
100
AcDbEntity
  8
LAYER0
 62
         4
100
AcDbLine
 10
-45.4926564647
 20
-71.9470552749
 30
0.0
 11
-45.4926564647
 21
-100.7470552749
 31
0.0
  0
LINE
  5
4AB
100
AcDbEntity
  8
LAYER0
 62
         4
100
AcDbLine
 10
-45.4926564647
 20
-2.7470552749
 30
0.0
 11
-45.4926564647
 21
-68.7470552749
 31
0.0
  0
LINE
  5
4AC
100
AcDbEntity
  8
LAYER0
 62
         4
100
AcDbLine
 10
-36.9926563902
 20
-71.7867921056
 30
0.0
 11
-36.9926563902
 21
-100.7470552749
 31
0.0
  0
LINE
  5
4AD
100
AcDbEntity
  8
LAYER0
 62
         3
100
AcDbLine
 10
95.0
 20
-125.5
 30
0.0
 11
-40.0
 21
-125.5
 31
0.0
  0
LINE
  5
4AE
100
AcDbEntity
  8
LAYER0
 62
         3
100
AcDbLine
 10
95.0
 20
-130.5
 30
0.0
 11
-40.0
 21
-130.5
 31
0.0
  0
LINE
  5
4AF
100
AcDbEntity
  8
LAYER0
 62
         3
100
AcDbLine
 10
95.0
 20
-138.5
 30
0.0
 11
-40.0
 21
-138.5
 31
0.0
  0
ARC
  5
4B0
100
AcDbEntity
  8
LAYER0
100
AcDbCircle
 10
-27.9926563902
 20
-57.7470552749
 30
0.0
 40
26.1103229413
210
-0.0
220
0.0
230
1.0
100
AcDbArc
 50
299.1040831309
 51
60.8959168691
  0
INSERT
  5
4B2
100
AcDbEntity
  8
0
100
AcDbBlockReference
  2
CLUMP42
 10
0.0
 20
0.0
 30
0.0
  0
LINE
  5
532
100
AcDbEntity
  8
LAYER3
 62
         4
100
AcDbLine
 10
92.454201411
 20
44.2488500061
 30
0.0
 11
92.454201411
 21
-16.0157670359
 31
0.0
  0
LINE
  5
533
100
AcDbEntity
  8
LAYER3
 62
         4
100
AcDbLine
 10
34.9542011875
 20
6.8389211423
 30
0.0
 11
34.9542011875
 21
-16.0157670359
 31
0.0
  0
LINE
  5
534
100
AcDbEntity
  8
LAYER3
 62
         4
100
AcDbLine
 10
73.9542013365
 20
31.1558220067
 30
0.0
 11
73.9542013365
 21
-8.9874943308
 31
0.0
  0
LINE
  5
535
100
AcDbEntity
  8
LAYER3
 62
         4
100
AcDbLine
 10
34.9542011875
 20
6.8389211423
 30
0.0
 11
34.9542011875
 21
-8.9874943308
 31
0.0
  0
MTEXT
  5
536
100
AcDbEntity
  8
LAYER3
100
AcDbMText
 10
40.254201262
 20
2.8284370657
 30
0.0
 40
2.1473683357
 41
5.1292919922
 71
         1
 72
         1
  1
\W0.8;20.2
  0
LINE
  5
537
100
AcDbEntity
  8
LAYER3
 62
         4
100
AcDbLine
 10
34.9542011875
 20
-0.9592216257
 30
0.0
 11
37.8886439897
 21
-0.3354865532
 31
0.0
  0
LINE
  5
538
100
AcDbEntity
  8
LAYER3
 62
         4
100
AcDbLine
 10
34.9542011875
 20
-0.9592216257
 30
0.0
 11
37.8886439897
 21
-1.5829566981
 31
0.0
  0
LINE
  5
539
100
AcDbEntity
  8
LAYER3
 62
         4
100
AcDbLine
 10
55.1542013365
 20
-0.9592216257
 30
0.0
 11
52.2197585343
 21
-1.5829566981
 31
0.0
  0
LINE
  5
53A
100
AcDbEntity
  8
LAYER3
 62
         4
100
AcDbLine
 10
55.1542013365
 20
-0.9592216257
 30
0.0
 11
52.2197585343
 21
-0.3354865532
 31
0.0
  0
LINE
  5
53B
100
AcDbEntity
  8
LAYER3
 62
         4
100
AcDbLine
 10
55.1542013365
 20
-0.9592216257
 30
0.0
 11
34.9542011875
 21
-0.9592216257
 31
0.0
  0
LINE
  5
53C
100
AcDbEntity
  8
LAYER3
 62
         4
100
AcDbLine
 10
55.1542013365
 20
17.2558220067
 30
0.0
 11
55.1542013365
 21
-1.9592216257
 31
0.0
  0
LINE
  5
53D
100
AcDbEntity
  8
LAYER3
 62
         4
100
AcDbLine
 10
34.9542011875
 20
6.8389211423
 30
0.0
 11
34.9542011875
 21
-1.9592216257
 31
0.0
  0
LINE
  5
53E
100
AcDbEntity
  8
LAYER0
 62
         2
100
AcDbLine
 10
-30.747651853
 20
-58.2470552749
 30
0.0
 11
-28.4926563902
 21
-58.2470552749
 31
0.0
  0
LINE
  5
53F
100
AcDbEntity
  8
LAYER0
 62
         2
100
AcDbLine
 10
-28.4926563902
 20
-57.2470552749
 30
0.0
 11
-30.747651853
 21
-57.2470552749
 31
0.0
  0
LINE
  5
540
100
AcDbEntity
  8
LAYER0
 62
         2
100
AcDbLine
 10
-25.2376609274
 20
-57.2470552749
 30
0.0
 11
-27.4926563902
 21
-57.2470552749
 31
0.0
  0
LINE
  5
541
100
AcDbEntity
  8
LAYER0
 62
         2
100
AcDbLine
 10
-28.4926563902
 20
-57.2470552749
 30
0.0
 11
-28.4926563902
 21
-54.9920598121
 31
0.0
  0
LINE
  5
542
100
AcDbEntity
  8
LAYER0
 62
         2
100
AcDbLine
 10
-28.4926563902
 20
-60.5020507377
 30
0.0
 11
-28.4926563902
 21
-58.2470552749
 31
0.0
  0
LINE
  5
543
100
AcDbEntity
  8
LAYER0
 62
         2
100
AcDbLine
 10
-27.4926563902
 20
-58.2470552749
 30
0.0
 11
-27.4926563902
 21
-60.5020507377
 31
0.0
  0
LINE
  5
544
100
AcDbEntity
  8
LAYER0
 62
         2
100
AcDbLine
 10
-27.4926563902
 20
-54.9920598121
 30
0.0
 11
-27.4926563902
 21
-57.2470552749
 31
0.0
  0
LINE
  5
545
100
AcDbEntity
  8
LAYER0
  6
CENTER
100
AcDbLine
 10
-27.9926563902
 20
-47.7470552749
 30
0.0
 11
-27.9926563902
 21
-67.7470552749
 31
0.0
  0
ENDSEC
  0
SECTION
  2
OBJECTS
  0
DICTIONARY
  5
19
100
AcDbDictionary
280
         0
281
         1
  3
ACAD_GROUP
350
1A
  3
ACAD_MLINESTYLE
350
1B
  3
ACAD_LAYOUT
350
1E
  3
ACAD_PLOTSETTINGS
350
22
  3
ACAD_PLOTSTYLENAME
350
1F
  3
ACAD_WIPEOUT_VARS
350
23
  0
DICTIONARY
  5
1A
102
{ACAD_REACTORS
330
19
102
}
100
AcDbDictionary
280
         0
281
         1
  0
DICTIONARY
  5
1B
102
{ACAD_REACTORS
330
19
102
}
100
AcDbDictionary
280
         0
281
         1
  3
Standard
350
1C
  0
MLINESTYLE
  5
1C
102
{ACAD_REACTORS
330
1B
102
}
100
AcDbMlineStyle
  2
Standard
 70
         0
  3

 62
         0
 51
90.0
 52
90.0
 71
         2
 49
0.5
 62
       256
  6
BYLAYER
 49
-0.5
 62
       256
  6
BYLAYER
  0
ACDBDICTIONARYWDFLT
  5
1F
102
{ACAD_REACTORS
330
19
102
}
100
AcDbDictionary
281
         1
  3
Normal
350
1D
100
AcDbDictionaryWithDefault
340
1D
  0
ACDBPLACEHOLDER
  5
1D
102
{ACAD_REACTORS
330
1F
102
}
  0
LAYOUT
  5
20
102
{ACAD_REACTORS
330
1E
102
}
100
AcDbPlotSettings
  1

  2

  4

  6

 40
0.0
 41
0.0
 42
0.0
 43
0.0
 44
0.0
 45
0.0
 46
0.0
 47
0.0
 48
0.0
 49
0.0
140
0.0
141
0.0
142
1.0
143
1.0
 70
         0
 72
         0
 73
         0
 74
         0
  7

 75
         0
147
1.0
148
0.0
149
0.0
100
AcDbLayout
  1
Model
 70
         0
 71
         0
 10
0.0
 20
0.0
 11
0.0
 21
0.0
 12
0.0
 22
0.0
 32
0.0
 14
0.0
 24
0.0
 34
0.0
 15
0.0
 25
0.0
 35
0.0
146
0.0
 13
0.0
 23
0.0
 33
0.0
 16
0.0
 26
0.0
 36
0.0
 17
0.0
 27
0.0
 37
0.0
 76
         0
330
A
331
0
345
0
346
0
  0
LAYOUT
  5
21
102
{ACAD_REACTORS
330
1E
102
}
100
AcDbPlotSettings
  1

  2

  4

  6

 40
0.0
 41
0.0
 42
0.0
 43
0.0
 44
0.0
 45
0.0
 46
0.0
 47
0.0
 48
0.0
 49
0.0
140
0.0
141
0.0
142
1.0
143
1.0
 70
         0
 72
         0
 73
         0
 74
         0
  7

 75
         0
147
1.0
148
0.0
149
0.0
100
AcDbLayout
  1
Layout1
 70
         0
 71
         0
 10
0.0
 20
0.0
 11
0.0
 21
0.0
 12
0.0
 22
0.0
 32
0.0
 14
0.0
 24
0.0
 34
0.0
 15
0.0
 25
0.0
 35
0.0
146
0.0
 13
0.0
 23
0.0
 33
0.0
 16
0.0
 26
0.0
 36
0.0
 17
0.0
 27
0.0
 37
0.0
 76
         0
330
B
331
0
345
0
346
0
  0
DICTIONARY
  5
1E
102
{ACAD_REACTORS
330
19
102
}
100
AcDbDictionary
280
         0
281
         1
  3
Layout1
350
21
  3
Model
350
20
  0
DICTIONARY
  5
22
102
{ACAD_REACTORS
330
19
102
}
100
AcDbDictionary
280
         0
281
         1
  0
WIPEOUTVARIABLES
  5
23
100
AcDbWipeoutVariables
 70
         1
  0
ENDSEC
  0
EOF
