  0
SECTION
  2
HEADER
  9
$ACADVER
  1
AC1015
  9
$ACADMAINTVER
 70
         6
  9
$DWGCODEPAGE
  3
ANSI_932
  9
$INSBASE
 10
0.0
 20
0.0
 30
0.0
  9
$EXTMIN
 10
1.0000000000E+20
 20
1.0000000000E+20
 30
1.0000000000E+20
  9
$EXTMAX
 10
-1.0000000000E+20
 20
-1.0000000000E+20
 30
-1.0000000000E+20
  9
$LIMMIN
 10
0.0
 20
0.0
  9
$LIMMAX
 10
0.0
 20
0.0
  9
$ORTHOMODE
 70
         0
  9
$REGENMODE
 70
         1
  9
$FILLMODE
 70
         1
  9
$QTEXTMODE
 70
         0
  9
$MIRRTEXT
 70
         1
  9
$LTSCALE
 40
1.0
  9
$ATTMODE
 70
         1
  9
$TEXTSIZE
 40
0.2
  9
$TRACEWID
 40
0.05
  9
$TEXTSTYLE
  7
Standard
  9
$CLAYER
  8
0
  9
$CELTYPE
  6
Continuous
  9
$CECOLOR
 62
       256
  9
$CELTSCALE
 40
1.0
  9
$DISPSILH
 70
         0
  9
$DIMSCALE
 40
1.0
  9
$DIMASZ
 40
0.18
  9
$DIMEXO
 40
0.0625
  9
$DIMDLI
 40
0.38
  9
$DIMRND
 40
0.0
  9
$DIMDLE
 40
0.0
  9
$DIMEXE
 40
0.18
  9
$DIMTP
 40
0.0
  9
$DIMTM
 40
0.0
  9
$DIMTXT
 40
0.18
  9
$DIMCEN
 40
0.09
  9
$DIMTSZ
 40
0.0
  9
$DIMTOL
 70
         0
  9
$DIMLIM
 70
         0
  9
$DIMTIH
 70
         1
  9
$DIMTOH
 70
         1
  9
$DIMSE1
 70
         0
  9
$DIMSE2
 70
         0
  9
$DIMTAD
 70
         0
  9
$DIMZIN
 70
         0
  9
$DIMBLK
  1

  9
$DIMASO
 70
         1
  9
$DIMSHO
 70
         1
  9
$DIMPOST
  1

  9
$DIMAPOST
  1

  9
$DIMALT
 70
         0
  9
$DIMALTD
 70
         2
  9
$DIMALTF
 40
25.4
  9
$DIMLFAC
 40
1.0
  9
$DIMTOFL
 70
         0
  9
$DIMTVP
 40
0.0
  9
$DIMTIX
 70
         0
  9
$DIMSOXD
 70
         0
  9
$DIMSAH
 70
         0
  9
$DIMBLK1
  1

  9
$DIMBLK2
  1

  9
$DIMSTYLE
  2
Standard
  9
$DIMCLRD
 70
         0
  9
$DIMCLRE
 70
         0
  9
$DIMCLRT
 70
         0
  9
$DIMTFAC
 40
1.0
  9
$DIMGAP
 40
0.09
  9
$DIMJUST
 70
         0
  9
$DIMSD1
 70
         0
  9
$DIMSD2
 70
         0
  9
$DIMTOLJ
 70
         1
  9
$DIMTZIN
 70
         0
  9
$DIMALTZ
 70
         0
  9
$DIMALTTZ
 70
         0
  9
$DIMUPT
 70
         0
  9
$DIMDEC
 70
         4
  9
$DIMTDEC
 70
         4
  9
$DIMALTU
 70
         2
  9
$DIMALTTD
 70
         2
  9
$DIMTXSTY
  7
Standard
  9
$DIMAUNIT
 70
         0
  9
$DIMADEC
 70
         0
  9
$DIMALTRND
 40
0.0
  9
$DIMAZIN
 70
         0
  9
$DIMDSEP
 70
         0
  9
$DIMATFIT
 70
         3
  9
$DIMFRAC
 70
         0
  9
$DIMLDRBLK
  1

  9
$DIMLUNIT
 70
         2
  9
$DIMLWD
 70
         0
  9
$DIMLWE
 70
         0
  9
$DIMTMOVE
 70
         0
  9
$LUNITS
 70
         2
  9
$LUPREC
 70
         4
  9
$SKETCHINC
 40
0.1
  9
$FILLETRAD
 40
0.0
  9
$AUNITS
 70
         0
  9
$AUPREC
 70
         0
  9
$MENU
  1
acad
  9
$ELEVATION
 40
0.0
  9
$PELEVATION
 40
0.0
  9
$THICKNESS
 40
0.0
  9
$LIMCHECK
 70
         0
  9
$CHAMFERA
 40
0.0
  9
$CHAMFERB
 40
0.0
  9
$CHAMFERC
 40
0.0
  9
$CHAMFERD
 40
0.0
  9
$SKPOLY
 70
         0
  9
$TDCREATE
 40
0.000000000
  9
$TDUCREATE
 40
0.000000000
  9
$TDUPDATE
 40
0.000000000
  9
$TDUUPDATE
 40
0.000000000
  9
$TDINDWG
 40
0.0000000000
  9
$TDUSRTIMER
 40
0.0000000000
  9
$USRTIMER
 70
         1
  9
$ANGBASE
 50
0.0
  9
$ANGDIR
 70
         0
  9
$PDMODE
 70
         3
  9
$PDSIZE
 40
-1.0
  9
$PLINEWID
 40
0.0
  9
$SPLFRAME
 70
         0
  9
$SPLINETYPE
 70
         6
  9
$SPLINESEGS
 70
         8
  9
$HANDSEED
  5
22F
  9
$SURFTAB1
 70
         6
  9
$SURFTAB2
 70
         6
  9
$SURFTYPE
 70
         6
  9
$SURFU
 70
         6
  9
$SURFV
 70
         6
  9
$UCSBASE
  2

  9
$UCSNAME
  2

  9
$UCSORG
 10
0.0
 20
0.0
 30
0.0
  9
$UCSXDIR
 10
1.0
 20
0.0
 30
0.0
  9
$UCSYDIR
 10
0.0
 20
1.0
 30
0.0
  9
$UCSORTHOREF
  2

  9
$UCSORTHOVIEW
 70
         0
  9
$UCSORGTOP
 10
0.0
 20
0.0
 30
0.0
  9
$UCSORGBOTTOM
 10
0.0
 20
0.0
 30
0.0
  9
$UCSORGLEFT
 10
0.0
 20
0.0
 30
0.0
  9
$UCSORGRIGHT
 10
0.0
 20
0.0
 30
0.0
  9
$UCSORGFRONT
 10
0.0
 20
0.0
 30
0.0
  9
$UCSORGBACK
 10
0.0
 20
0.0
 30
0.0
  9
$PUCSBASE
  2

  9
$PUCSNAME
  2

  9
$PUCSORG
 10
0.0
 20
0.0
 30
0.0
  9
$PUCSXDIR
 10
1.0
 20
0.0
 30
0.0
  9
$PUCSYDIR
 10
0.0
 20
1.0
 30
0.0
  9
$PUCSORTHOREF
  2

  9
$PUCSORTHOVIEW
 70
         0
  9
$PUCSORGTOP
 10
0.0
 20
0.0
 30
0.0
  9
$PUCSORGBOTTOM
 10
0.0
 20
0.0
 30
0.0
  9
$PUCSORGLEFT
 10
0.0
 20
0.0
 30
0.0
  9
$PUCSORGRIGHT
 10
0.0
 20
0.0
 30
0.0
  9
$PUCSORGFRONT
 10
0.0
 20
0.0
 30
0.0
  9
$PUCSORGBACK
 10
0.0
 20
0.0
 30
0.0
  9
$USERI1
 70
         0
  9
$USERI2
 70
         0
  9
$USERI3
 70
         0
  9
$USERI4
 70
         0
  9
$USERI5
 70
         0
  9
$USERR1
 40
0.0
  9
$USERR2
 40
0.0
  9
$USERR3
 40
0.0
  9
$USERR4
 40
0.0
  9
$USERR5
 40
0.0
  9
$WORLDVIEW
 70
         1
  9
$SHADEDGE
 70
         3
  9
$SHADEDIF
 70
        70
  9
$TILEMODE
 70
         1
  9
$MAXACTVP
 70
        16
  9
$PINSBASE
 10
0.0
 20
0.0
 30
0.0
  9
$PLIMCHECK
 70
         0
  9
$PEXTMIN
 10
1.0000000000E+20
 20
1.0000000000E+20
 30
1.0000000000E+20
  9
$PEXTMAX
 10
-1.0000000000E+20
 20
-1.0000000000E+20
 30
-1.0000000000E+20
  9
$PLIMMIN
 10
0.0
 20
0.0
  9
$PLIMMAX
 10
12.0
 20
9.0
  9
$UNITMODE
 70
         0
  9
$VISRETAIN
 70
         0
  9
$PLINEGEN
 70
         1
  9
$PSLTSCALE
 70
         0
  9
$TREEDEPTH
 70
      3020
  9
$CMLSTYLE
  2
Standard
  9
$CMLJUST
 70
         0
  9
$CMLSCALE
 40
1.0
  9
$PROXYGRAPHICS
 70
         0
  9
$MEASUREMENT
 70
         0
  9
$CELWEIGHT
370
         0
  9
$ENDCAPS
280
         0
  9
$JOINSTYLE
280
         0
  9
$LWDISPLAY
290
         0
  9
$INSUNITS
 70
         0
  9
$HYPERLINKBASE
  1

  9
$XEDIT
290
         1
  9
$CEPSNTYPE
380
         0
  9
$PSTYLEMODE
290
         0
  9
$FINGERPRINTGUID
  2

  9
$VERSIONGUID
  2

  9
$EXTNAMES
290
         1
  9
$PSVPSCALE
 40
0.0
  0
ENDSEC
  0
SECTION
  2
CLASSES
  0
CLASS
  1
LWPOLYLINE
  2
AcDbPolyline
  3
"AutoCAD"
 90
        0
280
         0
281
         1
  0
CLASS
  1
IMAGE
  2
AcDbRasterImage
  3
ISM
 90
      127
280
         0
281
         1
  0
CLASS
  1
OLE2FRAME
  2
AcDbOle2Frame
  3
""
 90
        0
280
         0
281
         1
  0
CLASS
  1
HATCH
  2
AcDbHatch
  3
"ACAD_SEDONA"
 90
        0
280
         0
281
         1
  0
CLASS
  1
DICTIONARYVAR
  2
AcDbDictionaryVar
  3
"AutoCAD"
 90
        0
280
         0
281
         0
  0
CLASS
  1
RASTERVARIABLES
  2
AcDbRasterVariables
  3
ISM
 90
        0
280
         0
281
         0
  0
CLASS
  1
IMAGEDEF
  2
AcDbRasterImageDef
  3
ISM
 90
        0
280
         0
281
         0
  0
CLASS
  1
IMAGEDEF_REACTOR
  2
AcDbRasterImageDefReactor
  3
ISM
 90
        1
280
         0
281
         0
  0
CLASS
  1
IDBUFFER
  2
AcDbIdBuffer
  3
"Acad"
 90
        0
280
         0
281
         0
  0
CLASS
  1
SPATIAL_FILTER
  2
AcDbSpatialFilter
  3
"Acad"
 90
        0
280
         0
281
         0
  0
CLASS
  1
XRECORD
  2
AcDbXrecord
  3
"<Built In>"
 90
        0
280
         0
281
         0
  0
CLASS
  1
SORTENTSTABLE
  2
AcDbSortentsTable
  3
"AutoCAD"
 90
        0
280
         0
281
         0
  0
CLASS
  1
LAYER_INDEX
  2
AcDbLayerIndex
  3
"Acad"
 90
        0
280
         0
281
         0
  0
CLASS
  1
SPATIAL_INDEX
  2
AcDbSpatialIndex
  3
"Acad"
 90
        0
280
         0
281
         0
  0
CLASS
  1
OBJECT_PTR
  2
CAseDLPNTableRecord
  3
"ASE-LPNTableRecord"
 90
        1
280
         0
281
         0
  0
CLASS
  1
LAYOUT
  2
AcDbLayout
  3
"AutoCAD 2000"
 90
        1
280
         0
281
         0
  0
CLASS
  1
PLOTSETTINGS
  2
AcDbPlotSettings
  3
"AutoCAD 2000"
 90
        1
280
         0
281
         0
  0
CLASS
  1
ACDBDICTIONARYWDFLT
  2
AcDbDictionaryWithDefault
  3
"AutoCAD 2000"
 90
        1
280
         0
281
         0
  0
CLASS
  1
ACDBPLACEHOLDER
  2
AcDbPlaceHolder
  3
"AutoCAD 2000"
 90
        1
280
         0
281
         0
  0
CLASS
  1
VBA_PROJECT
  2
AcDbVbaProject
  3
"acadvba"
 90
        1
280
         0
281
         0
  0
CLASS
  1
WIPEOUT
  2
AcDbWipeout
  3
WipeOut|AutoCAD Express Tool|expresstools@autodesk.com
 90
      127
280
         0
281
         1
  0
CLASS
  1
WIPEOUTVARIABLES
  2
AcDbWipeoutVariables
  3
WipeOut|AutoCAD Express Tool|expresstools@autodesk.com
 90
        0
280
         0
281
         0
  0
CLASS
  1
RTEXT
  2
RText
  3
RText|AutoCAD Express Tool|expresstools@autodesk.com
 90
        0
280
         0
281
         1
  0
CLASS
  1
ARCALIGNEDTEXT
  2
AcDbArcAlignedText
  3
ATEXT|AutoCAD Express Tool|expresstools@autodesk.com
 90
        0
280
         0
281
         1
  0
ENDSEC
  0
SECTION
  2
TABLES
  0
TABLE
  2
VPORT
  5
7
100
AcDbSymbolTable
 70
         1
  0
VPORT
  5
15
100
AcDbSymbolTableRecord
100
AcDbViewportTableRecord
  2
*ACTIVE
 70
         0
 10
0.0
 20
0.0
 11
1.0
 21
1.0
 12
6.591288
 22
4.579184
 13
0.0
 23
0.0
 14
1.0
 24
1.0
 15
0.0
 25
0.0
 16
0.0
 26
0.0
 36
1.0
 17
0.0
 27
0.0
 37
0.0
 40
9.158369
 41
0.688564
 42
50.0
 43
0.0
 44
0.0
 50
0.0
 51
0.0
 71
         0
 72
       100
 73
         1
 74
         1
 75
         0
 76
         0
 77
         0
 78
         0
281
         0
 65
         0
110
0.0
120
0.0
130
0.0
111
1.0
121
0.0
131
0.0
112
0.0
122
1.0
132
0.0
345
0
346
0
 79
         0
146
0.0
  0
ENDTAB
  0
TABLE
  2
LTYPE
  5
4
100
AcDbSymbolTable
 70
        13
  0
LTYPE
  5
11
100
AcDbSymbolTableRecord
100
AcDbLinetypeTableRecord
  2
ByBlock
 70
        64
  3

 72
        65
 73
         0
 40
0.0
  0
LTYPE
  5
12
100
AcDbSymbolTableRecord
100
AcDbLinetypeTableRecord
  2
ByLayer
 70
        64
  3

 72
        65
 73
         0
 40
0.0
  0
LTYPE
  5
13
100
AcDbSymbolTableRecord
100
AcDbLinetypeTableRecord
  2
Continuous
 70
        64
  3
Solid line
 72
        65
 73
         0
 40
0.0
  0
LTYPE
  5
24
100
AcDbSymbolTableRecord
100
AcDbLinetypeTableRecord
  2
DOT
 70
        64
  3
. . . . . . . . 
 72
        65
 73
         2
 40
1.0
 49
0.0
 74
         0
 49
-1.0
 74
         0
  0
LTYPE
  5
25
100
AcDbSymbolTableRecord
100
AcDbLinetypeTableRecord
  2
DASHED
 70
        64
  3
___  ___  ___  ___  
 72
        65
 73
         2
 40
4.0
 49
3.0
 74
         0
 49
-1.0
 74
         0
  0
LTYPE
  5
26
100
AcDbSymbolTableRecord
100
AcDbLinetypeTableRecord
  2
HIDDEN
 70
        64
  3
__ __ __ __ 
 72
        65
 73
         2
 40
3.0
 49
2.0
 74
         0
 49
-1.0
 74
         0
  0
LTYPE
  5
27
100
AcDbSymbolTableRecord
100
AcDbLinetypeTableRecord
  2
STITCH
 70
        64
  3
_ _ _ _ 
 72
        65
 73
         2
 40
2.0
 49
1.0
 74
         0
 49
-1.0
 74
         0
  0
LTYPE
  5
28
100
AcDbSymbolTableRecord
100
AcDbLinetypeTableRecord
  2
CENTER
 70
        64
  3
______  __  ______  __  
 72
        65
 73
         4
 40
43.0
 49
40.0
 74
         0
 49
-1.0
 74
         0
 49
1.0
 74
         0
 49
-1.0
 74
         0
  0
LTYPE
  5
29
100
AcDbSymbolTableRecord
100
AcDbLinetypeTableRecord
  2
DASHDOT
 70
        64
  3
____ . ____ . 
 72
        65
 73
         4
 40
32.0
 49
30.0
 74
         0
 49
-1.0
 74
         0
 49
0.0
 74
         0
 49
-1.0
 74
         0
  0
LTYPE
  5
2A
100
AcDbSymbolTableRecord
100
AcDbLinetypeTableRecord
  2
BORDER
 70
        64
  3
__ . __ . 
 72
        65
 73
         4
 40
22.0
 49
20.0
 74
         0
 49
-1.0
 74
         0
 49
0.0
 74
         0
 49
-1.0
 74
         0
  0
LTYPE
  5
2B
100
AcDbSymbolTableRecord
100
AcDbLinetypeTableRecord
  2
CUTTING
 70
        64
  3
________   ___   ___   
 72
        65
 73
         6
 40
45.0
 49
40.0
 74
         0
 49
-1.0
 74
         0
 49
1.0
 74
         0
 49
-1.0
 74
         0
 49
1.0
 74
         0
 49
-1.0
 74
         0
  0
LTYPE
  5
2C
100
AcDbSymbolTableRecord
100
AcDbLinetypeTableRecord
  2
PHANTOM
 70
        64
  3
______  __  __  
 72
        65
 73
         6
 40
35.0
 49
30.0
 74
         0
 49
-1.0
 74
         0
 49
1.0
 74
         0
 49
-1.0
 74
         0
 49
1.0
 74
         0
 49
-1.0
 74
         0
  0
LTYPE
  5
2D
100
AcDbSymbolTableRecord
100
AcDbLinetypeTableRecord
  2
DIVIDE
 70
        64
  3
____ . . ____ . . 
 72
        65
 73
         6
 40
23.0
 49
20.0
 74
         0
 49
-1.0
 74
         0
 49
0.0
 74
         0
 49
-1.0
 74
         0
 49
0.0
 74
         0
 49
-1.0
 74
         0
  0
ENDTAB
  0
TABLE
  2
LAYER
  5
2
100
AcDbSymbolTable
 70
         3
  0
LAYER
  5
14
100
AcDbSymbolTableRecord
100
AcDbLayerTableRecord
  2
0
 70
         0
 62
         7
  6
Continuous
290
         1
370
        -3
390
1D
  0
LAYER
  5
2E
100
AcDbSymbolTableRecord
100
AcDbLayerTableRecord
  2
LAYER3
 70
         0
 62
         7
  6
Continuous
290
         1
370
        -3
390
1F
  0
LAYER
  5
3F
100
AcDbSymbolTableRecord
100
AcDbLayerTableRecord
  2
LAYER0
 70
         0
 62
         7
  6
Continuous
290
         1
370
        -3
390
1F
  0
ENDTAB
  0
TABLE
  2
STYLE
  5
3
100
AcDbSymbolTable
 70
         1
  0
STYLE
  5
17
100
AcDbSymbolTableRecord
100
AcDbTextStyleTableRecord
  2
Standard
 70
         0
 40
0.0
 41
1.0
 50
0.0
 71
         0
 42
0.0
  3
txt
  4
extfont
  0
ENDTAB
  0
TABLE
  2
VIEW
  5
5
100
AcDbSymbolTable
 70
         0
  0
ENDTAB
  0
TABLE
  2
UCS
  5
6
100
AcDbSymbolTable
 70
         0
  0
ENDTAB
  0
TABLE
  2
APPID
  5
8
100
AcDbSymbolTable
 70
         1
  0
APPID
  5
16
100
AcDbSymbolTableRecord
100
AcDbRegAppTableRecord
  2
ACAD
 70
         0
  0
ENDTAB
  0
TABLE
  2
DIMSTYLE
  5
9
100
AcDbSymbolTable
 70
         1
100
AcDbDimStyleTable
 71
         0
  0
DIMSTYLE
105
18
100
AcDbSymbolTableRecord
100
AcDbDimStyleTableRecord
  2
Standard
 70
         0
  3

  4

 40
1.0
 41
0.18
 42
0.0625
 43
0.38
 44
0.18
 45
0.0
 46
0.0
 47
0.0
 48
0.0
 71
         0
 72
         0
 73
         1
 74
         1
 75
         0
 76
         0
 77
         0
 78
         0
 79
         0
140
0.18
141
0.09
142
0.0
143
25.4
144
1.0
145
0.0
146
1.0
147
0.09
148
0.0
170
         0
171
         2
172
         0
173
         0
174
         0
175
         0
176
         0
177
         0
178
         0
179
         0
271
         4
272
         4
273
         2
274
         2
275
         0
276
         0
277
         2
278
        46
279
         0
280
         0
281
         0
282
         0
283
         1
284
         0
285
         0
286
         0
288
         0
340
17
341
0
342
0
343
0
344
0
371
        -2
372
        -2
  0
ENDTAB
  0
TABLE
  2
BLOCK_RECORD
  5
1
100
AcDbSymbolTable
 70
        12
  0
BLOCK_RECORD
  5
A
100
AcDbSymbolTableRecord
100
AcDbBlockTableRecord
  2
*MODEL_SPACE
340
20
  0
BLOCK_RECORD
  5
B
100
AcDbSymbolTableRecord
100
AcDbBlockTableRecord
  2
*PAPER_SPACE
340
21
  0
BLOCK_RECORD
  5
7C
100
AcDbSymbolTableRecord
100
AcDbBlockTableRecord
  2
CLUMP0
340
0
  0
BLOCK_RECORD
  5
7F
100
AcDbSymbolTableRecord
100
AcDbBlockTableRecord
  2
CLUMP1
340
0
  0
BLOCK_RECORD
  5
A5
100
AcDbSymbolTableRecord
100
AcDbBlockTableRecord
  2
CLUMP2
340
0
  0
BLOCK_RECORD
  5
A8
100
AcDbSymbolTableRecord
100
AcDbBlockTableRecord
  2
CLUMP3
340
0
  0
BLOCK_RECORD
  5
10E
100
AcDbSymbolTableRecord
100
AcDbBlockTableRecord
  2
CLUMP4
340
0
  0
BLOCK_RECORD
  5
111
100
AcDbSymbolTableRecord
100
AcDbBlockTableRecord
  2
CLUMP5
340
0
  0
BLOCK_RECORD
  5
16B
100
AcDbSymbolTableRecord
100
AcDbBlockTableRecord
  2
CLUMP6
340
0
  0
BLOCK_RECORD
  5
16E
100
AcDbSymbolTableRecord
100
AcDbBlockTableRecord
  2
CLUMP7
340
0
  0
BLOCK_RECORD
  5
17B
100
AcDbSymbolTableRecord
100
AcDbBlockTableRecord
  2
CLUMP8
340
0
  0
BLOCK_RECORD
  5
17E
100
AcDbSymbolTableRecord
100
AcDbBlockTableRecord
  2
CLUMP9
340
0
  0
BLOCK_RECORD
  5
18C
100
AcDbSymbolTableRecord
100
AcDbBlockTableRecord
  2
CLUMP10
340
0
  0
BLOCK_RECORD
  5
18F
100
AcDbSymbolTableRecord
100
AcDbBlockTableRecord
  2
CLUMP11
340
0
  0
ENDTAB
  0
ENDSEC
  0
SECTION
  2
BLOCKS
  0
BLOCK
  5
D
100
AcDbEntity
  8
0
100
AcDbBlockBegin
  2
*MODEL_SPACE
 70
         0
 10
0.0
 20
0.0
 30
0.0
  3
*MODEL_SPACE
  1

  0
ENDBLK
  5
E
100
AcDbEntity
  8
0
100
AcDbBlockEnd
  0
BLOCK
  5
F
100
AcDbEntity
 67
         1
  8
0
100
AcDbBlockBegin
  2
*PAPER_SPACE
 70
         0
 10
0.0
 20
0.0
 30
0.0
  3
*PAPER_SPACE
  1

  0
ENDBLK
  5
10
100
AcDbEntity
 67
         1
  8
0
100
AcDbBlockEnd
  0
BLOCK
  5
7E
100
AcDbEntity
  8
0
100
AcDbBlockBegin
  2
CLUMP0
 70
         0
 10
0.0
 20
0.0
 30
0.0
  3

  1

  0
INSERT
  5
80
100
AcDbEntity
  8
0
100
AcDbBlockReference
  2
CLUMP1
 10
0.0
 20
0.0
 30
0.0
  0
ENDBLK
  5
90
100
AcDbEntity
  8
0
100
AcDbBlockEnd
  0
BLOCK
  5
81
100
AcDbEntity
  8
0
100
AcDbBlockBegin
  2
CLUMP1
 70
         0
 10
0.0
 20
0.0
 30
0.0
  3

  1

  0
LINE
  5
82
100
AcDbEntity
  8
LAYER0
 62
         5
100
AcDbLine
 10
-21.1610849884
 20
91.2330248603
 30
0.0
 11
-21.1610849884
 21
76.6330256351
 31
0.0
  0
LINE
  5
83
100
AcDbEntity
  8
LAYER0
 62
         5
100
AcDbLine
 10
-14.1610848543
 20
75.1330256351
 30
0.0
 11
-19.6610849884
 21
75.1330256351
 31
0.0
  0
LINE
  5
84
100
AcDbEntity
  8
LAYER0
 62
         5
100
AcDbLine
 10
-14.1610848543
 20
92.7330248603
 30
0.0
 11
-19.6610849884
 21
92.7330248603
 31
0.0
  0
LINE
  5
85
100
AcDbEntity
  8
LAYER0
 62
         5
100
AcDbLine
 10
-14.1610848543
 20
75.1330256351
 30
0.0
 11
-14.1610848543
 21
76.6330256351
 31
0.0
  0
LINE
  5
86
100
AcDbEntity
  8
LAYER0
 62
         5
100
AcDbLine
 10
-14.1610848543
 20
75.1330256351
 30
0.0
 11
-14.1610848543
 21
92.7330248603
 31
0.0
  0
ARC
  5
87
100
AcDbEntity
  8
LAYER0
 62
         5
100
AcDbCircle
 10
-19.6610849884
 20
76.6330256351
 30
0.0
 40
1.5
210
0.0
220
0.0
230
1.0
100
AcDbArc
 50
179.9999969295
 51
269.9999984648
  0
ARC
  5
88
100
AcDbEntity
  8
LAYER0
 62
         5
100
AcDbCircle
 10
-19.6610849884
 20
91.2330248603
 30
0.0
 40
1.5
210
0.0
220
0.0
230
1.0
100
AcDbArc
 50
90.0000015352
 51
179.9999969295
  0
LINE
  5
89
100
AcDbEntity
  8
LAYER0
 62
         5
100
AcDbLine
 10
-21.6610849884
 20
88.9330252477
 30
0.0
 11
-21.1610849884
 21
88.9330252477
 31
0.0
  0
LINE
  5
8A
100
AcDbEntity
  8
LAYER0
 62
         5
100
AcDbLine
 10
-21.6610849884
 20
90.7330252477
 30
0.0
 11
-21.1610849884
 21
90.7330252477
 31
0.0
  0
LINE
  5
8B
100
AcDbEntity
  8
LAYER0
 62
         5
100
AcDbLine
 10
-21.6610849884
 20
88.9330252477
 30
0.0
 11
-21.6610849884
 21
90.7330252477
 31
0.0
  0
LINE
  5
8C
100
AcDbEntity
  8
LAYER0
 62
         5
100
AcDbLine
 10
-21.6610849884
 20
78.9330252477
 30
0.0
 11
-21.1610849884
 21
78.9330252477
 31
0.0
  0
LINE
  5
8D
100
AcDbEntity
  8
LAYER0
 62
         5
100
AcDbLine
 10
-21.6610849884
 20
77.1330252477
 30
0.0
 11
-21.1610849884
 21
77.1330252477
 31
0.0
  0
LINE
  5
8E
100
AcDbEntity
  8
LAYER0
 62
         5
100
AcDbLine
 10
-21.6610849884
 20
78.9330252477
 30
0.0
 11
-21.6610849884
 21
77.1330252477
 31
0.0
  0
ENDBLK
  5
8F
100
AcDbEntity
  8
0
100
AcDbBlockEnd
  0
BLOCK
  5
A7
100
AcDbEntity
  8
0
100
AcDbBlockBegin
  2
CLUMP2
 70
         0
 10
0.0
 20
0.0
 30
0.0
  3

  1

  0
INSERT
  5
A9
100
AcDbEntity
  8
0
100
AcDbBlockReference
  2
CLUMP3
 10
0.0
 20
0.0
 30
0.0
  0
ENDBLK
  5
B8
100
AcDbEntity
  8
0
100
AcDbBlockEnd
  0
BLOCK
  5
AA
100
AcDbEntity
  8
0
100
AcDbBlockBegin
  2
CLUMP3
 70
         0
 10
0.0
 20
0.0
 30
0.0
  3

  1

  0
LINE
  5
AB
100
AcDbEntity
  8
LAYER0
 62
         3
100
AcDbLine
 10
-21.1610849884
 20
120.9330252477
 30
0.0
 11
-21.1610849884
 21
46.9330252477
 31
0.0
  0
LINE
  5
AC
100
AcDbEntity
  8
LAYER0
 62
         3
100
AcDbLine
 10
-23.4610849884
 20
120.9330252477
 30
0.0
 11
-23.4610849884
 21
46.9330252477
 31
0.0
  0
LINE
  5
AD
100
AcDbEntity
  8
LAYER0
 62
         3
100
AcDbLine
 10
-12.6610849884
 20
46.9330252477
 30
0.0
 11
-12.6610849884
 21
60.4330252477
 31
0.0
  0
LINE
  5
AE
100
AcDbEntity
  8
LAYER0
 62
         3
100
AcDbLine
 10
-12.6610849884
 20
120.9330252477
 30
0.0
 11
-12.6610849884
 21
107.4330252477
 31
0.0
  0
LINE
  5
AF
100
AcDbEntity
  8
LAYER0
 62
         3
100
AcDbLine
 10
-11.1577478686
 20
120.9330252477
 30
0.0
 11
-14.9610849884
 21
120.9330252477
 31
0.0
  0
LINE
  5
B0
100
AcDbEntity
  8
LAYER0
 62
         3
100
AcDbLine
 10
-18.1610849884
 20
120.9330252477
 30
0.0
 11
-23.4610849884
 21
120.9330252477
 31
0.0
  0
LINE
  5
B1
100
AcDbEntity
  8
LAYER0
 62
         3
100
AcDbLine
 10
-12.6610849884
 20
107.4330252477
 30
0.0
 11
-14.9610849884
 21
107.4330252477
 31
0.0
  0
LINE
  5
B2
100
AcDbEntity
  8
LAYER0
 62
         3
100
AcDbLine
 10
-18.1610849884
 20
107.4330252477
 30
0.0
 11
-21.1610849884
 21
107.4330252477
 31
0.0
  0
LINE
  5
B3
100
AcDbEntity
  8
LAYER0
 62
         3
100
AcDbLine
 10
-12.6610849139
 20
60.4330252477
 30
0.0
 11
-14.9610849884
 21
60.4330252477
 31
0.0
  0
LINE
  5
B4
100
AcDbEntity
  8
LAYER0
 62
         3
100
AcDbLine
 10
-18.1610849884
 20
60.4330252477
 30
0.0
 11
-21.1610849884
 21
60.4330252477
 31
0.0
  0
LINE
  5
B5
100
AcDbEntity
  8
LAYER0
 62
         3
100
AcDbLine
 10
-11.1577478686
 20
46.9330252477
 30
0.0
 11
-14.9610849884
 21
46.9330252477
 31
0.0
  0
LINE
  5
B6
100
AcDbEntity
  8
LAYER0
 62
         3
100
AcDbLine
 10
-18.1610849884
 20
46.9330252477
 30
0.0
 11
-23.4610849884
 21
46.9330252477
 31
0.0
  0
ENDBLK
  5
B7
100
AcDbEntity
  8
0
100
AcDbBlockEnd
  0
BLOCK
  5
110
100
AcDbEntity
  8
0
100
AcDbBlockBegin
  2
CLUMP4
 70
         0
 10
0.0
 20
0.0
 30
0.0
  3

  1

  0
INSERT
  5
112
100
AcDbEntity
  8
0
100
AcDbBlockReference
  2
CLUMP5
 10
0.0
 20
0.0
 30
0.0
  0
ENDBLK
  5
122
100
AcDbEntity
  8
0
100
AcDbBlockEnd
  0
BLOCK
  5
113
100
AcDbEntity
  8
0
100
AcDbBlockBegin
  2
CLUMP5
 70
         0
 10
0.0
 20
0.0
 30
0.0
  3

  1

  0
LINE
  5
114
100
AcDbEntity
  8
LAYER0
 62
         5
100
AcDbLine
 10
-21.1610849884
 20
-69.5669745958
 30
0.0
 11
-21.1610849884
 21
-63.5669745958
 31
0.0
  0
LINE
  5
115
100
AcDbEntity
  8
LAYER0
 62
         5
100
AcDbLine
 10
-21.1610849884
 20
-66.5669745958
 30
0.0
 11
-22.0360849884
 21
-66.5669745958
 31
0.0
  0
LINE
  5
116
100
AcDbEntity
  8
LAYER0
 62
         4
100
AcDbLine
 10
-23.4610849884
 20
-67.8169745958
 30
0.0
 11
-38.1055654571
 21
-67.8169745958
 31
0.0
  0
LINE
  5
117
100
AcDbEntity
  8
LAYER0
 62
         4
100
AcDbLine
 10
-23.4610849884
 20
-65.3169745958
 30
0.0
 11
-38.1055654571
 21
-65.3169745958
 31
0.0
  0
LINE
  5
118
100
AcDbEntity
  8
LAYER0
 62
         5
100
AcDbLine
 10
-22.9110849884
 20
-68.0669745958
 30
0.0
 11
-22.9110849884
 21
-65.0669745958
 31
0.0
  0
LINE
  5
119
100
AcDbEntity
  8
LAYER0
 62
         5
100
AcDbLine
 10
-21.1610849884
 20
-69.5669745958
 30
0.0
 11
-22.9110849884
 21
-68.0669745958
 31
0.0
  0
LINE
  5
11A
100
AcDbEntity
  8
LAYER0
 62
         5
100
AcDbLine
 10
-21.1610849884
 20
-63.5669745958
 30
0.0
 11
-22.9110849884
 21
-65.0669745958
 31
0.0
  0
LINE
  5
11B
100
AcDbEntity
  8
LAYER0
 62
         2
100
AcDbLine
 10
-23.4610849884
 20
-68.0669745958
 30
0.0
 11
-35.8835168527
 21
-68.0669745958
 31
0.0
  0
LINE
  5
11C
100
AcDbEntity
  8
LAYER0
 62
         2
100
AcDbLine
 10
-23.4610849884
 20
-65.0669745958
 30
0.0
 11
-35.8835168527
 21
-65.0669745958
 31
0.0
  0
LINE
  5
11D
100
AcDbEntity
  8
LAYER0
 62
         2
100
AcDbLine
 10
-41.1610849884
 20
-66.5669745958
 30
0.0
 11
-40.8835168527
 21
-66.7272286337
 31
0.0
  0
LINE
  5
11E
100
AcDbEntity
  8
LAYER0
 62
         2
100
AcDbLine
 10
-41.1610849884
 20
-66.5669745958
 30
0.0
 11
-40.8835168527
 21
-66.406720558
 31
0.0
  0
ARC
  5
11F
100
AcDbEntity
  8
LAYER0
 62
         2
100
AcDbCircle
 10
-35.8835168527
 20
-75.0669745958
 30
0.0
 40
10.0
210
0.0
220
0.0
230
1.0
100
AcDbArc
 50
90.0000015352
 51
120.000002047
  0
ARC
  5
120
100
AcDbEntity
  8
LAYER0
 62
         2
100
AcDbCircle
 10
-35.8835168527
 20
-58.0669745958
 30
0.0
 40
10.0
210
0.0
220
0.0
230
1.0
100
AcDbArc
 50
239.999997953
 51
269.9999984648
  0
ENDBLK
  5
121
100
AcDbEntity
  8
0
100
AcDbBlockEnd
  0
BLOCK
  5
16D
100
AcDbEntity
  8
0
100
AcDbBlockBegin
  2
CLUMP6
 70
         0
 10
0.0
 20
0.0
 30
0.0
  3

  1

  0
INSERT
  5
16F
100
AcDbEntity
  8
0
100
AcDbBlockReference
  2
CLUMP7
 10
0.0
 20
0.0
 30
0.0
  0
ENDBLK
  5
17A
100
AcDbEntity
  8
0
100
AcDbBlockEnd
  0
BLOCK
  5
170
100
AcDbEntity
  8
0
100
AcDbBlockBegin
  2
CLUMP7
 70
         0
 10
0.0
 20
0.0
 30
0.0
  3

  1

  0
LINE
  5
171
100
AcDbEntity
  8
LAYER0
 62
         5
100
AcDbLine
 10
12.8389151606
 20
-79.5669745958
 30
0.0
 11
8.3389150861
 21
-79.5669745958
 31
0.0
  0
LINE
  5
172
100
AcDbEntity
  8
LAYER0
 62
         5
100
AcDbLine
 10
12.8389151606
 20
-79.5669745958
 30
0.0
 11
12.8389151606
 21
-59.5669745958
 31
0.0
  0
LINE
  5
173
100
AcDbEntity
  8
LAYER0
 62
         5
100
AcDbLine
 10
7.3389150861
 20
-80.5669745958
 30
0.0
 11
7.3389150861
 21
-104.5669745958
 31
0.0
  0
ARC
  5
174
100
AcDbEntity
  8
LAYER0
 62
         5
100
AcDbCircle
 10
8.3389150861
 20
-80.5669745958
 30
0.0
 40
1.0
210
0.0
220
0.0
230
1.0
100
AcDbArc
 50
90.0000015352
 51
179.9999969295
  0
LINE
  5
175
100
AcDbEntity
  8
LAYER0
 62
         5
100
AcDbLine
 10
-12.6610849139
 20
-104.5669745958
 30
0.0
 11
7.3389150861
 21
-104.5669745958
 31
0.0
  0
LINE
  5
176
100
AcDbEntity
  8
LAYER0
 62
         5
100
AcDbLine
 10
-12.6610849139
 20
-76.2002241766
 30
0.0
 11
-12.6610849139
 21
-104.5669745958
 31
0.0
  0
ARC
  5
177
100
AcDbEntity
  8
LAYER0
 62
         5
100
AcDbCircle
 10
-2.6610849139
 20
-69.5669745958
 30
0.0
 40
12.0
210
0.0
220
-0.0
230
1.0
100
AcDbArc
 50
56.4426912009
 51
213.5573072639
  0
LINE
  5
178
100
AcDbEntity
  8
LAYER0
 62
         5
100
AcDbLine
 10
3.9721646668
 20
-59.5669745958
 30
0.0
 11
12.8389151606
 21
-59.5669745958
 31
0.0
  0
ENDBLK
  5
179
100
AcDbEntity
  8
0
100
AcDbBlockEnd
  0
BLOCK
  5
17D
100
AcDbEntity
  8
0
100
AcDbBlockBegin
  2
CLUMP8
 70
         0
 10
0.0
 20
0.0
 30
0.0
  3

  1

  0
INSERT
  5
17F
100
AcDbEntity
  8
0
100
AcDbBlockReference
  2
CLUMP9
 10
0.0
 20
0.0
 30
0.0
  0
ENDBLK
  5
187
100
AcDbEntity
  8
0
100
AcDbBlockEnd
  0
BLOCK
  5
180
100
AcDbEntity
  8
0
100
AcDbBlockBegin
  2
CLUMP9
 70
         0
 10
0.0
 20
0.0
 30
0.0
  3

  1

  0
MTEXT
  5
181
100
AcDbEntity
  8
LAYER0
100
AcDbMText
 10
-8.747069089
 20
-50.7852520342
 30
0.0
 40
2.1473683357
 41
12.8232299805
 71
         1
 72
         1
  1
\W0.8;ロックバー
  0
LINE
  5
182
100
AcDbEntity
  8
LAYER0
100
AcDbLine
 10
-9.047069089
 20
-53.8729107256
 30
0.0
 11
3.552930911
 21
-53.8729107256
 31
0.0
  0
LINE
  5
183
100
AcDbEntity
  8
LAYER0
100
AcDbLine
 10
3.552930911
 20
-53.8729107256
 30
0.0
 11
3.552930911
 21
-50.2729107256
 31
0.0
  0
LINE
  5
184
100
AcDbEntity
  8
LAYER0
100
AcDbLine
 10
-9.047069089
 20
-50.2729107256
 30
0.0
 11
3.552930911
 21
-50.2729107256
 31
0.0
  0
LINE
  5
185
100
AcDbEntity
  8
LAYER0
100
AcDbLine
 10
-9.047069089
 20
-53.8729107256
 30
0.0
 11
-9.047069089
 21
-50.2729107256
 31
0.0
  0
ENDBLK
  5
186
100
AcDbEntity
  8
0
100
AcDbBlockEnd
  0
BLOCK
  5
18E
100
AcDbEntity
  8
0
100
AcDbBlockBegin
  2
CLUMP10
 70
         0
 10
0.0
 20
0.0
 30
0.0
  3

  1

  0
INSERT
  5
190
100
AcDbEntity
  8
0
100
AcDbBlockReference
  2
CLUMP11
 10
0.0
 20
0.0
 30
0.0
  0
ENDBLK
  5
20B
100
AcDbEntity
  8
0
100
AcDbBlockEnd
  0
BLOCK
  5
191
100
AcDbEntity
  8
0
100
AcDbBlockBegin
  2
CLUMP11
 70
         0
 10
0.0
 20
0.0
 30
0.0
  3

  1

  0
LINE
  5
192
100
AcDbEntity
  8
LAYER0
 62
         4
100
AcDbLine
 10
-13.6862111201
 20
71.8472388697
 30
0.0
 11
-16.2347393917
 21
69.2987105982
 31
0.0
  0
LINE
  5
193
100
AcDbEntity
  8
LAYER0
 62
         4
100
AcDbLine
 10
-18.6610849884
 20
74.9330256351
 30
0.0
 11
-18.6610849884
 21
70.9250561949
 31
0.0
  0
LINE
  5
194
100
AcDbEntity
  8
LAYER0
 62
         4
100
AcDbLine
 10
-14.7468712919
 20
72.9078990415
 30
0.0
 11
-17.2953995634
 21
70.3593707699
 31
0.0
  0
LINE
  5
195
100
AcDbEntity
  8
LAYER0
 62
         4
100
AcDbLine
 10
-3.2610849139
 20
72.4330253073
 30
0.0
 11
-12.2719975578
 21
72.4330253073
 31
0.0
  0
LINE
  5
196
100
AcDbEntity
  8
LAYER0
 62
         4
100
AcDbLine
 10
-11.6610845265
 20
67.9330251732
 30
0.0
 11
-11.6610845265
 21
66.9330243238
 31
0.0
  0
ARC
  5
197
100
AcDbEntity
  8
LAYER0
 62
         4
100
AcDbCircle
 10
-12.1610849139
 20
66.9330252477
 30
0.0
 40
0.5
210
0.0
220
0.0
230
1.0
100
AcDbArc
 50
270.0000015352
 51
359.9999984648
  0
LINE
  5
198
100
AcDbEntity
  8
LAYER0
 62
         4
100
AcDbLine
 10
-12.1610846084
 20
66.4330251732
 30
0.0
 11
-16.6610849884
 21
66.4330251732
 31
0.0
  0
LINE
  5
199
100
AcDbEntity
  8
LAYER0
 62
         4
100
AcDbLine
 10
-12.2719975578
 20
95.4330251881
 30
0.0
 11
-3.2610849139
 21
95.4330251881
 31
0.0
  0
LINE
  5
19A
100
AcDbEntity
  8
LAYER0
 62
         4
100
AcDbLine
 10
-20.1610849884
 20
69.9330251732
 30
0.0
 11
-20.1610849884
 21
74.4330255532
 31
0.0
  0
ARC
  5
19B
100
AcDbEntity
  8
LAYER0
 62
         4
100
AcDbCircle
 10
-19.6610849139
 20
74.4330252477
 30
0.0
 40
0.5
210
0.0
220
0.0
230
1.0
100
AcDbArc
 50
90.0000015352
 51
179.9999984648
  0
LINE
  5
19C
100
AcDbEntity
  8
LAYER0
 62
         4
100
AcDbLine
 10
-19.6610858378
 20
74.9330256351
 30
0.0
 11
-18.6610849884
 21
74.9330256351
 31
0.0
  0
LINE
  5
19D
100
AcDbEntity
  8
LAYER0
 62
         4
100
AcDbLine
 10
-14.1610848543
 20
74.3221126038
 30
0.0
 11
-14.1610848543
 21
83.3330252477
 31
0.0
  0
LINE
  5
19E
100
AcDbEntity
  8
LAYER0
 62
         4
100
AcDbLine
 10
-14.1610848543
 20
83.3330252477
 30
0.0
 11
-13.6610847723
 21
83.9330252477
 31
0.0
  0
LINE
  5
19F
100
AcDbEntity
  8
LAYER0
 62
         4
100
AcDbLine
 10
-13.6610847723
 20
83.9330252477
 30
0.0
 11
-14.1610848543
 21
84.5330252477
 31
0.0
  0
LINE
  5
1A0
100
AcDbEntity
  8
LAYER0
 62
         4
100
AcDbLine
 10
-11.6610845265
 20
99.9330253222
 30
0.0
 11
-11.6610845265
 21
100.9330261716
 31
0.0
  0
ARC
  5
1A1
100
AcDbEntity
  8
LAYER0
 62
         4
100
AcDbCircle
 10
-12.1610849139
 20
100.9330252477
 30
0.0
 40
0.5
210
-0.0
220
-0.0
230
1.0
100
AcDbArc
 50
359.9999984648
 51
90.0000015352
  0
LINE
  5
1A2
100
AcDbEntity
  8
LAYER0
 62
         4
100
AcDbLine
 10
-12.1610846084
 20
101.4330253222
 30
0.0
 11
-16.6610849884
 21
101.4330253222
 31
0.0
  0
LINE
  5
1A3
100
AcDbEntity
  8
LAYER0
 62
         4
100
AcDbLine
 10
-20.1610849884
 20
97.9330253222
 30
0.0
 11
-20.1610849884
 21
93.4330249423
 31
0.0
  0
ARC
  5
1A4
100
AcDbEntity
  8
LAYER0
 62
         4
100
AcDbCircle
 10
-19.6610849139
 20
93.4330252477
 30
0.0
 40
0.5
210
0.0
220
0.0
230
1.0
100
AcDbArc
 50
179.9999984648
 51
270.0000015352
  0
LINE
  5
1A5
100
AcDbEntity
  8
LAYER0
 62
         4
100
AcDbLine
 10
-19.6610858378
 20
92.9330248603
 30
0.0
 11
-18.6610849884
 21
92.9330248603
 31
0.0
  0
LINE
  5
1A6
100
AcDbEntity
  8
LAYER0
 62
         4
100
AcDbLine
 10
7.3033811206
 20
72.4330253073
 30
0.0
 11
-2.0610849139
 21
72.4330253073
 31
0.0
  0
LINE
  5
1A7
100
AcDbEntity
  8
LAYER0
 62
         4
100
AcDbLine
 10
-14.1610848543
 20
93.5439378916
 30
0.0
 11
-14.1610848543
 21
84.5330252477
 31
0.0
  0
ARC
  5
1A8
100
AcDbEntity
  8
LAYER0
 62
         4
100
AcDbCircle
 10
-12.2719975578
 20
70.4330253073
 30
0.0
 40
2.0
210
0.0
220
0.0
230
1.0
100
AcDbArc
 50
90.0000015352
 51
135.0000030705
  0
ARC
  5
1A9
100
AcDbEntity
  8
LAYER0
 62
         4
100
AcDbCircle
 10
-16.1610848543
 20
74.3221126038
 30
0.0
 40
2.0
210
0.0
220
0.0
230
1.0
100
AcDbArc
 50
314.9999969295
 51
359.9999984648
  0
ARC
  5
1AA
100
AcDbEntity
  8
LAYER0
 62
         4
100
AcDbCircle
 10
-16.1610848543
 20
93.5439378916
 30
0.0
 40
2.0
210
-0.0
220
0.0
230
1.0
100
AcDbArc
 50
359.9999984648
 51
45.0
  0
ARC
  5
1AB
100
AcDbEntity
  8
LAYER0
 62
         4
100
AcDbCircle
 10
-12.2719975578
 20
97.4330251881
 30
0.0
 40
2.0
210
0.0
220
0.0
230
1.0
100
AcDbArc
 50
225.0
 51
269.9999953943
  0
ARC
  5
1AC
100
AcDbEntity
  8
LAYER0
 62
         4
100
AcDbCircle
 10
-15.6690539667
 20
99.1330253222
 30
0.0
 40
0.8
210
0.0
220
0.0
230
1.0
100
AcDbArc
 50
90.0000015352
 51
225.0
  0
ARC
  5
1AD
100
AcDbEntity
  8
LAYER0
 62
         4
100
AcDbCircle
 10
-17.8610849884
 20
96.9409943005
 30
0.0
 40
0.8
210
0.0
220
-0.0
230
1.0
100
AcDbArc
 50
45.0
 51
179.9999984648
  0
ARC
  5
1AE
100
AcDbEntity
  8
LAYER0
 62
         4
100
AcDbCircle
 10
-15.6690539667
 20
68.7330251732
 30
0.0
 40
0.8
210
0.0
220
0.0
230
1.0
100
AcDbArc
 50
135.0000030705
 51
269.9999953943
  0
ARC
  5
1AF
100
AcDbEntity
  8
LAYER0
 62
         4
100
AcDbCircle
 10
-17.8610849884
 20
70.9250561949
 30
0.0
 40
0.8
210
0.0
220
0.0
230
1.0
100
AcDbArc
 50
179.9999984648
 51
314.9999969295
  0
LINE
  5
1B0
100
AcDbEntity
  8
LAYER0
 62
         4
100
AcDbLine
 10
10.3468841389
 20
99.9330253222
 30
0.0
 11
6.3389146987
 21
99.9330253222
 31
0.0
  0
LINE
  5
1B1
100
AcDbEntity
  8
LAYER0
 62
         4
100
AcDbLine
 10
10.3468841389
 20
67.9330251732
 30
0.0
 11
6.3389146987
 21
67.9330251732
 31
0.0
  0
LINE
  5
1B2
100
AcDbEntity
  8
LAYER0
 62
         4
100
AcDbLine
 10
6.3389146987
 20
67.9330251732
 30
0.0
 11
6.3389146987
 21
66.9330243238
 31
0.0
  0
ARC
  5
1B3
100
AcDbEntity
  8
LAYER0
 62
         4
100
AcDbCircle
 10
6.8389150861
 20
66.9330252477
 30
0.0
 40
0.5
210
0.0
220
0.0
230
1.0
100
AcDbArc
 50
179.9999984648
 51
269.9999953943
  0
LINE
  5
1B4
100
AcDbEntity
  8
LAYER0
 62
         4
100
AcDbLine
 10
6.8389147807
 20
66.4330251732
 30
0.0
 11
15.8389151606
 21
66.4330251732
 31
0.0
  0
LINE
  5
1B5
100
AcDbEntity
  8
LAYER0
 62
         4
100
AcDbLine
 10
6.3389146987
 20
99.9330253222
 30
0.0
 11
6.3389146987
 21
100.9330261716
 31
0.0
  0
ARC
  5
1B6
100
AcDbEntity
  8
LAYER0
 62
         4
100
AcDbCircle
 10
6.8389150861
 20
100.9330252477
 30
0.0
 40
0.5
210
0.0
220
0.0
230
1.0
100
AcDbArc
 50
90.0000015352
 51
179.9999984648
  0
LINE
  5
1B7
100
AcDbEntity
  8
LAYER0
 62
         4
100
AcDbLine
 10
6.8389147807
 20
101.4330253222
 30
0.0
 11
10.3389150861
 21
101.4330253222
 31
0.0
  0
LINE
  5
1B8
100
AcDbEntity
  8
LAYER0
 62
         4
100
AcDbLine
 10
27.8389151606
 20
78.4330251732
 30
0.0
 11
27.8389151606
 21
82.4330252477
 31
0.0
  0
LINE
  5
1B9
100
AcDbEntity
  8
LAYER0
 62
         4
100
AcDbLine
 10
9.1318080814
 20
94.6652580712
 30
0.0
 11
12.1995752579
 21
97.7330252477
 31
0.0
  0
LINE
  5
1BA
100
AcDbEntity
  8
LAYER0
 62
         4
100
AcDbLine
 10
-11.6610845265
 20
99.9330253222
 30
0.0
 11
-15.6690539667
 21
99.9330253222
 31
0.0
  0
LINE
  5
1BB
100
AcDbEntity
  8
LAYER0
 62
         4
100
AcDbLine
 10
-18.6610849884
 20
92.9330248603
 30
0.0
 11
-18.6610849884
 21
96.9409943005
 31
0.0
  0
LINE
  5
1BC
100
AcDbEntity
  8
LAYER0
 62
         4
100
AcDbLine
 10
-13.6862111201
 20
96.0188116257
 30
0.0
 11
-16.2347393917
 21
98.5673398973
 31
0.0
  0
LINE
  5
1BD
100
AcDbEntity
  8
LAYER0
 62
         4
100
AcDbLine
 10
-14.7468712919
 20
94.958151454
 30
0.0
 11
-17.2953995634
 21
97.5066797255
 31
0.0
  0
LINE
  5
1BE
100
AcDbEntity
  8
LAYER0
 62
         4
100
AcDbLine
 10
-11.6610845265
 20
67.9330251732
 30
0.0
 11
-15.6690539667
 21
67.9330251732
 31
0.0
  0
LINE
  5
1BF
100
AcDbEntity
  8
LAYER0
 62
         4
100
AcDbLine
 10
8.8389148626
 20
93.9581512901
 30
0.0
 11
8.8389148626
 21
83.2330252477
 31
0.0
  0
ARC
  5
1C0
100
AcDbEntity
  8
LAYER0
 62
         4
100
AcDbCircle
 10
10.3468841389
 20
99.1330253222
 30
0.0
 40
0.8
210
-0.0
220
-0.0
230
1.0
100
AcDbArc
 50
314.9999969295
 51
90.0000015352
  0
LINE
  5
1C1
100
AcDbEntity
  8
LAYER0
 62
         4
100
AcDbLine
 10
8.3640412924
 20
96.0188116257
 30
0.0
 11
10.9125695639
 21
98.5673398973
 31
0.0
  0
LINE
  5
1C2
100
AcDbEntity
  8
LAYER0
 62
         4
100
AcDbLine
 10
6.8389148626
 20
73.4330253073
 30
0.0
 11
1.8389150861
 21
73.4330253073
 31
0.0
  0
LINE
  5
1C3
100
AcDbEntity
  8
LAYER0
 62
         4
100
AcDbLine
 10
8.8389148626
 20
81.6330252477
 30
0.0
 11
8.8389148626
 21
73.2007924242
 31
0.0
  0
LINE
  5
1C4
100
AcDbEntity
  8
LAYER0
 62
         4
100
AcDbLine
 10
14.3389151606
 20
81.9330252477
 30
0.0
 11
9.1389148626
 21
81.9330252477
 31
0.0
  0
LINE
  5
1C5
100
AcDbEntity
  8
LAYER0
 62
         4
100
AcDbLine
 10
15.8389151606
 20
67.4330251732
 30
0.0
 11
12.6389150861
 21
67.4330251732
 31
0.0
  0
LINE
  5
1C6
100
AcDbEntity
  8
LAYER0
 62
         4
100
AcDbLine
 10
26.3389151606
 20
81.9330252477
 30
0.0
 11
22.3389151606
 21
81.9330252477
 31
0.0
  0
LINE
  5
1C7
100
AcDbEntity
  8
LAYER0
 62
         4
100
AcDbLine
 10
26.8389151606
 20
78.4330251732
 30
0.0
 11
26.8389151606
 21
81.4330252477
 31
0.0
  0
LINE
  5
1C8
100
AcDbEntity
  8
LAYER0
 62
         4
100
AcDbLine
 10
6.8389148626
 20
94.4330251881
 30
0.0
 11
1.8389150861
 21
94.4330251881
 31
0.0
  0
LINE
  5
1C9
100
AcDbEntity
  8
LAYER0
 62
         4
100
AcDbLine
 10
-12.1610848543
 20
73.4330253073
 30
0.0
 11
-7.1610849139
 21
73.4330253073
 31
0.0
  0
LINE
  5
1CA
100
AcDbEntity
  8
LAYER0
 62
         4
100
AcDbLine
 10
-12.1610848543
 20
94.4330251881
 30
0.0
 11
-7.1610849139
 21
94.4330251881
 31
0.0
  0
LINE
  5
1CB
100
AcDbEntity
  8
LAYER0
 62
         4
100
AcDbLine
 10
-13.1610848543
 20
93.4330251881
 30
0.0
 11
-13.1610848543
 21
88.4330252477
 31
0.0
  0
LINE
  5
1CC
100
AcDbEntity
  8
LAYER0
 62
         4
100
AcDbLine
 10
-13.1610848543
 20
79.4330252477
 30
0.0
 11
-13.1610848543
 21
74.4330253073
 31
0.0
  0
ARC
  5
1CD
100
AcDbEntity
  8
LAYER0
 62
         4
100
AcDbCircle
 10
-12.1610848543
 20
93.4330251881
 30
0.0
 40
1.0
210
0.0
220
0.0
230
1.0
100
AcDbArc
 50
90.0000015352
 51
180.0000030705
  0
ARC
  5
1CE
100
AcDbEntity
  8
LAYER0
 62
         4
100
AcDbCircle
 10
-12.1610848543
 20
74.4330253073
 30
0.0
 40
1.0
210
0.0
220
0.0
230
1.0
100
AcDbArc
 50
180.0000030705
 51
269.9999984648
  0
LINE
  5
1CF
100
AcDbEntity
  8
LAYER0
 62
         4
100
AcDbLine
 10
8.0711480735
 20
72.1401320885
 30
0.0
 11
10.9125695639
 21
69.2987105982
 31
0.0
  0
ARC
  5
1D0
100
AcDbEntity
  8
LAYER0
 62
         4
100
AcDbCircle
 10
7.3640412924
 20
71.4330253073
 30
0.0
 40
1.0
210
0.0
220
-0.0
230
1.0
100
AcDbArc
 50
45.0000030705
 51
90.0000046057
  0
ARC
  5
1D1
100
AcDbEntity
  8
LAYER0
 62
         4
100
AcDbCircle
 10
10.3468841389
 20
68.7330251732
 30
0.0
 40
0.8
210
-0.0
220
0.0
230
1.0
100
AcDbArc
 50
269.9999984648
 51
45.0000030705
  0
LINE
  5
1D2
100
AcDbEntity
  8
LAYER0
 62
         4
100
AcDbLine
 10
11.6117072922
 20
70.0137864322
 30
0.0
 11
9.1318080814
 21
72.493685643
 31
0.0
  0
LINE
  5
1D3
100
AcDbEntity
  8
LAYER0
 62
         4
100
AcDbLine
 10
-3.2610849139
 20
95.4330251881
 30
0.0
 11
-2.6610849139
 21
94.9330251062
 31
0.0
  0
LINE
  5
1D4
100
AcDbEntity
  8
LAYER0
 62
         4
100
AcDbLine
 10
-2.6610849139
 20
94.9330251062
 30
0.0
 11
-2.0610849139
 21
95.4330251881
 31
0.0
  0
LINE
  5
1D5
100
AcDbEntity
  8
LAYER0
 62
         4
100
AcDbLine
 10
-2.0610849139
 20
72.4330253073
 30
0.0
 11
-2.6610849139
 21
72.9330253893
 31
0.0
  0
LINE
  5
1D6
100
AcDbEntity
  8
LAYER0
 62
         4
100
AcDbLine
 10
-2.6610849139
 20
72.9330253893
 30
0.0
 11
-3.2610849139
 21
72.4330253073
 31
0.0
  0
LINE
  5
1D7
100
AcDbEntity
  8
LAYER0
 62
         4
100
AcDbLine
 10
6.94982773
 20
95.4330251881
 30
0.0
 11
-2.0610849139
 21
95.4330251881
 31
0.0
  0
ARC
  5
1D8
100
AcDbEntity
  8
LAYER0
 62
         4
100
AcDbCircle
 10
9.8389148626
 20
93.9581512901
 30
0.0
 40
1.0
210
0.0
220
0.0
230
1.0
100
AcDbArc
 50
135.0000023029
 51
180.0000030705
  0
ARC
  5
1D9
100
AcDbEntity
  8
LAYER0
 62
         4
100
AcDbCircle
 10
15.8389151606
 20
78.4330251732
 30
0.0
 40
12.0
210
-0.0
220
0.0
230
1.0
100
AcDbArc
 50
269.9999984648
 51
0.0
  0
ARC
  5
1DA
100
AcDbEntity
  8
LAYER0
 62
         4
100
AcDbCircle
 10
15.8389151606
 20
78.4330251732
 30
0.0
 40
11.0
210
-0.0
220
0.0
230
1.0
100
AcDbArc
 50
269.9999984648
 51
0.0
  0
ARC
  5
1DB
100
AcDbEntity
  8
LAYER0
 62
         4
100
AcDbCircle
 10
10.3389150861
 20
99.1330253222
 30
0.0
 40
2.3
210
0.0
220
-0.0
230
1.0
100
AcDbArc
 50
0.0
 51
90.0000015352
  0
LINE
  5
1DC
100
AcDbEntity
  8
LAYER0
 62
         4
100
AcDbLine
 10
12.6389150861
 20
99.1330253222
 30
0.0
 11
12.6389150861
 21
98.7936854195
 31
0.0
  0
ARC
  5
1DD
100
AcDbEntity
  8
LAYER0
 62
         4
100
AcDbCircle
 10
11.1389150861
 20
98.7936854195
 30
0.0
 40
1.5
210
-0.0
220
0.0
230
1.0
100
AcDbArc
 50
314.9999992324
 51
0.0
  0
LINE
  5
1DE
100
AcDbEntity
  8
LAYER0
 62
         4
100
AcDbLine
 10
12.1389150861
 20
67.9330251732
 30
0.0
 11
12.1389150861
 21
68.740994226
 31
0.0
  0
ARC
  5
1DF
100
AcDbEntity
  8
LAYER0
 62
         4
100
AcDbCircle
 10
10.3389150861
 20
68.740994226
 30
0.0
 40
1.8
210
0.0
220
0.0
230
1.0
100
AcDbArc
 50
0.0
 51
45.0000007676
  0
ARC
  5
1E0
100
AcDbEntity
  8
LAYER0
 62
         4
100
AcDbCircle
 10
26.3389151606
 20
81.4330252477
 30
0.0
 40
0.5
210
0.0
220
-0.0
230
1.0
100
AcDbArc
 50
0.0
 51
90.0000015352
  0
ARC
  5
1E1
100
AcDbEntity
  8
LAYER0
 62
         4
100
AcDbCircle
 10
12.6389150861
 20
67.9330251732
 30
0.0
 40
0.5
210
0.0
220
0.0
230
1.0
100
AcDbArc
 50
180.0000030705
 51
269.9999984648
  0
ARC
  5
1E2
100
AcDbEntity
  8
LAYER0
 62
         4
100
AcDbCircle
 10
-16.6610849884
 20
69.9330251732
 30
0.0
 40
3.5
210
0.0
220
0.0
230
1.0
100
AcDbArc
 50
180.0000030705
 51
269.9999984648
  0
ARC
  5
1E3
100
AcDbEntity
  8
LAYER0
 62
         4
100
AcDbCircle
 10
-16.6610849884
 20
97.9330253222
 30
0.0
 40
3.5
210
0.0
220
0.0
230
1.0
100
AcDbArc
 50
90.0000015352
 51
180.0000030705
  0
ARC
  5
1E4
100
AcDbEntity
  8
LAYER0
 62
         4
100
AcDbCircle
 10
9.1389148626
 20
83.2330252477
 30
0.0
 40
0.3
210
0.0
220
0.0
230
1.0
100
AcDbArc
 50
180.0000030705
 51
269.9999984648
  0
ARC
  5
1E5
100
AcDbEntity
  8
LAYER0
 62
         4
100
AcDbCircle
 10
9.1389148626
 20
81.6330252477
 30
0.0
 40
0.3
210
0.0
220
0.0
230
1.0
100
AcDbArc
 50
90.0000015352
 51
180.0000030705
  0
LINE
  5
1E6
100
AcDbEntity
  8
LAYER0
 62
         4
100
AcDbLine
 10
16.3650867496
 20
80.7330252477
 30
0.0
 11
20.3127435716
 21
80.7330252477
 31
0.0
  0
LINE
  5
1E7
100
AcDbEntity
  8
LAYER0
 62
         4
100
AcDbLine
 10
22.3389151606
 20
81.9330252477
 30
0.0
 11
21.2497861429
 21
81.0617220335
 31
0.0
  0
LINE
  5
1E8
100
AcDbEntity
  8
LAYER0
 62
         4
100
AcDbLine
 10
15.4280441783
 20
81.0617220335
 30
0.0
 11
14.3389151606
 21
81.9330252477
 31
0.0
  0
ARC
  5
1E9
100
AcDbEntity
  8
LAYER0
 62
         4
100
AcDbCircle
 10
20.3127435716
 20
82.2330252477
 30
0.0
 40
1.5
210
0.0
220
0.0
230
1.0
100
AcDbArc
 50
269.9999984648
 51
308.6598073783
  0
ARC
  5
1EA
100
AcDbEntity
  8
LAYER0
 62
         4
100
AcDbCircle
 10
16.3650867496
 20
82.2330252477
 30
0.0
 40
1.5
210
0.0
220
0.0
230
1.0
100
AcDbArc
 50
231.3401895512
 51
269.9999984648
  0
LINE
  5
1EB
100
AcDbEntity
  8
LAYER0
 62
         4
100
AcDbLine
 10
0.7497860684
 20
74.3043285215
 30
0.0
 11
1.8389150861
 21
73.4330253073
 31
0.0
  0
ARC
  5
1EC
100
AcDbEntity
  8
LAYER0
 62
         4
100
AcDbCircle
 10
27.3389151606
 20
82.4330252477
 30
0.0
 40
0.5
210
-0.0
220
-0.0
230
1.0
100
AcDbArc
 50
359.9999984648
 51
90.0000015352
  0
LINE
  5
1ED
100
AcDbEntity
  8
LAYER0
 62
         4
100
AcDbLine
 10
17.7389151606
 20
82.9330252477
 30
0.0
 11
18.3389151606
 21
82.4330251658
 31
0.0
  0
LINE
  5
1EE
100
AcDbEntity
  8
LAYER0
 62
         4
100
AcDbLine
 10
18.3389151606
 20
82.4330251658
 30
0.0
 11
18.9389151606
 21
82.9330252477
 31
0.0
  0
LINE
  5
1EF
100
AcDbEntity
  8
LAYER0
 62
         4
100
AcDbLine
 10
27.3389151606
 20
82.9330252477
 30
0.0
 11
18.9389151606
 21
82.9330252477
 31
0.0
  0
LINE
  5
1F0
100
AcDbEntity
  8
LAYER0
 62
         4
100
AcDbLine
 10
17.7389151606
 20
82.9330252477
 30
0.0
 11
9.1389148626
 21
82.9330252477
 31
0.0
  0
ARC
  5
1F1
100
AcDbEntity
  8
LAYER0
 62
         4
100
AcDbCircle
 10
-0.1872565029
 20
73.1330253073
 30
0.0
 40
1.5
210
0.0
220
-0.0
230
1.0
100
AcDbArc
 50
51.3401926217
 51
90.0000015352
  0
LINE
  5
1F2
100
AcDbEntity
  8
LAYER0
 62
         4
100
AcDbLine
 10
-3.2610849139
 20
74.6330253073
 30
0.0
 11
-2.6610849139
 21
74.1330252254
 31
0.0
  0
LINE
  5
1F3
100
AcDbEntity
  8
LAYER0
 62
         4
100
AcDbLine
 10
-2.6610849139
 20
74.1330252254
 30
0.0
 11
-2.0610849139
 21
74.6330253073
 31
0.0
  0
LINE
  5
1F4
100
AcDbEntity
  8
LAYER0
 62
         4
100
AcDbLine
 10
-0.1872565029
 20
74.6330253073
 30
0.0
 11
-2.0610849139
 21
74.6330253073
 31
0.0
  0
LINE
  5
1F5
100
AcDbEntity
  8
LAYER0
 62
         4
100
AcDbLine
 10
-3.2610849139
 20
74.6330253073
 30
0.0
 11
-5.1349133249
 21
74.6330253073
 31
0.0
  0
ARC
  5
1F6
100
AcDbEntity
  8
LAYER0
 62
         4
100
AcDbCircle
 10
-5.1349133249
 20
73.1330253073
 30
0.0
 40
1.5
210
0.0
220
0.0
230
1.0
100
AcDbArc
 50
90.0000015352
 51
128.6598104488
  0
LINE
  5
1F7
100
AcDbEntity
  8
LAYER0
 62
         4
100
AcDbLine
 10
-6.0719558962
 20
74.3043285215
 30
0.0
 11
-7.1610849139
 21
73.4330253073
 31
0.0
  0
LINE
  5
1F8
100
AcDbEntity
  8
LAYER0
 62
         4
100
AcDbLine
 10
-11.9610848543
 20
81.4591968367
 30
0.0
 11
-11.9610848543
 21
86.4068536587
 31
0.0
  0
LINE
  5
1F9
100
AcDbEntity
  8
LAYER0
 62
         4
100
AcDbLine
 10
-12.2897816401
 20
87.34389623
 30
0.0
 11
-13.1610848543
 21
88.4330252477
 31
0.0
  0
LINE
  5
1FA
100
AcDbEntity
  8
LAYER0
 62
         4
100
AcDbLine
 10
-12.2897816401
 20
80.5221542654
 30
0.0
 11
-13.1610848543
 21
79.4330252477
 31
0.0
  0
ARC
  5
1FB
100
AcDbEntity
  8
LAYER0
 62
         4
100
AcDbCircle
 10
-13.4610848543
 20
81.4591968367
 30
0.0
 40
1.5
210
-0.0
220
0.0
230
1.0
100
AcDbArc
 50
321.3401910864
 51
0.0
  0
ARC
  5
1FC
100
AcDbEntity
  8
LAYER0
 62
         4
100
AcDbCircle
 10
-13.4610848543
 20
86.4068536587
 30
0.0
 40
1.5
210
0.0
220
0.0
230
1.0
100
AcDbArc
 50
0.0
 51
38.6598089136
  0
LINE
  5
1FD
100
AcDbEntity
  8
LAYER0
 62
         4
100
AcDbLine
 10
0.7497860684
 20
93.5617219739
 30
0.0
 11
1.8389150861
 21
94.4330251881
 31
0.0
  0
ARC
  5
1FE
100
AcDbEntity
  8
LAYER0
 62
         4
100
AcDbCircle
 10
-0.1872565029
 20
94.7330251881
 30
0.0
 40
1.5
210
0.0
220
0.0
230
1.0
100
AcDbArc
 50
269.9999984648
 51
308.6598073783
  0
LINE
  5
1FF
100
AcDbEntity
  8
LAYER0
 62
         4
100
AcDbLine
 10
-3.2610849139
 20
93.2330251881
 30
0.0
 11
-2.6610849139
 21
93.7330252701
 31
0.0
  0
LINE
  5
200
100
AcDbEntity
  8
LAYER0
 62
         4
100
AcDbLine
 10
-2.6610849139
 20
93.7330252701
 30
0.0
 11
-2.0610849139
 21
93.2330251881
 31
0.0
  0
LINE
  5
201
100
AcDbEntity
  8
LAYER0
 62
         4
100
AcDbLine
 10
-0.1872565029
 20
93.2330251881
 30
0.0
 11
-2.0610849139
 21
93.2330251881
 31
0.0
  0
LINE
  5
202
100
AcDbEntity
  8
LAYER0
 62
         4
100
AcDbLine
 10
-3.2610849139
 20
93.2330251881
 30
0.0
 11
-5.1349133249
 21
93.2330251881
 31
0.0
  0
ARC
  5
203
100
AcDbEntity
  8
LAYER0
 62
         4
100
AcDbCircle
 10
-5.1349133249
 20
94.7330251881
 30
0.0
 40
1.5
210
0.0
220
0.0
230
1.0
100
AcDbArc
 50
231.3401895512
 51
269.9999984648
  0
LINE
  5
204
100
AcDbEntity
  8
LAYER0
 62
         4
100
AcDbLine
 10
-6.0719558962
 20
93.5617219739
 30
0.0
 11
-7.1610849139
 21
94.4330251881
 31
0.0
  0
ARC
  5
205
100
AcDbEntity
  8
LAYER0
 62
         4
100
AcDbCircle
 10
6.94982773
 20
97.4330251881
 30
0.0
 40
2.0
210
0.0
220
0.0
230
1.0
100
AcDbArc
 50
270.0000015352
 51
314.9999969295
  0
ARC
  5
206
100
AcDbEntity
  8
LAYER0
 62
         4
100
AcDbCircle
 10
6.8389148626
 20
93.4330251881
 30
0.0
 40
1.0
210
0.0
220
-0.0
230
1.0
100
AcDbArc
 50
0.0
 51
90.0000015352
  0
ARC
  5
207
100
AcDbEntity
  8
LAYER0
 62
         4
100
AcDbCircle
 10
6.8389148626
 20
74.4330253073
 30
0.0
 40
1.0
210
-0.0
220
0.0
230
1.0
100
AcDbArc
 50
269.9999984648
 51
0.0
  0
LINE
  5
208
100
AcDbEntity
  8
LAYER0
 62
         4
100
AcDbLine
 10
7.8389148626
 20
93.4330251881
 30
0.0
 11
7.8389148626
 21
74.4330253073
 31
0.0
  0
ARC
  5
209
100
AcDbEntity
  8
LAYER0
 62
         4
100
AcDbCircle
 10
9.8389148626
 20
73.2007924242
 30
0.0
 40
1.0
210
0.0
220
0.0
230
1.0
100
AcDbArc
 50
180.0000030705
 51
224.9999976971
  0
ENDBLK
  5
20A
100
AcDbEntity
  8
0
100
AcDbBlockEnd
  0
ENDSEC
  0
SECTION
  2
ENTITIES
  0
MTEXT
  5
2F
100
AcDbEntity
  8
LAYER3
100
AcDbMText
 10
56.1575000339
 20
42.1987441418
 30
0.0
 40
2.1473683357
 41
5.1292919922
 71
         1
 72
         1
  1
\W0.8;26.3
  0
LINE
  5
30
100
AcDbEntity
  8
LAYER3
 62
         4
100
AcDbLine
 10
74.1075000339
 20
38.4110854503
 30
0.0
 11
71.1730572317
 21
37.7873503779
 31
0.0
  0
LINE
  5
31
100
AcDbEntity
  8
LAYER3
 62
         4
100
AcDbLine
 10
74.1075000339
 20
38.4110854503
 30
0.0
 11
71.1730572317
 21
39.0348205228
 31
0.0
  0
LINE
  5
32
100
AcDbEntity
  8
LAYER3
 62
         4
100
AcDbLine
 10
47.8075000339
 20
38.4110854503
 30
0.0
 11
50.7419428361
 21
39.0348205228
 31
0.0
  0
LINE
  5
33
100
AcDbEntity
  8
LAYER3
 62
         4
100
AcDbLine
 10
47.8075000339
 20
38.4110854503
 30
0.0
 11
50.7419428361
 21
37.7873503779
 31
0.0
  0
LINE
  5
34
100
AcDbEntity
  8
LAYER3
 62
         4
100
AcDbLine
 10
47.8075000339
 20
38.4110854503
 30
0.0
 11
74.1075000339
 21
38.4110854503
 31
0.0
  0
LINE
  5
35
100
AcDbEntity
  8
LAYER3
 62
         4
100
AcDbLine
 10
47.8075000339
 20
48.9330252477
 30
0.0
 11
47.8075000339
 21
37.4110854503
 31
0.0
  0
LINE
  5
36
100
AcDbEntity
  8
LAYER3
 62
         4
100
AcDbLine
 10
74.1075000339
 20
45.9330252477
 30
0.0
 11
74.1075000339
 21
37.4110854503
 31
0.0
  0
MTEXT
  5
37
100
AcDbEntity
  8
LAYER3
100
AcDbMText
 10
83.9731778502
 20
82.013025188
 30
0.0
 40
1.7178947091
 41
2.0517168453
 71
         1
 72
         1
  1
\W0.8;74
 11
-0.0000000268
 21
1.0
 31
0.0
  0
LINE
  5
38
100
AcDbEntity
  8
LAYER3
 62
         4
100
AcDbLine
 10
87.203304856
 20
120.9330252477
 30
0.0
 11
87.8270399284
 21
117.9985824455
 31
0.0
  0
LINE
  5
39
100
AcDbEntity
  8
LAYER3
 62
         4
100
AcDbLine
 10
87.203304856
 20
120.9330252477
 30
0.0
 11
86.5795697835
 21
117.9985824455
 31
0.0
  0
LINE
  5
3A
100
AcDbEntity
  8
LAYER3
 62
         4
100
AcDbLine
 10
87.203304856
 20
46.9330252477
 30
0.0
 11
86.5795697835
 21
49.8674680499
 31
0.0
  0
LINE
  5
3B
100
AcDbEntity
  8
LAYER3
 62
         4
100
AcDbLine
 10
87.203304856
 20
46.9330252477
 30
0.0
 11
87.8270399284
 21
49.8674680499
 31
0.0
  0
LINE
  5
3C
100
AcDbEntity
  8
LAYER3
 62
         4
100
AcDbLine
 10
87.203304856
 20
46.9330252477
 30
0.0
 11
87.203304856
 21
120.9330252477
 31
0.0
  0
LINE
  5
3D
100
AcDbEntity
  8
LAYER3
 62
         4
100
AcDbLine
 10
75.1075000339
 20
120.9330252477
 30
0.0
 11
88.203304856
 21
120.9330252477
 31
0.0
  0
LINE
  5
3E
100
AcDbEntity
  8
LAYER3
 62
         4
100
AcDbLine
 10
75.1075000339
 20
46.9330252477
 30
0.0
 11
88.203304856
 21
46.9330252477
 31
0.0
  0
CIRCLE
  5
40
100
AcDbEntity
  8
LAYER0
 62
         3
100
AcDbCircle
 10
57.8075000339
 20
71.9330252477
 30
0.0
 40
2.0
210
0.0
220
0.0
230
1.0
  0
CIRCLE
  5
41
100
AcDbEntity
  8
LAYER0
 62
         3
100
AcDbCircle
 10
57.8075000339
 20
95.9330252477
 30
0.0
 40
2.0
210
0.0
220
0.0
230
1.0
  0
CIRCLE
  5
42
100
AcDbEntity
  8
LAYER0
 62
         3
100
AcDbCircle
 10
57.8075000339
 20
71.9330252477
 30
0.0
 40
3.5
210
0.0
220
0.0
230
1.0
  0
CIRCLE
  5
43
100
AcDbEntity
  8
LAYER0
 62
         3
100
AcDbCircle
 10
57.8075000339
 20
95.9330252477
 30
0.0
 40
3.5
210
0.0
220
0.0
230
1.0
  0
ARC
  5
44
100
AcDbEntity
  8
LAYER0
 62
         3
100
AcDbCircle
 10
68.8075000339
 20
61.4330252477
 30
0.0
 40
1.0
210
0.0
220
0.0
230
1.0
100
AcDbArc
 50
180.0000030705
 51
269.9999984648
  0
ARC
  5
45
100
AcDbEntity
  8
LAYER0
 62
         3
100
AcDbCircle
 10
68.8075000339
 20
106.4330252477
 30
0.0
 40
1.0
210
0.0
220
0.0
230
1.0
100
AcDbArc
 50
90.0000015352
 51
180.0000030705
  0
ARC
  5
46
100
AcDbEntity
  8
LAYER0
 62
         3
100
AcDbCircle
 10
50.8075000339
 20
49.9330252477
 30
0.0
 40
3.0
210
0.0
220
0.0
230
1.0
100
AcDbArc
 50
180.0000030705
 51
269.9999984648
  0
LINE
  5
47
100
AcDbEntity
  8
LAYER0
 62
         6
100
AcDbLine
 10
7.3389150861
 20
49.5330252477
 30
0.0
 11
7.3389150861
 21
66.0330252477
 31
0.0
  0
LINE
  5
48
100
AcDbEntity
  8
LAYER0
 62
         6
100
AcDbLine
 10
9.3389150861
 20
62.8330252477
 30
0.0
 11
9.3389150861
 21
66.0330252477
 31
0.0
  0
LINE
  5
49
100
AcDbEntity
  8
LAYER0
 62
         6
100
AcDbLine
 10
9.3389150861
 20
62.8330252477
 30
0.0
 11
7.3389150861
 21
62.8330252477
 31
0.0
  0
ARC
  5
4A
100
AcDbEntity
  8
LAYER0
 62
         6
100
AcDbCircle
 10
4.3389150861
 20
118.3330252477
 30
0.0
 40
3.0
210
0.0
220
-0.0
230
1.0
100
AcDbArc
 50
0.0
 51
90.0000015352
  0
LINE
  5
4B
100
AcDbEntity
  8
LAYER0
 62
         6
100
AcDbLine
 10
7.3389150861
 20
118.3330252477
 30
0.0
 11
7.3389150861
 21
101.8330252477
 31
0.0
  0
LINE
  5
4C
100
AcDbEntity
  8
LAYER0
 62
         6
100
AcDbLine
 10
9.3389150861
 20
105.0330252477
 30
0.0
 11
9.3389150861
 21
101.8330252477
 31
0.0
  0
LINE
  5
4D
100
AcDbEntity
  8
LAYER0
 62
         6
100
AcDbLine
 10
9.3389150861
 20
105.0330252477
 30
0.0
 11
7.3389150861
 21
105.0330252477
 31
0.0
  0
ARC
  5
4E
100
AcDbEntity
  8
LAYER0
 62
         3
100
AcDbCircle
 10
53.3075000339
 20
58.9330252477
 30
0.0
 40
1.5
210
0.0
220
0.0
230
1.0
100
AcDbArc
 50
90.0000015352
 51
180.0000030705
  0
ARC
  5
4F
100
AcDbEntity
  8
LAYER0
 62
         3
100
AcDbCircle
 10
53.3075000339
 20
48.4330252477
 30
0.0
 40
1.5
210
0.0
220
0.0
230
1.0
100
AcDbArc
 50
180.0000030705
 51
269.9999984648
  0
LINE
  5
50
100
AcDbEntity
  8
LAYER0
 62
         3
100
AcDbLine
 10
74.1075000339
 20
46.9330252477
 30
0.0
 11
74.1075000339
 21
60.4330252477
 31
0.0
  0
LINE
  5
51
100
AcDbEntity
  8
LAYER0
 62
         3
100
AcDbLine
 10
74.1075000339
 20
46.9330252477
 30
0.0
 11
50.8075000339
 21
46.9330252477
 31
0.0
  0
LINE
  5
52
100
AcDbEntity
  8
LAYER0
 62
         3
100
AcDbLine
 10
74.1075000339
 20
60.4330252477
 30
0.0
 11
53.3075000339
 21
60.4330252477
 31
0.0
  0
LINE
  5
53
100
AcDbEntity
  8
LAYER0
 62
         3
100
AcDbLine
 10
51.8075000339
 20
58.9330252477
 30
0.0
 11
51.8075000339
 21
48.4330252477
 31
0.0
  0
ARC
  5
54
100
AcDbEntity
  8
LAYER0
 62
         3
100
AcDbCircle
 10
50.8075000339
 20
117.9330252477
 30
0.0
 40
3.0
210
0.0
220
0.0
230
1.0
100
AcDbArc
 50
90.0000015352
 51
180.0000030705
  0
ARC
  5
55
100
AcDbEntity
  8
LAYER0
 62
         3
100
AcDbCircle
 10
53.3075000339
 20
108.9330252477
 30
0.0
 40
1.5
210
0.0
220
0.0
230
1.0
100
AcDbArc
 50
180.0000030705
 51
269.9999984648
  0
ARC
  5
56
100
AcDbEntity
  8
LAYER0
 62
         3
100
AcDbCircle
 10
53.3075000339
 20
119.4330252477
 30
0.0
 40
1.5
210
0.0
220
0.0
230
1.0
100
AcDbArc
 50
90.0000015352
 51
180.0000030705
  0
LINE
  5
57
100
AcDbEntity
  8
LAYER0
 62
         3
100
AcDbLine
 10
74.1075000339
 20
120.9330252477
 30
0.0
 11
74.1075000339
 21
107.4330252477
 31
0.0
  0
LINE
  5
58
100
AcDbEntity
  8
LAYER0
 62
         3
100
AcDbLine
 10
74.1075000339
 20
120.9330252477
 30
0.0
 11
50.8075000339
 21
120.9330252477
 31
0.0
  0
LINE
  5
59
100
AcDbEntity
  8
LAYER0
 62
         3
100
AcDbLine
 10
74.1075000339
 20
107.4330252477
 30
0.0
 11
53.3075000339
 21
107.4330252477
 31
0.0
  0
LINE
  5
5A
100
AcDbEntity
  8
LAYER0
 62
         3
100
AcDbLine
 10
51.8075000339
 20
108.9330252477
 30
0.0
 11
51.8075000339
 21
119.4330252477
 31
0.0
  0
LINE
  5
5B
100
AcDbEntity
  8
LAYER0
 62
         3
100
AcDbLine
 10
67.8075000339
 20
106.4330252477
 30
0.0
 11
67.8075000339
 21
61.4330252477
 31
0.0
  0
LINE
  5
5C
100
AcDbEntity
  8
LAYER0
 62
         3
100
AcDbLine
 10
47.8075000339
 20
49.9330252477
 30
0.0
 11
47.8075000339
 21
117.9330252477
 31
0.0
  0
LINE
  5
5D
100
AcDbEntity
  8
LAYER3
 62
         4
100
AcDbLine
 10
9.3389150861
 20
61.8330252477
 30
0.0
 11
9.3389150861
 21
37.0770726304
 31
0.0
  0
LINE
  5
5E
100
AcDbEntity
  8
LAYER3
 62
         4
100
AcDbLine
 10
9.3389150861
 20
38.0770726304
 30
0.0
 11
6.4044722839
 21
37.453337558
 31
0.0
  0
LINE
  5
5F
100
AcDbEntity
  8
LAYER3
 62
         4
100
AcDbLine
 10
9.3389150861
 20
38.0770726304
 30
0.0
 11
6.4044722839
 21
38.7008077029
 31
0.0
  0
MTEXT
  5
60
100
AcDbEntity
  8
LAYER3
100
AcDbMText
 10
-11.8610849511
 20
41.8647313218
 30
0.0
 40
2.1473683357
 41
5.1292919922
 71
         1
 72
         1
  1
\W0.8;32.8
  0
LINE
  5
61
100
AcDbEntity
  8
LAYER3
 62
         4
100
AcDbLine
 10
-23.4610849884
 20
38.0770726304
 30
0.0
 11
-20.5266421862
 21
38.7008077029
 31
0.0
  0
LINE
  5
62
100
AcDbEntity
  8
LAYER3
 62
         4
100
AcDbLine
 10
-23.4610849884
 20
38.0770726304
 30
0.0
 11
-20.5266421862
 21
37.453337558
 31
0.0
  0
MTEXT
  5
63
100
AcDbEntity
  8
LAYER3
100
AcDbMText
 10
-63.2674095987
 20
79.133025173
 30
0.0
 40
2.1473683357
 41
5.1292919922
 71
         1
 72
         1
  1
\W0.8;74.8
 11
-0.0000000268
 21
1.0
 31
0.0
  0
LINE
  5
64
100
AcDbEntity
  8
LAYER3
 62
         4
100
AcDbLine
 10
-59.4797509073
 20
46.5330252477
 30
0.0
 11
-60.1034859797
 21
49.4674680499
 31
0.0
  0
LINE
  5
65
100
AcDbEntity
  8
LAYER3
 62
         4
100
AcDbLine
 10
-59.4797509073
 20
46.5330252477
 30
0.0
 11
-58.8560158348
 21
49.4674680499
 31
0.0
  0
MTEXT
  5
66
100
AcDbEntity
  8
LAYER0
100
AcDbMText
 10
25.9174363939
 20
-132.8866032766
 30
0.0
 40
2.4737683892
 41
23.6357781351
 71
         1
 72
         1
  1
\W0.8;片開きロック金具
  0
MTEXT
  5
67
100
AcDbEntity
  8
LAYER0
100
AcDbMText
 10
70.0823898377
 20
-133.1227062422
 30
0.0
 40
2.4737683892
 41
7.3861806672
 71
         1
 72
         1
  1
\W0.8;55363
  0
LINE
  5
68
100
AcDbEntity
  8
LAYER0
 62
         3
100
AcDbLine
 10
60.0
 20
-125.5
 30
0.0
 11
60.0
 21
-138.5
 31
0.0
  0
MTEXT
  5
69
100
AcDbEntity
  8
LAYER0
100
AcDbMText
 10
72.5158633528
 20
-126.7970201517
 30
0.0
 40
2.1473683357
 41
10.2585839844
 71
         1
 72
         1
  1
\W0.8;管理図番
  0
MTEXT
  5
6A
100
AcDbEntity
  8
LAYER0
100
AcDbMText
 10
32.0542682872
 20
-126.7970201517
 30
0.0
 40
2.1473683357
 41
7.6538653946
 71
         1
 72
         1
  1
\W0.8;品　名
  0
LINE
  5
6B
100
AcDbEntity
  8
LAYER0
 62
         3
100
AcDbLine
 10
10.0
 20
-138.5
 30
0.0
 11
10.0
 21
-125.5
 31
0.0
  0
LINE
  5
6C
100
AcDbEntity
  8
LAYER0
 62
         3
100
AcDbLine
 10
95.0
 20
-138.5
 30
0.0
 11
95.0
 21
-125.5
 31
0.0
  0
LINE
  5
6D
100
AcDbEntity
  8
LAYER0
 62
         4
100
AcDbLine
 10
6.3389150861
 20
-77.504228529
 30
0.0
 11
6.3389150861
 21
-117.3669745958
 31
0.0
  0
MTEXT
  5
6E
100
AcDbEntity
  8
LAYER0
100
AcDbMText
 10
17.2633761882
 20
-89.110665283
 30
0.0
 40
2.1473683357
 41
5.1292919922
 71
         1
 72
         1
  1
\W0.8;解除
  0
MTEXT
  5
6F
100
AcDbEntity
  8
LAYER0
100
AcDbMText
 10
16.502376012
 20
-47.2070278844
 30
0.0
 40
2.1473683357
 41
7.6939379883
 71
         1
 72
         1
  1
\W0.8;ロック
  0
LINE
  5
70
100
AcDbEntity
  8
LAYER0
100
AcDbLine
 10
10.0389151606
 20
-92.3805442903
 30
0.0
 11
12.2255677524
 21
-89.2628927869
 31
0.0
  0
LINE
  5
71
100
AcDbEntity
  8
LAYER0
100
AcDbLine
 10
10.0389151606
 20
-92.3805442903
 30
0.0
 11
13.7143811853
 21
-91.7039685657
 31
0.0
  0
LINE
  5
72
100
AcDbEntity
  8
LAYER0
100
AcDbLine
 10
10.0389151606
 20
-46.7534049014
 30
0.0
 11
12.2255677524
 21
-49.8710564048
 31
0.0
  0
LINE
  5
73
100
AcDbEntity
  8
LAYER0
100
AcDbLine
 10
10.0389151606
 20
-46.7534049014
 30
0.0
 11
13.7143811853
 21
-47.4299806259
 31
0.0
  0
ARC
  5
74
100
AcDbEntity
  8
LAYER0
100
AcDbCircle
 10
-2.6610849139
 20
-69.5669745958
 30
0.0
 40
26.1103229413
210
-0.0
220
0.0
230
1.0
100
AcDbArc
 50
299.1040831309
 51
60.8959168691
  0
LINE
  5
75
100
AcDbEntity
  8
LAYER0
 62
         6
100
AcDbLine
 10
7.3389150861
 20
-62.9337250151
 30
0.0
 11
7.3389150861
 21
-34.5669745958
 31
0.0
  0
LINE
  5
76
100
AcDbEntity
  8
LAYER0
 62
         5
100
AcDbLine
 10
2.6389150861
 20
62.7330252477
 30
0.0
 11
2.6389150861
 21
62.0330252477
 31
0.0
  0
LINE
  5
77
100
AcDbEntity
  8
LAYER0
 62
         5
100
AcDbLine
 10
2.6389150861
 20
105.1330252477
 30
0.0
 11
2.6389150861
 21
105.8330252477
 31
0.0
  0
ARC
  5
78
100
AcDbEntity
  8
LAYER0
 62
         6
100
AcDbCircle
 10
4.3389150861
 20
49.5330252477
 30
0.0
 40
3.0
210
-0.0
220
0.0
230
1.0
100
AcDbArc
 50
269.9999984648
 51
0.0
  0
LINE
  5
79
100
AcDbEntity
  8
LAYER0
 62
         6
100
AcDbLine
 10
-14.9610849884
 20
46.5330252477
 30
0.0
 11
-18.1610849884
 21
46.5330252477
 31
0.0
  0
LINE
  5
7A
100
AcDbEntity
  8
LAYER0
 62
         6
100
AcDbLine
 10
-12.6610849139
 20
62.8330252477
 30
0.0
 11
-14.9610849884
 21
62.8330252477
 31
0.0
  0
LINE
  5
7B
100
AcDbEntity
  8
LAYER0
 62
         6
100
AcDbLine
 10
-14.9610849884
 20
46.5330252477
 30
0.0
 11
-14.9610849884
 21
62.8330252477
 31
0.0
  0
INSERT
  5
7D
100
AcDbEntity
  8
0
100
AcDbBlockReference
  2
CLUMP0
 10
0.0
 20
0.0
 30
0.0
  0
ARC
  5
91
100
AcDbEntity
  8
LAYER0
 62
         6
100
AcDbCircle
 10
-14.9610849884
 20
105.0330252477
 30
0.0
 40
3.2
210
0.0
220
0.0
230
1.0
100
AcDbArc
 50
179.9999969295
 51
269.9999984648
  0
ARC
  5
92
100
AcDbEntity
  8
LAYER0
 62
         6
100
AcDbCircle
 10
-9.6610849139
 20
118.3330252477
 30
0.0
 40
3.0
210
0.0
220
0.0
230
1.0
100
AcDbArc
 50
90.0000015352
 51
179.9999969295
  0
LINE
  5
93
100
AcDbEntity
  8
LAYER0
 62
         6
100
AcDbLine
 10
-12.6610849139
 20
118.3330252477
 30
0.0
 11
-12.6610849139
 21
101.8330252477
 31
0.0
  0
LINE
  5
94
100
AcDbEntity
  8
LAYER0
 62
         6
100
AcDbLine
 10
-18.1610849884
 20
121.3330252477
 30
0.0
 11
-18.1610849884
 21
105.0330252477
 31
0.0
  0
LINE
  5
95
100
AcDbEntity
  8
LAYER0
 62
         6
100
AcDbLine
 10
-14.9610849884
 20
121.3330252477
 30
0.0
 11
-18.1610849884
 21
121.3330252477
 31
0.0
  0
LINE
  5
96
100
AcDbEntity
  8
LAYER0
 62
         6
100
AcDbLine
 10
-12.6610849139
 20
105.0330252477
 30
0.0
 11
-14.9610849884
 21
105.0330252477
 31
0.0
  0
LINE
  5
97
100
AcDbEntity
  8
LAYER0
 62
         6
100
AcDbLine
 10
-14.9610849884
 20
121.3330252477
 30
0.0
 11
-14.9610849884
 21
105.0330252477
 31
0.0
  0
LINE
  5
98
100
AcDbEntity
  8
LAYER3
 62
         4
100
AcDbLine
 10
-59.4797509073
 20
121.3330252477
 30
0.0
 11
-58.8560158348
 21
118.3985824455
 31
0.0
  0
LINE
  5
99
100
AcDbEntity
  8
LAYER3
 62
         4
100
AcDbLine
 10
-59.4797509073
 20
121.3330252477
 30
0.0
 11
-60.1034859797
 21
118.3985824455
 31
0.0
  0
LINE
  5
9A
100
AcDbEntity
  8
LAYER3
 62
         4
100
AcDbLine
 10
-59.4797509073
 20
121.3330252477
 30
0.0
 11
-59.4797509073
 21
46.5330252477
 31
0.0
  0
LINE
  5
9B
100
AcDbEntity
  8
LAYER3
 62
         4
100
AcDbLine
 10
-19.1610849884
 20
46.5330252477
 30
0.0
 11
-60.4797509073
 21
46.5330252477
 31
0.0
  0
LINE
  5
9C
100
AcDbEntity
  8
LAYER3
 62
         4
100
AcDbLine
 10
-19.1610849884
 20
121.3330252477
 30
0.0
 11
-60.4797509073
 21
121.3330252477
 31
0.0
  0
MTEXT
  5
9D
100
AcDbEntity
  8
LAYER3
100
AcDbMText
 10
-55.5590625185
 20
81.533025173
 30
0.0
 40
2.1473683357
 41
2.5646459961
 71
         1
 72
         1
  1
\W0.8;24
 11
-0.0000000268
 21
1.0
 31
0.0
  0
LINE
  5
9E
100
AcDbEntity
  8
LAYER3
 62
         4
100
AcDbLine
 10
-51.7714038271
 20
71.9330252477
 30
0.0
 11
-52.3951388996
 21
74.8674680499
 31
0.0
  0
LINE
  5
9F
100
AcDbEntity
  8
LAYER3
 62
         4
100
AcDbLine
 10
-51.7714038271
 20
71.9330252477
 30
0.0
 11
-51.1476687547
 21
74.8674680499
 31
0.0
  0
LINE
  5
A0
100
AcDbEntity
  8
LAYER3
 62
         4
100
AcDbLine
 10
-51.7714038271
 20
95.9330252477
 30
0.0
 11
-51.1476687547
 21
92.9985824455
 31
0.0
  0
LINE
  5
A1
100
AcDbEntity
  8
LAYER3
 62
         4
100
AcDbLine
 10
-51.7714038271
 20
95.9330252477
 30
0.0
 11
-52.3951388996
 21
92.9985824455
 31
0.0
  0
LINE
  5
A2
100
AcDbEntity
  8
LAYER3
 62
         4
100
AcDbLine
 10
-51.7714038271
 20
95.9330252477
 30
0.0
 11
-51.7714038271
 21
71.9330252477
 31
0.0
  0
LINE
  5
A3
100
AcDbEntity
  8
LAYER3
 62
         4
100
AcDbLine
 10
-45.0173278878
 20
71.9330252477
 30
0.0
 11
-52.7714038271
 21
71.9330252477
 31
0.0
  0
LINE
  5
A4
100
AcDbEntity
  8
LAYER3
 62
         4
100
AcDbLine
 10
-45.0954182608
 20
95.9330252477
 30
0.0
 11
-52.7714038271
 21
95.9330252477
 31
0.0
  0
INSERT
  5
A6
100
AcDbEntity
  8
0
100
AcDbBlockReference
  2
CLUMP2
 10
0.0
 20
0.0
 30
0.0
  0
LINE
  5
B9
100
AcDbEntity
  8
LAYER0
 62
         2
100
AcDbLine
 10
-41.1610849884
 20
95.9330252477
 30
0.0
 11
-40.8835168527
 21
96.0932792856
 31
0.0
  0
LINE
  5
BA
100
AcDbEntity
  8
LAYER0
 62
         2
100
AcDbLine
 10
-41.1610849884
 20
95.9330252477
 30
0.0
 11
-40.8835168527
 21
95.7727712099
 31
0.0
  0
LINE
  5
BB
100
AcDbEntity
  8
LAYER0
 62
         2
100
AcDbLine
 10
-23.4610849884
 20
97.4330252477
 30
0.0
 11
-35.8835168527
 21
97.4330252477
 31
0.0
  0
LINE
  5
BC
100
AcDbEntity
  8
LAYER0
 62
         2
100
AcDbLine
 10
-23.4610849884
 20
94.4330252477
 30
0.0
 11
-35.8835168527
 21
94.4330252477
 31
0.0
  0
LINE
  5
BD
100
AcDbEntity
  8
LAYER0
 62
         4
100
AcDbLine
 10
-23.4610849884
 20
97.1830252477
 30
0.0
 11
-38.1055654571
 21
97.1830252477
 31
0.0
  0
LINE
  5
BE
100
AcDbEntity
  8
LAYER0
 62
         4
100
AcDbLine
 10
-23.4610849884
 20
94.6830252477
 30
0.0
 11
-38.1055654571
 21
94.6830252477
 31
0.0
  0
LINE
  5
BF
100
AcDbEntity
  8
LAYER0
  6
CENTER
100
AcDbLine
 10
-19.6610849884
 20
71.9330252477
 30
0.0
 11
-44.0173278878
 21
71.9330252477
 31
0.0
  0
LINE
  5
C0
100
AcDbEntity
  8
LAYER0
  6
CENTER
100
AcDbLine
 10
-19.6610849884
 20
95.9330252477
 30
0.0
 11
-44.0954182608
 21
95.9330252477
 31
0.0
  0
ARC
  5
C1
100
AcDbEntity
  8
LAYER0
 62
         2
100
AcDbCircle
 10
-35.8835168527
 20
80.4330252477
 30
0.0
 40
10.0
210
0.0
220
0.0
230
1.0
100
AcDbArc
 50
239.999997953
 51
269.9999984648
  0
ARC
  5
C2
100
AcDbEntity
  8
LAYER0
 62
         2
100
AcDbCircle
 10
-35.8835168527
 20
63.4330252477
 30
0.0
 40
10.0
210
0.0
220
0.0
230
1.0
100
AcDbArc
 50
90.0000015352
 51
120.000002047
  0
LINE
  5
C3
100
AcDbEntity
  8
LAYER0
 62
         2
100
AcDbLine
 10
-41.1610849884
 20
71.9330252477
 30
0.0
 11
-40.8835168527
 21
72.0932792856
 31
0.0
  0
LINE
  5
C4
100
AcDbEntity
  8
LAYER0
 62
         2
100
AcDbLine
 10
-41.1610849884
 20
71.9330252477
 30
0.0
 11
-40.8835168527
 21
71.7727712099
 31
0.0
  0
LINE
  5
C5
100
AcDbEntity
  8
LAYER0
 62
         2
100
AcDbLine
 10
-23.4610849884
 20
73.4330252477
 30
0.0
 11
-35.8835168527
 21
73.4330252477
 31
0.0
  0
LINE
  5
C6
100
AcDbEntity
  8
LAYER0
 62
         2
100
AcDbLine
 10
-23.4610849884
 20
70.4330252477
 30
0.0
 11
-35.8835168527
 21
70.4330252477
 31
0.0
  0
LINE
  5
C7
100
AcDbEntity
  8
LAYER0
 62
         4
100
AcDbLine
 10
-23.4610849884
 20
73.1830252477
 30
0.0
 11
-38.1055654571
 21
73.1830252477
 31
0.0
  0
LINE
  5
C8
100
AcDbEntity
  8
LAYER0
 62
         4
100
AcDbLine
 10
-23.4610849884
 20
70.6830252477
 30
0.0
 11
-38.1055654571
 21
70.6830252477
 31
0.0
  0
LINE
  5
C9
100
AcDbEntity
  8
LAYER0
 62
         5
100
AcDbLine
 10
-5.1610849139
 20
105.0330252477
 30
0.0
 11
-5.1610849139
 21
105.1330252477
 31
0.0
  0
LINE
  5
CA
100
AcDbEntity
  8
LAYER0
 62
         5
100
AcDbLine
 10
-7.9610849139
 20
105.1330252477
 30
0.0
 11
-7.9610849139
 21
105.8330252477
 31
0.0
  0
LINE
  5
CB
100
AcDbEntity
  8
LAYER0
 62
         5
100
AcDbLine
 10
-2.6610849139
 20
108.5330252477
 30
0.0
 11
-2.6610849139
 21
106.7830252477
 31
0.0
  0
LINE
  5
CC
100
AcDbEntity
  8
LAYER0
 62
         5
100
AcDbLine
 10
-2.6610849139
 20
105.0330252477
 30
0.0
 11
-2.6610849139
 21
105.1330252477
 31
0.0
  0
LINE
  5
CD
100
AcDbEntity
  8
LAYER0
 62
         6
100
AcDbLine
 10
-2.6610849139
 20
101.8330252477
 30
0.0
 11
-6.6610849139
 21
101.8330252477
 31
0.0
  0
ARC
  5
CE
100
AcDbEntity
  8
LAYER0
 62
         6
100
AcDbCircle
 10
-14.9610849884
 20
62.8330252477
 30
0.0
 40
3.2
210
0.0
220
0.0
230
1.0
100
AcDbArc
 50
90.0000015352
 51
180.0000030705
  0
ARC
  5
CF
100
AcDbEntity
  8
LAYER0
 62
         6
100
AcDbCircle
 10
-9.6610849139
 20
49.5330252477
 30
0.0
 40
3.0
210
0.0
220
0.0
230
1.0
100
AcDbArc
 50
180.0000030705
 51
269.9999984648
  0
LINE
  5
D0
100
AcDbEntity
  8
LAYER0
 62
         6
100
AcDbLine
 10
-12.6610849139
 20
49.5330252477
 30
0.0
 11
-12.6610849139
 21
66.0330252477
 31
0.0
  0
LINE
  5
D1
100
AcDbEntity
  8
LAYER0
 62
         6
100
AcDbLine
 10
-18.1610849884
 20
46.5330252477
 30
0.0
 11
-18.1610849884
 21
62.8330252477
 31
0.0
  0
LINE
  5
D2
100
AcDbEntity
  8
LAYER0
 62
         5
100
AcDbLine
 10
-7.9610849139
 20
62.7330252477
 30
0.0
 11
-7.9610849139
 21
62.0330252477
 31
0.0
  0
LINE
  5
D3
100
AcDbEntity
  8
LAYER0
 62
         5
100
AcDbLine
 10
-2.6610849139
 20
59.3330252477
 30
0.0
 11
-2.6610849139
 21
61.0830252477
 31
0.0
  0
LINE
  5
D4
100
AcDbEntity
  8
LAYER0
 62
         5
100
AcDbLine
 10
-2.6610849139
 20
62.8330252477
 30
0.0
 11
-2.6610849139
 21
62.7330252477
 31
0.0
  0
LINE
  5
D5
100
AcDbEntity
  8
LAYER0
 62
         6
100
AcDbLine
 10
-2.6610849139
 20
66.0330252477
 30
0.0
 11
-6.6610849139
 21
66.0330252477
 31
0.0
  0
LINE
  5
D6
100
AcDbEntity
  8
LAYER0
 62
         5
100
AcDbLine
 10
-23.4610849884
 20
131.1330253222
 30
0.0
 11
-30.4610849884
 21
124.1330253222
 31
0.0
  0
LINE
  5
D7
100
AcDbEntity
  8
LAYER0
 62
         6
100
AcDbLine
 10
-23.4610849884
 20
36.7330251732
 30
0.0
 11
-23.4610849884
 21
131.1330253222
 31
0.0
  0
LINE
  5
D8
100
AcDbEntity
  8
LAYER0
 62
         6
100
AcDbLine
 10
-6.6610849139
 20
101.8330252477
 30
0.0
 11
-6.6610849139
 21
95.4330251881
 31
0.0
  0
LINE
  5
D9
100
AcDbEntity
  8
LAYER0
 62
         5
100
AcDbLine
 10
-23.4610849884
 20
10.9248725205
 30
0.0
 11
-30.4610849884
 21
3.9248725205
 31
0.0
  0
LINE
  5
DA
100
AcDbEntity
  8
LAYER0
 62
         5
100
AcDbLine
 10
-23.4610849884
 20
17.9959403324
 30
0.0
 11
-30.4610849884
 21
10.9959403324
 31
0.0
  0
LINE
  5
DB
100
AcDbEntity
  8
LAYER0
 62
         5
100
AcDbLine
 10
-23.4610849884
 20
25.0670081442
 30
0.0
 11
-30.4610849884
 21
18.0670081442
 31
0.0
  0
LINE
  5
DC
100
AcDbEntity
  8
LAYER0
 62
         5
100
AcDbLine
 10
-23.4610849884
 20
39.209143768
 30
0.0
 11
-25.9372035831
 21
36.7330251732
 31
0.0
  0
LINE
  5
DD
100
AcDbEntity
  8
LAYER0
 62
         5
100
AcDbLine
 10
-23.4610849884
 20
46.2802115798
 30
0.0
 11
-30.0769627655
 21
39.6643338028
 31
0.0
  0
LINE
  5
DE
100
AcDbEntity
  8
LAYER0
 62
         5
100
AcDbLine
 10
-23.4610849884
 20
53.3512793917
 30
0.0
 11
-30.4610849884
 21
46.3512793917
 31
0.0
  0
LINE
  5
DF
100
AcDbEntity
  8
LAYER0
 62
         5
100
AcDbLine
 10
-23.4610849884
 20
60.4223472036
 30
0.0
 11
-30.4610849884
 21
53.4223472036
 31
0.0
  0
LINE
  5
E0
100
AcDbEntity
  8
LAYER0
 62
         5
100
AcDbLine
 10
-23.4610849884
 20
67.4934150154
 30
0.0
 11
-30.4610849884
 21
60.4934150154
 31
0.0
  0
LINE
  5
E1
100
AcDbEntity
  8
LAYER0
 62
         5
100
AcDbLine
 10
-23.4610849884
 20
74.5644828273
 30
0.0
 11
-30.4610849884
 21
67.5644828273
 31
0.0
  0
LINE
  5
E2
100
AcDbEntity
  8
LAYER0
 62
         5
100
AcDbLine
 10
-23.4610849884
 20
81.6355506391
 30
0.0
 11
-30.4610849884
 21
74.6355506391
 31
0.0
  0
LINE
  5
E3
100
AcDbEntity
  8
LAYER0
 62
         5
100
AcDbLine
 10
-30.4610849884
 20
81.706618451
 30
0.0
 11
-23.4610849884
 21
88.706618451
 31
0.0
  0
LINE
  5
E4
100
AcDbEntity
  8
LAYER0
 62
         5
100
AcDbLine
 10
-23.4610849884
 20
95.7776862629
 30
0.0
 11
-30.4610849884
 21
88.7776862629
 31
0.0
  0
LINE
  5
E5
100
AcDbEntity
  8
LAYER0
 62
         5
100
AcDbLine
 10
-23.4610849884
 20
102.8487540747
 30
0.0
 11
-30.0769627655
 21
96.2328762977
 31
0.0
  0
LINE
  5
E6
100
AcDbEntity
  8
LAYER0
 62
         5
100
AcDbLine
 10
-23.4610849884
 20
109.9198218866
 30
0.0
 11
-30.4610849884
 21
102.9198218866
 31
0.0
  0
LINE
  5
E7
100
AcDbEntity
  8
LAYER0
 62
         5
100
AcDbLine
 10
-23.4610849884
 20
116.9908896985
 30
0.0
 11
-30.4610849884
 21
109.9908896985
 31
0.0
  0
LINE
  5
E8
100
AcDbEntity
  8
LAYER0
 62
         5
100
AcDbLine
 10
-23.4610849884
 20
124.0619575103
 30
0.0
 11
-30.4610849884
 21
117.0619575103
 31
0.0
  0
ARC
  5
E9
100
AcDbEntity
  8
LAYER0
 62
         2
100
AcDbCircle
 10
-35.8835168527
 20
104.4330252477
 30
0.0
 40
10.0
210
0.0
220
0.0
230
1.0
100
AcDbArc
 50
239.999997953
 51
269.9999984648
  0
ARC
  5
EA
100
AcDbEntity
  8
LAYER0
 62
         2
100
AcDbCircle
 10
-35.8835168527
 20
87.4330252477
 30
0.0
 40
10.0
210
0.0
220
0.0
230
1.0
100
AcDbArc
 50
90.0000015352
 51
120.000002047
  0
LINE
  5
EB
100
AcDbEntity
  8
LAYER3
 62
         4
100
AcDbLine
 10
-21.1610849884
 20
-82.8669745958
 30
0.0
 11
-50.8176119106
 21
-82.8669745958
 31
0.0
  0
MTEXT
  5
EC
100
AcDbEntity
  8
LAYER3
100
AcDbMText
 10
-53.0477389163
 20
-53.9869746556
 30
0.0
 40
1.7178947091
 41
2.0517168453
 71
         1
 72
         1
  1
\W0.8;35
 11
-0.0000000268
 21
1.0
 31
0.0
  0
LINE
  5
ED
100
AcDbEntity
  8
LAYER3
 62
         4
100
AcDbLine
 10
-49.8176119106
 20
-34.5669745958
 30
0.0
 11
-49.1938768381
 21
-37.501417398
 31
0.0
  0
LINE
  5
EE
100
AcDbEntity
  8
LAYER3
 62
         4
100
AcDbLine
 10
-49.8176119106
 20
-34.5669745958
 30
0.0
 11
-50.441346983
 21
-37.501417398
 31
0.0
  0
LINE
  5
EF
100
AcDbEntity
  8
LAYER3
 62
         4
100
AcDbLine
 10
-49.8176119106
 20
-69.5669745958
 30
0.0
 11
-50.441346983
 21
-66.6325317936
 31
0.0
  0
LINE
  5
F0
100
AcDbEntity
  8
LAYER3
 62
         4
100
AcDbLine
 10
-49.8176119106
 20
-69.5669745958
 30
0.0
 11
-49.1938768381
 21
-66.6325317936
 31
0.0
  0
LINE
  5
F1
100
AcDbEntity
  8
LAYER3
 62
         4
100
AcDbLine
 10
-49.8176119106
 20
-69.5669745958
 30
0.0
 11
-49.8176119106
 21
-34.5669745958
 31
0.0
  0
LINE
  5
F2
100
AcDbEntity
  8
LAYER3
 62
         4
100
AcDbLine
 10
-13.6610849139
 20
-34.5669745958
 30
0.0
 11
-50.8176119106
 21
-34.5669745958
 31
0.0
  0
LINE
  5
F3
100
AcDbEntity
  8
LAYER3
 62
         4
100
AcDbLine
 10
-44.6622026202
 20
-69.5669745958
 30
0.0
 11
-50.8176119106
 21
-69.5669745958
 31
0.0
  0
MTEXT
  5
F4
100
AcDbEntity
  8
LAYER3
100
AcDbMText
 10
-53.0477389163
 20
-80.0569746556
 30
0.0
 40
1.7178947091
 41
4.1034336906
 71
         1
 72
         1
  1
\W0.8;13.3
 11
-0.0000000268
 21
1.0
 31
0.0
  0
LINE
  5
F5
100
AcDbEntity
  8
LAYER3
 62
         4
100
AcDbLine
 10
-49.8176119106
 20
-82.8669745958
 30
0.0
 11
-50.441346983
 21
-79.9325317936
 31
0.0
  0
LINE
  5
F6
100
AcDbEntity
  8
LAYER3
 62
         4
100
AcDbLine
 10
-49.8176119106
 20
-82.8669745958
 30
0.0
 11
-49.1938768381
 21
-79.9325317936
 31
0.0
  0
LINE
  5
F7
100
AcDbEntity
  8
LAYER3
 62
         4
100
AcDbLine
 10
-43.0515446583
 20
-69.5669745958
 30
0.0
 11
-42.4278095858
 21
-72.501417398
 31
0.0
  0
LINE
  5
F8
100
AcDbEntity
  8
LAYER3
 62
         4
100
AcDbLine
 10
-43.0515446583
 20
-69.5669745958
 30
0.0
 11
-43.6752797307
 21
-72.501417398
 31
0.0
  0
LINE
  5
F9
100
AcDbEntity
  8
LAYER3
 62
         4
100
AcDbLine
 10
-43.0515446583
 20
-74.5669745958
 30
0.0
 11
-43.0515446583
 21
-69.5669745958
 31
0.0
  0
LINE
  5
FA
100
AcDbEntity
  8
LAYER3
 62
         4
100
AcDbLine
 10
-43.0515446583
 20
-66.5669745958
 30
0.0
 11
-43.6752797307
 21
-63.6325317936
 31
0.0
  0
LINE
  5
FB
100
AcDbEntity
  8
LAYER3
 62
         4
100
AcDbLine
 10
-43.0515446583
 20
-66.5669745958
 30
0.0
 11
-42.4278095858
 21
-63.6325317936
 31
0.0
  0
LINE
  5
FC
100
AcDbEntity
  8
LAYER3
 62
         4
100
AcDbLine
 10
-43.0515446583
 20
-59.6469745958
 30
0.0
 11
-43.0515446583
 21
-66.5669745958
 31
0.0
  0
MTEXT
  5
FD
100
AcDbEntity
  8
LAYER3
100
AcDbMText
 10
-46.281671664
 20
-62.5669746556
 30
0.0
 40
1.7178947091
 41
1.0258584226
 71
         1
 72
         1
  1
\W0.8;3
 11
-0.0000000268
 21
1.0
 31
0.0
  0
LINE
  5
FE
100
AcDbEntity
  8
LAYER3
 62
         4
100
AcDbLine
 10
-43.0515446583
 20
-69.5669745958
 30
0.0
 11
-43.0515446583
 21
-66.5669745958
 31
0.0
  0
MTEXT
  5
FF
100
AcDbEntity
  8
LAYER3
100
AcDbMText
 10
-62.2057659548
 20
-71.4869746556
 30
0.0
 40
1.7178947091
 41
2.0517168453
 71
         1
 72
         1
  1
\W0.8;70
 11
-0.0000000268
 21
1.0
 31
0.0
  0
LINE
  5
100
100
AcDbEntity
  8
LAYER3
 62
         4
100
AcDbLine
 10
-58.9756389491
 20
-104.5669745958
 30
0.0
 11
-59.5993740215
 21
-101.6325317936
 31
0.0
  0
LINE
  5
101
100
AcDbEntity
  8
LAYER0
 62
         6
100
AcDbLine
 10
-6.6610849139
 20
73.4330254712
 30
0.0
 11
-6.6610849139
 21
94.4330250242
 31
0.0
  0
LINE
  5
102
100
AcDbEntity
  8
LAYER0
 62
         6
100
AcDbLine
 10
-6.6610849139
 20
66.0330252477
 30
0.0
 11
-6.6610849139
 21
72.4330253073
 31
0.0
  0
LINE
  5
103
100
AcDbEntity
  8
LAYER0
 62
         5
100
AcDbLine
 10
-5.1610849139
 20
62.8330252477
 30
0.0
 11
-5.1610849139
 21
62.7330252477
 31
0.0
  0
LINE
  5
104
100
AcDbEntity
  8
LAYER0
 62
         6
100
AcDbLine
 10
-18.1610849884
 20
-59.5669745958
 30
0.0
 11
-18.1610849884
 21
-79.5669745958
 31
0.0
  0
LINE
  5
105
100
AcDbEntity
  8
LAYER0
 62
         6
100
AcDbLine
 10
-18.1610849884
 20
-59.5669745958
 30
0.0
 11
-13.6610849139
 21
-59.5669745958
 31
0.0
  0
LINE
  5
106
100
AcDbEntity
  8
LAYER0
  6
CENTER
100
AcDbLine
 10
-19.6610849884
 20
-66.5669745958
 30
0.0
 11
-44.8624487925
 21
-66.5669745958
 31
0.0
  0
LINE
  5
107
100
AcDbEntity
  8
LAYER0
 62
         5
100
AcDbLine
 10
-22.9110849884
 20
-68.0669745958
 30
0.0
 11
-23.4610849884
 21
-68.0669745958
 31
0.0
  0
LINE
  5
108
100
AcDbEntity
  8
LAYER0
 62
         5
100
AcDbLine
 10
-22.9110849884
 20
-65.0669745958
 30
0.0
 11
-23.4610849884
 21
-65.0669745958
 31
0.0
  0
LINE
  5
109
100
AcDbEntity
  8
LAYER3
 62
         4
100
AcDbLine
 10
-49.8176119106
 20
-69.5669745958
 30
0.0
 11
-49.1938768381
 21
-72.501417398
 31
0.0
  0
LINE
  5
10A
100
AcDbEntity
  8
LAYER3
 62
         4
100
AcDbLine
 10
-49.8176119106
 20
-69.5669745958
 30
0.0
 11
-50.441346983
 21
-72.501417398
 31
0.0
  0
LINE
  5
10B
100
AcDbEntity
  8
LAYER3
 62
         4
100
AcDbLine
 10
-49.8176119106
 20
-69.5669745958
 30
0.0
 11
-49.8176119106
 21
-82.8669745958
 31
0.0
  0
LINE
  5
10C
100
AcDbEntity
  8
LAYER3
 62
         4
100
AcDbLine
 10
-21.1610849884
 20
-82.8669745958
 30
0.0
 11
-50.8176119106
 21
-82.8669745958
 31
0.0
  0
LINE
  5
10D
100
AcDbEntity
  8
LAYER3
 62
         4
100
AcDbLine
 10
-44.6622026202
 20
-69.5669745958
 30
0.0
 11
-50.8176119106
 21
-69.5669745958
 31
0.0
  0
INSERT
  5
10F
100
AcDbEntity
  8
0
100
AcDbBlockReference
  2
CLUMP4
 10
0.0
 20
0.0
 30
0.0
  0
LINE
  5
123
100
AcDbEntity
  8
LAYER0
 62
         3
100
AcDbLine
 10
-12.6610849139
 20
-60.5669745958
 30
0.0
 11
-10.3610850629
 21
-60.5669745958
 31
0.0
  0
LINE
  5
124
100
AcDbEntity
  8
LAYER3
 62
         4
100
AcDbLine
 10
-58.9756389491
 20
-104.5669745958
 30
0.0
 11
-58.3519038766
 21
-101.6325317936
 31
0.0
  0
LINE
  5
125
100
AcDbEntity
  8
LAYER3
 62
         4
100
AcDbLine
 10
-58.9756389491
 20
-34.5669745958
 30
0.0
 11
-58.3519038766
 21
-37.501417398
 31
0.0
  0
LINE
  5
126
100
AcDbEntity
  8
LAYER3
 62
         4
100
AcDbLine
 10
-58.9756389491
 20
-34.5669745958
 30
0.0
 11
-59.5993740215
 21
-37.501417398
 31
0.0
  0
LINE
  5
127
100
AcDbEntity
  8
LAYER3
 62
         4
100
AcDbLine
 10
-58.9756389491
 20
-34.5669745958
 30
0.0
 11
-58.9756389491
 21
-104.5669745958
 31
0.0
  0
LINE
  5
128
100
AcDbEntity
  8
LAYER3
 62
         4
100
AcDbLine
 10
-50.8176119106
 20
-104.5669745958
 30
0.0
 11
-59.9756389491
 21
-104.5669745958
 31
0.0
  0
LINE
  5
129
100
AcDbEntity
  8
LAYER3
 62
         4
100
AcDbLine
 10
-50.8176119106
 20
-34.5669745958
 30
0.0
 11
-59.9756389491
 21
-34.5669745958
 31
0.0
  0
MTEXT
  5
12A
100
AcDbEntity
  8
LAYER3
100
AcDbMText
 10
-53.0477389163
 20
-97.5569746556
 30
0.0
 40
1.7178947091
 41
4.1034336906
 71
         1
 72
         1
  1
\W0.8;21.7
 11
-0.0000000268
 21
1.0
 31
0.0
  0
LINE
  5
12B
100
AcDbEntity
  8
LAYER3
 62
         4
100
AcDbLine
 10
-49.8176119106
 20
-104.5669745958
 30
0.0
 11
-50.441346983
 21
-101.6325317936
 31
0.0
  0
LINE
  5
12C
100
AcDbEntity
  8
LAYER3
 62
         4
100
AcDbLine
 10
-49.8176119106
 20
-104.5669745958
 30
0.0
 11
-49.1938768381
 21
-101.6325317936
 31
0.0
  0
LINE
  5
12D
100
AcDbEntity
  8
LAYER3
 62
         4
100
AcDbLine
 10
-49.8176119106
 20
-82.8669745958
 30
0.0
 11
-49.1938768381
 21
-85.801417398
 31
0.0
  0
LINE
  5
12E
100
AcDbEntity
  8
LAYER3
 62
         4
100
AcDbLine
 10
-49.8176119106
 20
-82.8669745958
 30
0.0
 11
-50.441346983
 21
-85.801417398
 31
0.0
  0
LINE
  5
12F
100
AcDbEntity
  8
LAYER3
 62
         4
100
AcDbLine
 10
-49.8176119106
 20
-82.8669745958
 30
0.0
 11
-49.8176119106
 21
-104.5669745958
 31
0.0
  0
LINE
  5
130
100
AcDbEntity
  8
LAYER3
 62
         4
100
AcDbLine
 10
-13.6610849139
 20
-104.5669745958
 30
0.0
 11
-50.8176119106
 21
-104.5669745958
 31
0.0
  0
LINE
  5
131
100
AcDbEntity
  8
LAYER0
 62
         3
100
AcDbLine
 10
-12.6610849139
 20
-60.5669745958
 30
0.0
 11
-12.6610849139
 21
-79.5669745958
 31
0.0
  0
LINE
  5
132
100
AcDbEntity
  8
LAYER0
 62
         3
100
AcDbLine
 10
-10.3610850629
 20
-60.5669745958
 30
0.0
 11
-10.3610850629
 21
-79.5669745958
 31
0.0
  0
LINE
  5
133
100
AcDbEntity
  8
LAYER0
 62
         3
100
AcDbLine
 10
-21.1610849884
 20
-56.5669745958
 30
0.0
 11
-21.1610849884
 21
-79.5669745958
 31
0.0
  0
LINE
  5
134
100
AcDbEntity
  8
LAYER0
 62
         3
100
AcDbLine
 10
-23.4610849884
 20
-56.5669745958
 30
0.0
 11
-23.4610849884
 21
-79.5669745958
 31
0.0
  0
LINE
  5
135
100
AcDbEntity
  8
LAYER0
 62
         5
100
AcDbLine
 10
-23.4610849884
 20
-52.7147377863
 30
0.0
 11
-30.4610849884
 21
-59.7147377863
 31
0.0
  0
LINE
  5
136
100
AcDbEntity
  8
LAYER0
 62
         5
100
AcDbLine
 10
-23.4610849884
 20
-45.6436699744
 30
0.0
 11
-30.4610849884
 21
-52.6436699744
 31
0.0
  0
LINE
  5
137
100
AcDbEntity
  8
LAYER0
 62
         5
100
AcDbLine
 10
-23.4610849884
 20
-38.5726021626
 30
0.0
 11
-30.4610849884
 21
-45.5726021626
 31
0.0
  0
LINE
  5
138
100
AcDbEntity
  8
LAYER0
 62
         5
100
AcDbLine
 10
-23.4610849884
 20
-31.5015343507
 30
0.0
 11
-30.4610849884
 21
-38.5015343507
 31
0.0
  0
LINE
  5
139
100
AcDbEntity
  8
LAYER0
 62
         5
100
AcDbLine
 10
-30.4610849884
 20
-31.4304665388
 30
0.0
 11
-23.4610849884
 21
-24.4304665388
 31
0.0
  0
LINE
  5
13A
100
AcDbEntity
  8
LAYER0
 62
         5
100
AcDbLine
 10
-23.4610849884
 20
-17.359398727
 30
0.0
 11
-30.4610849884
 21
-24.359398727
 31
0.0
  0
LINE
  5
13B
100
AcDbEntity
  8
LAYER0
 62
         5
100
AcDbLine
 10
-23.4610849884
 20
-10.2883309151
 30
0.0
 11
-30.0769627655
 21
-16.9042086922
 31
0.0
  0
LINE
  5
13C
100
AcDbEntity
  8
LAYER0
 62
         5
100
AcDbLine
 10
-23.4610849884
 20
-3.2172631032
 30
0.0
 11
-30.4610849884
 21
-10.2172631032
 31
0.0
  0
LINE
  5
13D
100
AcDbEntity
  8
LAYER0
 62
         5
100
AcDbLine
 10
-23.4610849884
 20
-109.2832802812
 30
0.0
 11
-30.4610849884
 21
-116.2832802812
 31
0.0
  0
LINE
  5
13E
100
AcDbEntity
  8
LAYER0
 62
         5
100
AcDbLine
 10
-23.4610849884
 20
-102.2122124694
 30
0.0
 11
-30.4610849884
 21
-109.2122124694
 31
0.0
  0
LINE
  5
13F
100
AcDbEntity
  8
LAYER0
 62
         5
100
AcDbLine
 10
-23.4610849884
 20
-95.1411446575
 30
0.0
 11
-30.4610849884
 21
-102.1411446575
 31
0.0
  0
LINE
  5
140
100
AcDbEntity
  8
LAYER0
 62
         5
100
AcDbLine
 10
-23.4610849884
 20
-88.0700768456
 30
0.0
 11
-30.4610849884
 21
-95.0700768456
 31
0.0
  0
LINE
  5
141
100
AcDbEntity
  8
LAYER0
 62
         5
100
AcDbLine
 10
-30.4610849884
 20
-87.9990090338
 30
0.0
 11
-23.4610849884
 21
-80.9990090338
 31
0.0
  0
LINE
  5
142
100
AcDbEntity
  8
LAYER0
 62
         5
100
AcDbLine
 10
-23.4610849884
 20
-73.9279412219
 30
0.0
 11
-30.4610849884
 21
-80.9279412219
 31
0.0
  0
LINE
  5
143
100
AcDbEntity
  8
LAYER0
 62
         5
100
AcDbLine
 10
-23.4610849884
 20
-66.85687341
 30
0.0
 11
-30.0769627655
 21
-73.4727511871
 31
0.0
  0
LINE
  5
144
100
AcDbEntity
  8
LAYER0
 62
         5
100
AcDbLine
 10
-23.4610849884
 20
-59.7858055982
 30
0.0
 11
-30.4610849884
 21
-66.7858055982
 31
0.0
  0
LINE
  5
145
100
AcDbEntity
  8
LAYER0
 62
         6
100
AcDbLine
 10
-12.6610849139
 20
-79.5669745958
 30
0.0
 11
-18.1610849884
 21
-79.5669745958
 31
0.0
  0
LINE
  5
146
100
AcDbEntity
  8
LAYER0
 62
         6
100
AcDbLine
 10
-9.2943344946
 20
-79.5669745958
 30
0.0
 11
-10.3610850629
 21
-79.5669745958
 31
0.0
  0
ARC
  5
147
100
AcDbEntity
  8
LAYER0
 62
         6
100
AcDbCircle
 10
-13.6610849139
 20
-58.5669745958
 30
0.0
 40
1.0
210
-0.0
220
0.0
230
1.0
100
AcDbArc
 50
269.9999984648
 51
0.0
  0
LINE
  5
148
100
AcDbEntity
  8
LAYER0
 62
         6
100
AcDbLine
 10
-12.6610849139
 20
-58.5669745958
 30
0.0
 11
-12.6610849139
 21
-34.5669745958
 31
0.0
  0
LINE
  5
149
100
AcDbEntity
  8
LAYER0
 62
         6
100
AcDbLine
 10
-14.9610849884
 20
-59.5669745958
 30
0.0
 11
-14.9610849884
 21
-79.5669745958
 31
0.0
  0
LINE
  5
14A
100
AcDbEntity
  8
LAYER0
 62
         2
100
AcDbLine
 10
-3.1610849139
 20
-69.0669745958
 30
0.0
 11
-3.1610849139
 21
-66.8119791331
 31
0.0
  0
LINE
  5
14B
100
AcDbEntity
  8
LAYER0
 62
         2
100
AcDbLine
 10
-3.1610849139
 20
-72.3219700586
 30
0.0
 11
-3.1610849139
 21
-70.0669745958
 31
0.0
  0
LINE
  5
14C
100
AcDbEntity
  8
LAYER0
 62
         2
100
AcDbLine
 10
-2.1610849139
 20
-70.0669745958
 30
0.0
 11
-2.1610849139
 21
-72.3219700586
 31
0.0
  0
LINE
  5
14D
100
AcDbEntity
  8
LAYER0
 62
         2
100
AcDbLine
 10
-2.1610849139
 20
-66.8119791331
 30
0.0
 11
-2.1610849139
 21
-69.0669745958
 31
0.0
  0
LINE
  5
14E
100
AcDbEntity
  8
LAYER0
  6
CENTER
100
AcDbLine
 10
-2.6610849139
 20
-59.5669745958
 30
0.0
 11
-2.6610849139
 21
-79.5669745958
 31
0.0
  0
MTEXT
  5
14F
100
AcDbEntity
  8
LAYER0
100
AcDbMText
 10
-13.9221737419
 20
-132.5157576176
 30
0.0
 40
3.0922104359
 41
7.3861805462
 71
         1
 72
         1
  1
\W0.8;MR-9
  0
MTEXT
  5
150
100
AcDbEntity
  8
LAYER0
100
AcDbMText
 10
-35.7051459079
 20
-126.6461242782
 30
0.0
 40
2.1473683357
 41
6.4116149902
 71
         1
 72
         1
  1
\W0.8;Ｎｏ.
  0
LINE
  5
151
100
AcDbEntity
  8
LAYER0
 62
         3
100
AcDbLine
 10
-25.0
 20
-125.5
 30
0.0
 11
-25.0
 21
-138.5
 31
0.0
  0
MTEXT
  5
152
100
AcDbEntity
  8
LAYER0
100
AcDbMText
 10
-10.6564309049
 20
-126.7970201517
 30
0.0
 40
2.1473683357
 41
7.6538653946
 71
         1
 72
         1
  1
\W0.8;品　番
  0
LINE
  5
153
100
AcDbEntity
  8
LAYER0
 62
         3
100
AcDbLine
 10
-40.0
 20
-138.5
 30
0.0
 11
-40.0
 21
-125.5
 31
0.0
  0
LINE
  5
154
100
AcDbEntity
  8
LAYER0
 62
         4
100
AcDbLine
 10
-20.1610849884
 20
-82.8669745958
 30
0.0
 11
-20.1610849884
 21
-117.3669745958
 31
0.0
  0
LINE
  5
155
100
AcDbEntity
  8
LAYER0
 62
         4
100
AcDbLine
 10
-11.6610849139
 20
-82.191855432
 30
0.0
 11
-11.6610849139
 21
-117.3669745958
 31
0.0
  0
ARC
  5
156
100
AcDbEntity
  8
LAYER0
 62
         2
100
AcDbCircle
 10
-2.6610849139
 20
-69.5669745958
 30
0.0
 40
2.8
210
0.0
220
0.0
230
1.0
100
AcDbArc
 50
259.7134376778
 51
280.2865592517
  0
ARC
  5
157
100
AcDbEntity
  8
LAYER0
 62
         2
100
AcDbCircle
 10
-2.6610849139
 20
-69.5669745958
 30
0.0
 40
2.8
210
0.0
220
0.0
230
1.0
100
AcDbArc
 50
169.7134422835
 51
190.2865577165
  0
ARC
  5
158
100
AcDbEntity
  8
LAYER0
 62
         2
100
AcDbCircle
 10
-2.6610849139
 20
-69.5669745958
 30
0.0
 40
2.8
210
0.0
220
-0.0
230
1.0
100
AcDbArc
 50
79.7134407483
 51
100.2865623222
  0
LINE
  5
159
100
AcDbEntity
  8
LAYER0
 62
         2
100
AcDbLine
 10
-5.4160803767
 20
-70.0669745958
 30
0.0
 11
-3.1610849139
 21
-70.0669745958
 31
0.0
  0
LINE
  5
15A
100
AcDbEntity
  8
LAYER0
 62
         4
100
AcDbLine
 10
-2.6610849139
 20
-81.5669745958
 30
0.0
 11
-2.6610849139
 21
-117.3669745958
 31
0.0
  0
LINE
  5
15B
100
AcDbEntity
  8
LAYER0
 62
         4
100
AcDbLine
 10
-3.2610849139
 20
-81.5519652091
 30
0.0
 11
-3.2610849139
 21
-117.3669745958
 31
0.0
  0
ARC
  5
15C
100
AcDbEntity
  8
LAYER0
 62
         3
100
AcDbCircle
 10
-20.1610849884
 20
-79.5669745958
 30
0.0
 40
3.3
210
0.0
220
0.0
230
1.0
100
AcDbArc
 50
180.0000030705
 51
269.9999984648
  0
ARC
  5
15D
100
AcDbEntity
  8
LAYER0
 62
         3
100
AcDbCircle
 10
-13.6610850629
 20
-79.5669745958
 30
0.0
 40
3.3
210
-0.0
220
0.0
230
1.0
100
AcDbArc
 50
269.9999984648
 51
0.0
  0
ARC
  5
15E
100
AcDbEntity
  8
LAYER0
 62
         3
100
AcDbCircle
 10
-13.6610849139
 20
-79.5669745958
 30
0.0
 40
1.0
210
-0.0
220
0.0
230
1.0
100
AcDbArc
 50
269.9999984648
 51
0.0
  0
ARC
  5
15F
100
AcDbEntity
  8
LAYER0
 62
         3
100
AcDbCircle
 10
-20.1610849884
 20
-79.5669745958
 30
0.0
 40
1.0
210
0.0
220
0.0
230
1.0
100
AcDbArc
 50
180.0000030705
 51
269.9999984648
  0
LINE
  5
160
100
AcDbEntity
  8
LAYER0
 62
         3
100
AcDbLine
 10
-21.1610849884
 20
-56.5669745958
 30
0.0
 11
-23.4610849884
 21
-56.5669745958
 31
0.0
  0
LINE
  5
161
100
AcDbEntity
  8
LAYER0
 62
         3
100
AcDbLine
 10
-20.1610849884
 20
-82.8669745958
 30
0.0
 11
-13.6610850629
 21
-82.8669745958
 31
0.0
  0
LINE
  5
162
100
AcDbEntity
  8
LAYER0
 62
         3
100
AcDbLine
 10
-13.6610849139
 20
-80.5669745958
 30
0.0
 11
-20.1610849884
 21
-80.5669745958
 31
0.0
  0
LINE
  5
163
100
AcDbEntity
  8
LAYER0
 62
         5
100
AcDbLine
 10
1.3389150861
 20
105.0330252477
 30
0.0
 11
1.3389150861
 21
105.1330252477
 31
0.0
  0
ARC
  5
164
100
AcDbEntity
  8
LAYER0
 62
         5
100
AcDbCircle
 10
-2.6610849139
 20
101.9811733959
 30
0.0
 40
6.5518518519
210
0.0
220
-0.0
230
1.0
100
AcDbArc
 50
36.0083238261
 51
143.9916792444
  0
LINE
  5
165
100
AcDbEntity
  8
LAYER0
 62
         5
100
AcDbLine
 10
-7.9610849139
 20
105.8330252477
 30
0.0
 11
2.6389150861
 21
105.8330252477
 31
0.0
  0
LINE
  5
166
100
AcDbEntity
  8
LAYER0
 62
         5
100
AcDbLine
 10
2.6389150861
 20
105.1330252477
 30
0.0
 11
-7.9610849139
 21
105.1330252477
 31
0.0
  0
LINE
  5
167
100
AcDbEntity
  8
LAYER0
 62
         5
100
AcDbLine
 10
1.3389150861
 20
105.1330252477
 30
0.0
 11
-2.6610849139
 21
105.1330252477
 31
0.0
  0
LINE
  5
168
100
AcDbEntity
  8
LAYER0
 62
         5
100
AcDbLine
 10
7.3389150861
 20
62.8330252477
 30
0.0
 11
-12.6610849139
 21
62.8330252477
 31
0.0
  0
LINE
  5
169
100
AcDbEntity
  8
LAYER0
 62
         6
100
AcDbLine
 10
-9.6610849139
 20
46.5330252477
 30
0.0
 11
4.3389150861
 21
46.5330252477
 31
0.0
  0
LINE
  5
16A
100
AcDbEntity
  8
LAYER0
 62
         6
100
AcDbLine
 10
9.3389150861
 20
66.0330252477
 30
0.0
 11
-14.9610849884
 21
66.0330252477
 31
0.0
  0
INSERT
  5
16C
100
AcDbEntity
  8
0
100
AcDbBlockReference
  2
CLUMP6
 10
0.0
 20
0.0
 30
0.0
  0
INSERT
  5
17C
100
AcDbEntity
  8
0
100
AcDbBlockReference
  2
CLUMP8
 10
0.0
 20
0.0
 30
0.0
  0
LINE
  5
188
100
AcDbEntity
  8
LAYER0
 62
         5
100
AcDbLine
 10
7.3389150861
 20
105.0330252477
 30
0.0
 11
-12.6610849139
 21
105.0330252477
 31
0.0
  0
LINE
  5
189
100
AcDbEntity
  8
LAYER0
 62
         6
100
AcDbLine
 10
-9.6610849139
 20
121.3330252477
 30
0.0
 11
4.3389150861
 21
121.3330252477
 31
0.0
  0
LINE
  5
18A
100
AcDbEntity
  8
LAYER0
 62
         6
100
AcDbLine
 10
9.3389150861
 20
101.8330252477
 30
0.0
 11
-14.9610849884
 21
101.8330252477
 31
0.0
  0
LINE
  5
18B
100
AcDbEntity
  8
LAYER0
 62
         6
100
AcDbLine
 10
7.3389150861
 20
103.8330252477
 30
0.0
 11
-12.6610849139
 21
103.8330252477
 31
0.0
  0
INSERT
  5
18D
100
AcDbEntity
  8
0
100
AcDbBlockReference
  2
CLUMP10
 10
0.0
 20
0.0
 30
0.0
  0
LINE
  5
20C
100
AcDbEntity
  8
LAYER3
 62
         4
100
AcDbLine
 10
9.3389150861
 20
38.0770726304
 30
0.0
 11
-23.4610849884
 21
38.0770726304
 31
0.0
  0
LINE
  5
20D
100
AcDbEntity
  8
LAYER0
 62
         4
100
AcDbLine
 10
-20.1610849884
 20
15.4330254042
 30
0.0
 11
-20.1610849884
 21
-80.5669745958
 31
0.0
  0
LINE
  5
20E
100
AcDbEntity
  8
LAYER0
 62
         4
100
AcDbLine
 10
-11.6610849139
 20
15.4330254042
 30
0.0
 11
-11.6610849139
 21
-34.5669745958
 31
0.0
  0
LINE
  5
20F
100
AcDbEntity
  8
LAYER0
 62
         6
100
AcDbLine
 10
-23.4610849884
 20
-117.3669745958
 30
0.0
 11
-23.4610849884
 21
25.0670081442
 31
0.0
  0
LINE
  5
210
100
AcDbEntity
  8
LAYER0
 62
         4
100
AcDbLine
 10
-2.6610849139
 20
15.4330254042
 30
0.0
 11
-2.6610849139
 21
-34.5669745958
 31
0.0
  0
LINE
  5
211
100
AcDbEntity
  8
LAYER0
 62
         4
100
AcDbLine
 10
-3.2610849139
 20
15.4330254042
 30
0.0
 11
-3.2610849139
 21
-34.5669745958
 31
0.0
  0
LINE
  5
212
100
AcDbEntity
  8
LAYER0
 62
         5
100
AcDbLine
 10
-23.4610849884
 20
3.8538047086
 30
0.0
 11
-30.4610849884
 21
-3.1461952914
 31
0.0
  0
LINE
  5
213
100
AcDbEntity
  8
LAYER0
 62
         4
100
AcDbLine
 10
27.8389151606
 20
15.4330254042
 30
0.0
 11
27.8389151606
 21
-117.3669745958
 31
0.0
  0
LINE
  5
214
100
AcDbEntity
  8
LAYER0
 62
         4
100
AcDbLine
 10
6.3389150861
 20
15.4330254042
 30
0.0
 11
6.3389150861
 21
-34.5669745958
 31
0.0
  0
LINE
  5
215
100
AcDbEntity
  8
LAYER0
 62
         2
100
AcDbLine
 10
-3.1610849139
 20
-69.0669745958
 30
0.0
 11
-5.4160803767
 21
-69.0669745958
 31
0.0
  0
LINE
  5
216
100
AcDbEntity
  8
LAYER0
 62
         2
100
AcDbLine
 10
0.0939105489
 20
-69.0669745958
 30
0.0
 11
-2.1610849139
 21
-69.0669745958
 31
0.0
  0
CIRCLE
  5
217
100
AcDbEntity
  8
LAYER0
 62
         2
100
AcDbCircle
 10
-2.6610849139
 20
-69.5669745958
 30
0.0
 40
7.0
210
0.0
220
0.0
230
1.0
  0
LINE
  5
218
100
AcDbEntity
  8
LAYER0
  6
CENTER
100
AcDbLine
 10
7.8389150861
 20
-69.5669745958
 30
0.0
 11
-44.9642809272
 21
-69.5669745958
 31
0.0
  0
LINE
  5
219
100
AcDbEntity
  8
LAYER0
 62
         3
100
AcDbLine
 10
95.0
 20
-125.5
 30
0.0
 11
-40.0
 21
-125.5
 31
0.0
  0
LINE
  5
21A
100
AcDbEntity
  8
LAYER0
 62
         3
100
AcDbLine
 10
95.0
 20
-130.5
 30
0.0
 11
-40.0
 21
-130.5
 31
0.0
  0
LINE
  5
21B
100
AcDbEntity
  8
LAYER0
 62
         3
100
AcDbLine
 10
95.0
 20
-138.5
 30
0.0
 11
-40.0
 21
-138.5
 31
0.0
  0
LINE
  5
21C
100
AcDbEntity
  8
LAYER0
 62
         6
100
AcDbLine
 10
1.3389150861
 20
94.4330250242
 30
0.0
 11
1.3389150861
 21
73.4330254712
 31
0.0
  0
LINE
  5
21D
100
AcDbEntity
  8
LAYER0
 62
         6
100
AcDbLine
 10
1.3389150861
 20
72.4330253073
 30
0.0
 11
1.3389150861
 21
66.0330252477
 31
0.0
  0
LINE
  5
21E
100
AcDbEntity
  8
LAYER0
 62
         5
100
AcDbLine
 10
1.3389150861
 20
62.8330252477
 30
0.0
 11
1.3389150861
 21
62.7330252477
 31
0.0
  0
ARC
  5
21F
100
AcDbEntity
  8
LAYER0
 62
         5
100
AcDbCircle
 10
-2.6610849139
 20
65.8848770996
 30
0.0
 40
6.5518518519
210
0.0
220
0.0
230
1.0
100
AcDbArc
 50
216.0083207556
 51
323.9916761739
  0
LINE
  5
220
100
AcDbEntity
  8
LAYER0
 62
         5
100
AcDbLine
 10
-7.9610849139
 20
62.0330252477
 30
0.0
 11
2.6389150861
 21
62.0330252477
 31
0.0
  0
LINE
  5
221
100
AcDbEntity
  8
LAYER0
 62
         5
100
AcDbLine
 10
2.6389150861
 20
62.7330252477
 30
0.0
 11
-7.9610849139
 21
62.7330252477
 31
0.0
  0
LINE
  5
222
100
AcDbEntity
  8
LAYER0
 62
         5
100
AcDbLine
 10
1.3389150861
 20
62.7330252477
 30
0.0
 11
-2.6610849139
 21
62.7330252477
 31
0.0
  0
ARC
  5
223
100
AcDbEntity
  8
LAYER0
 62
         2
100
AcDbCircle
 10
-2.6610849139
 20
-69.5669745958
 30
0.0
 40
2.8
210
-0.0
220
0.0
230
1.0
100
AcDbArc
 50
349.7134392131
 51
10.2865607869
  0
LINE
  5
224
100
AcDbEntity
  8
LAYER0
 62
         2
100
AcDbLine
 10
-2.1610849139
 20
-70.0669745958
 30
0.0
 11
0.0939105489
 21
-70.0669745958
 31
0.0
  0
LINE
  5
225
100
AcDbEntity
  8
LAYER0
 62
         4
100
AcDbLine
 10
27.8389151606
 20
15.4330254042
 30
0.0
 11
-20.1610849884
 21
15.4330254042
 31
0.0
  0
LINE
  5
226
100
AcDbEntity
  8
LAYER0
 62
         4
100
AcDbLine
 10
-2.0610849139
 20
-81.5519652091
 30
0.0
 11
-2.0610849139
 21
-117.3669745958
 31
0.0
  0
LINE
  5
227
100
AcDbEntity
  8
LAYER0
 62
         4
100
AcDbLine
 10
-2.0610849139
 20
15.4330254042
 30
0.0
 11
-2.0610849139
 21
-34.5669745958
 31
0.0
  0
LINE
  5
228
100
AcDbEntity
  8
LAYER0
 62
         6
100
AcDbLine
 10
1.3389150861
 20
95.4330251881
 30
0.0
 11
1.3389150861
 21
101.8330252477
 31
0.0
  0
ARC
  5
229
100
AcDbEntity
  8
LAYER0
 62
         6
100
AcDbCircle
 10
-2.6610849139
 20
-69.5669745958
 30
0.0
 40
12.0
210
-0.0
220
0.0
230
1.0
100
AcDbArc
 50
236.4426881304
 51
33.5573103343
  0
LINE
  5
22A
100
AcDbEntity
  8
LAYER0
 62
         6
100
AcDbLine
 10
7.3389150861
 20
-37.7669745958
 30
0.0
 11
-12.6610849139
 21
-37.7669745958
 31
0.0
  0
LINE
  5
22B
100
AcDbEntity
  8
LAYER0
 62
         6
100
AcDbLine
 10
7.3389150861
 20
-34.5669745958
 30
0.0
 11
-12.6610849139
 21
-34.5669745958
 31
0.0
  0
LINE
  5
22C
100
AcDbEntity
  8
LAYER0
 62
         6
100
AcDbLine
 10
7.3389150861
 20
64.0330252477
 30
0.0
 11
-12.6610849139
 21
64.0330252477
 31
0.0
  0
LINE
  5
22D
100
AcDbEntity
  8
LAYER0
  6
CENTER
 62
         6
100
AcDbLine
 10
7.3389150861
 20
-54.8669745213
 30
0.0
 11
-12.6610849139
 21
-54.8669745213
 31
0.0
  0
LINE
  5
22E
100
AcDbEntity
  8
LAYER0
 62
         6
100
AcDbLine
 10
7.3389150861
 20
-56.8669745213
 30
0.0
 11
-12.6610849139
 21
-56.8669745213
 31
0.0
  0
ENDSEC
  0
SECTION
  2
OBJECTS
  0
DICTIONARY
  5
19
100
AcDbDictionary
280
         0
281
         1
  3
ACAD_GROUP
350
1A
  3
ACAD_MLINESTYLE
350
1B
  3
ACAD_LAYOUT
350
1E
  3
ACAD_PLOTSETTINGS
350
22
  3
ACAD_PLOTSTYLENAME
350
1F
  3
ACAD_WIPEOUT_VARS
350
23
  0
DICTIONARY
  5
1A
102
{ACAD_REACTORS
330
19
102
}
100
AcDbDictionary
280
         0
281
         1
  0
DICTIONARY
  5
1B
102
{ACAD_REACTORS
330
19
102
}
100
AcDbDictionary
280
         0
281
         1
  3
Standard
350
1C
  0
MLINESTYLE
  5
1C
102
{ACAD_REACTORS
330
1B
102
}
100
AcDbMlineStyle
  2
Standard
 70
         0
  3

 62
         0
 51
90.0
 52
90.0
 71
         2
 49
0.5
 62
       256
  6
BYLAYER
 49
-0.5
 62
       256
  6
BYLAYER
  0
ACDBDICTIONARYWDFLT
  5
1F
102
{ACAD_REACTORS
330
19
102
}
100
AcDbDictionary
281
         1
  3
Normal
350
1D
100
AcDbDictionaryWithDefault
340
1D
  0
ACDBPLACEHOLDER
  5
1D
102
{ACAD_REACTORS
330
1F
102
}
  0
LAYOUT
  5
20
102
{ACAD_REACTORS
330
1E
102
}
100
AcDbPlotSettings
  1

  2

  4

  6

 40
0.0
 41
0.0
 42
0.0
 43
0.0
 44
0.0
 45
0.0
 46
0.0
 47
0.0
 48
0.0
 49
0.0
140
0.0
141
0.0
142
1.0
143
1.0
 70
         0
 72
         0
 73
         0
 74
         0
  7

 75
         0
147
1.0
148
0.0
149
0.0
100
AcDbLayout
  1
Model
 70
         0
 71
         0
 10
0.0
 20
0.0
 11
0.0
 21
0.0
 12
0.0
 22
0.0
 32
0.0
 14
0.0
 24
0.0
 34
0.0
 15
0.0
 25
0.0
 35
0.0
146
0.0
 13
0.0
 23
0.0
 33
0.0
 16
0.0
 26
0.0
 36
0.0
 17
0.0
 27
0.0
 37
0.0
 76
         0
330
A
331
0
345
0
346
0
  0
LAYOUT
  5
21
102
{ACAD_REACTORS
330
1E
102
}
100
AcDbPlotSettings
  1

  2

  4

  6

 40
0.0
 41
0.0
 42
0.0
 43
0.0
 44
0.0
 45
0.0
 46
0.0
 47
0.0
 48
0.0
 49
0.0
140
0.0
141
0.0
142
1.0
143
1.0
 70
         0
 72
         0
 73
         0
 74
         0
  7

 75
         0
147
1.0
148
0.0
149
0.0
100
AcDbLayout
  1
Layout1
 70
         0
 71
         0
 10
0.0
 20
0.0
 11
0.0
 21
0.0
 12
0.0
 22
0.0
 32
0.0
 14
0.0
 24
0.0
 34
0.0
 15
0.0
 25
0.0
 35
0.0
146
0.0
 13
0.0
 23
0.0
 33
0.0
 16
0.0
 26
0.0
 36
0.0
 17
0.0
 27
0.0
 37
0.0
 76
         0
330
B
331
0
345
0
346
0
  0
DICTIONARY
  5
1E
102
{ACAD_REACTORS
330
19
102
}
100
AcDbDictionary
280
         0
281
         1
  3
Layout1
350
21
  3
Model
350
20
  0
DICTIONARY
  5
22
102
{ACAD_REACTORS
330
19
102
}
100
AcDbDictionary
280
         0
281
         1
  0
WIPEOUTVARIABLES
  5
23
100
AcDbWipeoutVariables
 70
         1
  0
ENDSEC
  0
EOF
