  0
SECTION
  2
HEADER
  9
$ACADVER
  1
AC1015
  9
$ACADMAINTVER
 70
         6
  9
$DWGCODEPAGE
  3
ANSI_932
  9
$INSBASE
 10
0.0
 20
0.0
 30
0.0
  9
$EXTMIN
 10
1.0000000000E+20
 20
1.0000000000E+20
 30
1.0000000000E+20
  9
$EXTMAX
 10
-1.0000000000E+20
 20
-1.0000000000E+20
 30
-1.0000000000E+20
  9
$LIMMIN
 10
0.0
 20
0.0
  9
$LIMMAX
 10
0.0
 20
0.0
  9
$ORTHOMODE
 70
         0
  9
$REGENMODE
 70
         1
  9
$FILLMODE
 70
         1
  9
$QTEXTMODE
 70
         0
  9
$MIRRTEXT
 70
         1
  9
$LTSCALE
 40
1.0
  9
$ATTMODE
 70
         1
  9
$TEXTSIZE
 40
0.2
  9
$TRACEWID
 40
0.05
  9
$TEXTSTYLE
  7
Standard
  9
$CLAYER
  8
0
  9
$CELTYPE
  6
Continuous
  9
$CECOLOR
 62
       256
  9
$CELTSCALE
 40
1.0
  9
$DISPSILH
 70
         0
  9
$DIMSCALE
 40
1.0
  9
$DIMASZ
 40
0.18
  9
$DIMEXO
 40
0.0625
  9
$DIMDLI
 40
0.38
  9
$DIMRND
 40
0.0
  9
$DIMDLE
 40
0.0
  9
$DIMEXE
 40
0.18
  9
$DIMTP
 40
0.0
  9
$DIMTM
 40
0.0
  9
$DIMTXT
 40
0.18
  9
$DIMCEN
 40
0.09
  9
$DIMTSZ
 40
0.0
  9
$DIMTOL
 70
         0
  9
$DIMLIM
 70
         0
  9
$DIMTIH
 70
         1
  9
$DIMTOH
 70
         1
  9
$DIMSE1
 70
         0
  9
$DIMSE2
 70
         0
  9
$DIMTAD
 70
         0
  9
$DIMZIN
 70
         0
  9
$DIMBLK
  1

  9
$DIMASO
 70
         1
  9
$DIMSHO
 70
         1
  9
$DIMPOST
  1

  9
$DIMAPOST
  1

  9
$DIMALT
 70
         0
  9
$DIMALTD
 70
         2
  9
$DIMALTF
 40
25.4
  9
$DIMLFAC
 40
1.0
  9
$DIMTOFL
 70
         0
  9
$DIMTVP
 40
0.0
  9
$DIMTIX
 70
         0
  9
$DIMSOXD
 70
         0
  9
$DIMSAH
 70
         0
  9
$DIMBLK1
  1

  9
$DIMBLK2
  1

  9
$DIMSTYLE
  2
Standard
  9
$DIMCLRD
 70
         0
  9
$DIMCLRE
 70
         0
  9
$DIMCLRT
 70
         0
  9
$DIMTFAC
 40
1.0
  9
$DIMGAP
 40
0.09
  9
$DIMJUST
 70
         0
  9
$DIMSD1
 70
         0
  9
$DIMSD2
 70
         0
  9
$DIMTOLJ
 70
         1
  9
$DIMTZIN
 70
         0
  9
$DIMALTZ
 70
         0
  9
$DIMALTTZ
 70
         0
  9
$DIMUPT
 70
         0
  9
$DIMDEC
 70
         4
  9
$DIMTDEC
 70
         4
  9
$DIMALTU
 70
         2
  9
$DIMALTTD
 70
         2
  9
$DIMTXSTY
  7
Standard
  9
$DIMAUNIT
 70
         0
  9
$DIMADEC
 70
         0
  9
$DIMALTRND
 40
0.0
  9
$DIMAZIN
 70
         0
  9
$DIMDSEP
 70
         0
  9
$DIMATFIT
 70
         3
  9
$DIMFRAC
 70
         0
  9
$DIMLDRBLK
  1

  9
$DIMLUNIT
 70
         2
  9
$DIMLWD
 70
         0
  9
$DIMLWE
 70
         0
  9
$DIMTMOVE
 70
         0
  9
$LUNITS
 70
         2
  9
$LUPREC
 70
         4
  9
$SKETCHINC
 40
0.1
  9
$FILLETRAD
 40
0.0
  9
$AUNITS
 70
         0
  9
$AUPREC
 70
         0
  9
$MENU
  1
acad
  9
$ELEVATION
 40
0.0
  9
$PELEVATION
 40
0.0
  9
$THICKNESS
 40
0.0
  9
$LIMCHECK
 70
         0
  9
$CHAMFERA
 40
0.0
  9
$CHAMFERB
 40
0.0
  9
$CHAMFERC
 40
0.0
  9
$CHAMFERD
 40
0.0
  9
$SKPOLY
 70
         0
  9
$TDCREATE
 40
0.000000000
  9
$TDUCREATE
 40
0.000000000
  9
$TDUPDATE
 40
0.000000000
  9
$TDUUPDATE
 40
0.000000000
  9
$TDINDWG
 40
0.0000000000
  9
$TDUSRTIMER
 40
0.0000000000
  9
$USRTIMER
 70
         1
  9
$ANGBASE
 50
0.0
  9
$ANGDIR
 70
         0
  9
$PDMODE
 70
         3
  9
$PDSIZE
 40
-1.0
  9
$PLINEWID
 40
0.0
  9
$SPLFRAME
 70
         0
  9
$SPLINETYPE
 70
         6
  9
$SPLINESEGS
 70
         8
  9
$HANDSEED
  5
297
  9
$SURFTAB1
 70
         6
  9
$SURFTAB2
 70
         6
  9
$SURFTYPE
 70
         6
  9
$SURFU
 70
         6
  9
$SURFV
 70
         6
  9
$UCSBASE
  2

  9
$UCSNAME
  2

  9
$UCSORG
 10
0.0
 20
0.0
 30
0.0
  9
$UCSXDIR
 10
1.0
 20
0.0
 30
0.0
  9
$UCSYDIR
 10
0.0
 20
1.0
 30
0.0
  9
$UCSORTHOREF
  2

  9
$UCSORTHOVIEW
 70
         0
  9
$UCSORGTOP
 10
0.0
 20
0.0
 30
0.0
  9
$UCSORGBOTTOM
 10
0.0
 20
0.0
 30
0.0
  9
$UCSORGLEFT
 10
0.0
 20
0.0
 30
0.0
  9
$UCSORGRIGHT
 10
0.0
 20
0.0
 30
0.0
  9
$UCSORGFRONT
 10
0.0
 20
0.0
 30
0.0
  9
$UCSORGBACK
 10
0.0
 20
0.0
 30
0.0
  9
$PUCSBASE
  2

  9
$PUCSNAME
  2

  9
$PUCSORG
 10
0.0
 20
0.0
 30
0.0
  9
$PUCSXDIR
 10
1.0
 20
0.0
 30
0.0
  9
$PUCSYDIR
 10
0.0
 20
1.0
 30
0.0
  9
$PUCSORTHOREF
  2

  9
$PUCSORTHOVIEW
 70
         0
  9
$PUCSORGTOP
 10
0.0
 20
0.0
 30
0.0
  9
$PUCSORGBOTTOM
 10
0.0
 20
0.0
 30
0.0
  9
$PUCSORGLEFT
 10
0.0
 20
0.0
 30
0.0
  9
$PUCSORGRIGHT
 10
0.0
 20
0.0
 30
0.0
  9
$PUCSORGFRONT
 10
0.0
 20
0.0
 30
0.0
  9
$PUCSORGBACK
 10
0.0
 20
0.0
 30
0.0
  9
$USERI1
 70
         0
  9
$USERI2
 70
         0
  9
$USERI3
 70
         0
  9
$USERI4
 70
         0
  9
$USERI5
 70
         0
  9
$USERR1
 40
0.0
  9
$USERR2
 40
0.0
  9
$USERR3
 40
0.0
  9
$USERR4
 40
0.0
  9
$USERR5
 40
0.0
  9
$WORLDVIEW
 70
         1
  9
$SHADEDGE
 70
         3
  9
$SHADEDIF
 70
        70
  9
$TILEMODE
 70
         1
  9
$MAXACTVP
 70
        16
  9
$PINSBASE
 10
0.0
 20
0.0
 30
0.0
  9
$PLIMCHECK
 70
         0
  9
$PEXTMIN
 10
1.0000000000E+20
 20
1.0000000000E+20
 30
1.0000000000E+20
  9
$PEXTMAX
 10
-1.0000000000E+20
 20
-1.0000000000E+20
 30
-1.0000000000E+20
  9
$PLIMMIN
 10
0.0
 20
0.0
  9
$PLIMMAX
 10
12.0
 20
9.0
  9
$UNITMODE
 70
         0
  9
$VISRETAIN
 70
         0
  9
$PLINEGEN
 70
         1
  9
$PSLTSCALE
 70
         0
  9
$TREEDEPTH
 70
      3020
  9
$CMLSTYLE
  2
Standard
  9
$CMLJUST
 70
         0
  9
$CMLSCALE
 40
1.0
  9
$PROXYGRAPHICS
 70
         0
  9
$MEASUREMENT
 70
         0
  9
$CELWEIGHT
370
         0
  9
$ENDCAPS
280
         0
  9
$JOINSTYLE
280
         0
  9
$LWDISPLAY
290
         0
  9
$INSUNITS
 70
         0
  9
$HYPERLINKBASE
  1

  9
$XEDIT
290
         1
  9
$CEPSNTYPE
380
         0
  9
$PSTYLEMODE
290
         0
  9
$FINGERPRINTGUID
  2

  9
$VERSIONGUID
  2

  9
$EXTNAMES
290
         1
  9
$PSVPSCALE
 40
0.0
  0
ENDSEC
  0
SECTION
  2
CLASSES
  0
CLASS
  1
LWPOLYLINE
  2
AcDbPolyline
  3
"AutoCAD"
 90
        0
280
         0
281
         1
  0
CLASS
  1
IMAGE
  2
AcDbRasterImage
  3
ISM
 90
      127
280
         0
281
         1
  0
CLASS
  1
OLE2FRAME
  2
AcDbOle2Frame
  3
""
 90
        0
280
         0
281
         1
  0
CLASS
  1
HATCH
  2
AcDbHatch
  3
"ACAD_SEDONA"
 90
        0
280
         0
281
         1
  0
CLASS
  1
DICTIONARYVAR
  2
AcDbDictionaryVar
  3
"AutoCAD"
 90
        0
280
         0
281
         0
  0
CLASS
  1
RASTERVARIABLES
  2
AcDbRasterVariables
  3
ISM
 90
        0
280
         0
281
         0
  0
CLASS
  1
IMAGEDEF
  2
AcDbRasterImageDef
  3
ISM
 90
        0
280
         0
281
         0
  0
CLASS
  1
IMAGEDEF_REACTOR
  2
AcDbRasterImageDefReactor
  3
ISM
 90
        1
280
         0
281
         0
  0
CLASS
  1
IDBUFFER
  2
AcDbIdBuffer
  3
"Acad"
 90
        0
280
         0
281
         0
  0
CLASS
  1
SPATIAL_FILTER
  2
AcDbSpatialFilter
  3
"Acad"
 90
        0
280
         0
281
         0
  0
CLASS
  1
XRECORD
  2
AcDbXrecord
  3
"<Built In>"
 90
        0
280
         0
281
         0
  0
CLASS
  1
SORTENTSTABLE
  2
AcDbSortentsTable
  3
"AutoCAD"
 90
        0
280
         0
281
         0
  0
CLASS
  1
LAYER_INDEX
  2
AcDbLayerIndex
  3
"Acad"
 90
        0
280
         0
281
         0
  0
CLASS
  1
SPATIAL_INDEX
  2
AcDbSpatialIndex
  3
"Acad"
 90
        0
280
         0
281
         0
  0
CLASS
  1
OBJECT_PTR
  2
CAseDLPNTableRecord
  3
"ASE-LPNTableRecord"
 90
        1
280
         0
281
         0
  0
CLASS
  1
LAYOUT
  2
AcDbLayout
  3
"AutoCAD 2000"
 90
        1
280
         0
281
         0
  0
CLASS
  1
PLOTSETTINGS
  2
AcDbPlotSettings
  3
"AutoCAD 2000"
 90
        1
280
         0
281
         0
  0
CLASS
  1
ACDBDICTIONARYWDFLT
  2
AcDbDictionaryWithDefault
  3
"AutoCAD 2000"
 90
        1
280
         0
281
         0
  0
CLASS
  1
ACDBPLACEHOLDER
  2
AcDbPlaceHolder
  3
"AutoCAD 2000"
 90
        1
280
         0
281
         0
  0
CLASS
  1
VBA_PROJECT
  2
AcDbVbaProject
  3
"acadvba"
 90
        1
280
         0
281
         0
  0
CLASS
  1
WIPEOUT
  2
AcDbWipeout
  3
WipeOut|AutoCAD Express Tool|expresstools@autodesk.com
 90
      127
280
         0
281
         1
  0
CLASS
  1
WIPEOUTVARIABLES
  2
AcDbWipeoutVariables
  3
WipeOut|AutoCAD Express Tool|expresstools@autodesk.com
 90
        0
280
         0
281
         0
  0
CLASS
  1
RTEXT
  2
RText
  3
RText|AutoCAD Express Tool|expresstools@autodesk.com
 90
        0
280
         0
281
         1
  0
CLASS
  1
ARCALIGNEDTEXT
  2
AcDbArcAlignedText
  3
ATEXT|AutoCAD Express Tool|expresstools@autodesk.com
 90
        0
280
         0
281
         1
  0
ENDSEC
  0
SECTION
  2
TABLES
  0
TABLE
  2
VPORT
  5
7
100
AcDbSymbolTable
 70
         1
  0
VPORT
  5
15
100
AcDbSymbolTableRecord
100
AcDbViewportTableRecord
  2
*ACTIVE
 70
         0
 10
0.0
 20
0.0
 11
1.0
 21
1.0
 12
6.591288
 22
4.579184
 13
0.0
 23
0.0
 14
1.0
 24
1.0
 15
0.0
 25
0.0
 16
0.0
 26
0.0
 36
1.0
 17
0.0
 27
0.0
 37
0.0
 40
9.158369
 41
0.688564
 42
50.0
 43
0.0
 44
0.0
 50
0.0
 51
0.0
 71
         0
 72
       100
 73
         1
 74
         1
 75
         0
 76
         0
 77
         0
 78
         0
281
         0
 65
         0
110
0.0
120
0.0
130
0.0
111
1.0
121
0.0
131
0.0
112
0.0
122
1.0
132
0.0
345
0
346
0
 79
         0
146
0.0
  0
ENDTAB
  0
TABLE
  2
LTYPE
  5
4
100
AcDbSymbolTable
 70
        13
  0
LTYPE
  5
11
100
AcDbSymbolTableRecord
100
AcDbLinetypeTableRecord
  2
ByBlock
 70
        64
  3

 72
        65
 73
         0
 40
0.0
  0
LTYPE
  5
12
100
AcDbSymbolTableRecord
100
AcDbLinetypeTableRecord
  2
ByLayer
 70
        64
  3

 72
        65
 73
         0
 40
0.0
  0
LTYPE
  5
13
100
AcDbSymbolTableRecord
100
AcDbLinetypeTableRecord
  2
Continuous
 70
        64
  3
Solid line
 72
        65
 73
         0
 40
0.0
  0
LTYPE
  5
24
100
AcDbSymbolTableRecord
100
AcDbLinetypeTableRecord
  2
DOT
 70
        64
  3
. . . . . . . . 
 72
        65
 73
         2
 40
1.0
 49
0.0
 74
         0
 49
-1.0
 74
         0
  0
LTYPE
  5
25
100
AcDbSymbolTableRecord
100
AcDbLinetypeTableRecord
  2
DASHED
 70
        64
  3
___  ___  ___  ___  
 72
        65
 73
         2
 40
4.0
 49
3.0
 74
         0
 49
-1.0
 74
         0
  0
LTYPE
  5
26
100
AcDbSymbolTableRecord
100
AcDbLinetypeTableRecord
  2
HIDDEN
 70
        64
  3
__ __ __ __ 
 72
        65
 73
         2
 40
3.0
 49
2.0
 74
         0
 49
-1.0
 74
         0
  0
LTYPE
  5
27
100
AcDbSymbolTableRecord
100
AcDbLinetypeTableRecord
  2
STITCH
 70
        64
  3
_ _ _ _ 
 72
        65
 73
         2
 40
2.0
 49
1.0
 74
         0
 49
-1.0
 74
         0
  0
LTYPE
  5
28
100
AcDbSymbolTableRecord
100
AcDbLinetypeTableRecord
  2
CENTER
 70
        64
  3
______  __  ______  __  
 72
        65
 73
         4
 40
43.0
 49
40.0
 74
         0
 49
-1.0
 74
         0
 49
1.0
 74
         0
 49
-1.0
 74
         0
  0
LTYPE
  5
29
100
AcDbSymbolTableRecord
100
AcDbLinetypeTableRecord
  2
DASHDOT
 70
        64
  3
____ . ____ . 
 72
        65
 73
         4
 40
32.0
 49
30.0
 74
         0
 49
-1.0
 74
         0
 49
0.0
 74
         0
 49
-1.0
 74
         0
  0
LTYPE
  5
2A
100
AcDbSymbolTableRecord
100
AcDbLinetypeTableRecord
  2
BORDER
 70
        64
  3
__ . __ . 
 72
        65
 73
         4
 40
22.0
 49
20.0
 74
         0
 49
-1.0
 74
         0
 49
0.0
 74
         0
 49
-1.0
 74
         0
  0
LTYPE
  5
2B
100
AcDbSymbolTableRecord
100
AcDbLinetypeTableRecord
  2
CUTTING
 70
        64
  3
________   ___   ___   
 72
        65
 73
         6
 40
45.0
 49
40.0
 74
         0
 49
-1.0
 74
         0
 49
1.0
 74
         0
 49
-1.0
 74
         0
 49
1.0
 74
         0
 49
-1.0
 74
         0
  0
LTYPE
  5
2C
100
AcDbSymbolTableRecord
100
AcDbLinetypeTableRecord
  2
PHANTOM
 70
        64
  3
______  __  __  
 72
        65
 73
         6
 40
35.0
 49
30.0
 74
         0
 49
-1.0
 74
         0
 49
1.0
 74
         0
 49
-1.0
 74
         0
 49
1.0
 74
         0
 49
-1.0
 74
         0
  0
LTYPE
  5
2D
100
AcDbSymbolTableRecord
100
AcDbLinetypeTableRecord
  2
DIVIDE
 70
        64
  3
____ . . ____ . . 
 72
        65
 73
         6
 40
23.0
 49
20.0
 74
         0
 49
-1.0
 74
         0
 49
0.0
 74
         0
 49
-1.0
 74
         0
 49
0.0
 74
         0
 49
-1.0
 74
         0
  0
ENDTAB
  0
TABLE
  2
LAYER
  5
2
100
AcDbSymbolTable
 70
         3
  0
LAYER
  5
14
100
AcDbSymbolTableRecord
100
AcDbLayerTableRecord
  2
0
 70
         0
 62
         7
  6
Continuous
290
         1
370
        -3
390
1D
  0
LAYER
  5
2E
100
AcDbSymbolTableRecord
100
AcDbLayerTableRecord
  2
LAYER0
 70
         0
 62
         7
  6
Continuous
290
         1
370
        -3
390
1F
  0
LAYER
  5
31
100
AcDbSymbolTableRecord
100
AcDbLayerTableRecord
  2
LAYER3
 70
         0
 62
         7
  6
Continuous
290
         1
370
        -3
390
1F
  0
ENDTAB
  0
TABLE
  2
STYLE
  5
3
100
AcDbSymbolTable
 70
         1
  0
STYLE
  5
17
100
AcDbSymbolTableRecord
100
AcDbTextStyleTableRecord
  2
Standard
 70
         0
 40
0.0
 41
1.0
 50
0.0
 71
         0
 42
0.0
  3
txt
  4
extfont
  0
ENDTAB
  0
TABLE
  2
VIEW
  5
5
100
AcDbSymbolTable
 70
         0
  0
ENDTAB
  0
TABLE
  2
UCS
  5
6
100
AcDbSymbolTable
 70
         0
  0
ENDTAB
  0
TABLE
  2
APPID
  5
8
100
AcDbSymbolTable
 70
         1
  0
APPID
  5
16
100
AcDbSymbolTableRecord
100
AcDbRegAppTableRecord
  2
ACAD
 70
         0
  0
ENDTAB
  0
TABLE
  2
DIMSTYLE
  5
9
100
AcDbSymbolTable
 70
         1
100
AcDbDimStyleTable
 71
         0
  0
DIMSTYLE
105
18
100
AcDbSymbolTableRecord
100
AcDbDimStyleTableRecord
  2
Standard
 70
         0
  3

  4

 40
1.0
 41
0.18
 42
0.0625
 43
0.38
 44
0.18
 45
0.0
 46
0.0
 47
0.0
 48
0.0
 71
         0
 72
         0
 73
         1
 74
         1
 75
         0
 76
         0
 77
         0
 78
         0
 79
         0
140
0.18
141
0.09
142
0.0
143
25.4
144
1.0
145
0.0
146
1.0
147
0.09
148
0.0
170
         0
171
         2
172
         0
173
         0
174
         0
175
         0
176
         0
177
         0
178
         0
179
         0
271
         4
272
         4
273
         2
274
         2
275
         0
276
         0
277
         2
278
        46
279
         0
280
         0
281
         0
282
         0
283
         1
284
         0
285
         0
286
         0
288
         0
340
17
341
0
342
0
343
0
344
0
371
        -2
372
        -2
  0
ENDTAB
  0
TABLE
  2
BLOCK_RECORD
  5
1
100
AcDbSymbolTable
 70
        16
  0
BLOCK_RECORD
  5
A
100
AcDbSymbolTableRecord
100
AcDbBlockTableRecord
  2
*MODEL_SPACE
340
20
  0
BLOCK_RECORD
  5
B
100
AcDbSymbolTableRecord
100
AcDbBlockTableRecord
  2
*PAPER_SPACE
340
21
  0
BLOCK_RECORD
  5
35
100
AcDbSymbolTableRecord
100
AcDbBlockTableRecord
  2
CLUMP0
340
0
  0
BLOCK_RECORD
  5
38
100
AcDbSymbolTableRecord
100
AcDbBlockTableRecord
  2
CLUMP1
340
0
  0
BLOCK_RECORD
  5
B5
100
AcDbSymbolTableRecord
100
AcDbBlockTableRecord
  2
CLUMP2
340
0
  0
BLOCK_RECORD
  5
B8
100
AcDbSymbolTableRecord
100
AcDbBlockTableRecord
  2
CLUMP3
340
0
  0
BLOCK_RECORD
  5
16C
100
AcDbSymbolTableRecord
100
AcDbBlockTableRecord
  2
CLUMP4
340
0
  0
BLOCK_RECORD
  5
16F
100
AcDbSymbolTableRecord
100
AcDbBlockTableRecord
  2
CLUMP5
340
0
  0
BLOCK_RECORD
  5
181
100
AcDbSymbolTableRecord
100
AcDbBlockTableRecord
  2
CLUMP6
340
0
  0
BLOCK_RECORD
  5
184
100
AcDbSymbolTableRecord
100
AcDbBlockTableRecord
  2
CLUMP7
340
0
  0
BLOCK_RECORD
  5
19A
100
AcDbSymbolTableRecord
100
AcDbBlockTableRecord
  2
CLUMP8
340
0
  0
BLOCK_RECORD
  5
19D
100
AcDbSymbolTableRecord
100
AcDbBlockTableRecord
  2
CLUMP9
340
0
  0
BLOCK_RECORD
  5
1EB
100
AcDbSymbolTableRecord
100
AcDbBlockTableRecord
  2
CLUMP10
340
0
  0
BLOCK_RECORD
  5
1EE
100
AcDbSymbolTableRecord
100
AcDbBlockTableRecord
  2
CLUMP11
340
0
  0
BLOCK_RECORD
  5
1FA
100
AcDbSymbolTableRecord
100
AcDbBlockTableRecord
  2
CLUMP12
340
0
  0
BLOCK_RECORD
  5
1FD
100
AcDbSymbolTableRecord
100
AcDbBlockTableRecord
  2
CLUMP13
340
0
  0
BLOCK_RECORD
  5
27A
100
AcDbSymbolTableRecord
100
AcDbBlockTableRecord
  2
CLUMP14
340
0
  0
BLOCK_RECORD
  5
27D
100
AcDbSymbolTableRecord
100
AcDbBlockTableRecord
  2
CLUMP15
340
0
  0
ENDTAB
  0
ENDSEC
  0
SECTION
  2
BLOCKS
  0
BLOCK
  5
D
100
AcDbEntity
  8
0
100
AcDbBlockBegin
  2
*MODEL_SPACE
 70
         0
 10
0.0
 20
0.0
 30
0.0
  3
*MODEL_SPACE
  1

  0
ENDBLK
  5
E
100
AcDbEntity
  8
0
100
AcDbBlockEnd
  0
BLOCK
  5
F
100
AcDbEntity
 67
         1
  8
0
100
AcDbBlockBegin
  2
*PAPER_SPACE
 70
         0
 10
0.0
 20
0.0
 30
0.0
  3
*PAPER_SPACE
  1

  0
ENDBLK
  5
10
100
AcDbEntity
 67
         1
  8
0
100
AcDbBlockEnd
  0
BLOCK
  5
37
100
AcDbEntity
  8
0
100
AcDbBlockBegin
  2
CLUMP0
 70
         0
 10
0.0
 20
0.0
 30
0.0
  3

  1

  0
INSERT
  5
39
100
AcDbEntity
  8
0
100
AcDbBlockReference
  2
CLUMP1
 10
0.0
 20
0.0
 30
0.0
  0
ENDBLK
  5
B4
100
AcDbEntity
  8
0
100
AcDbBlockEnd
  0
BLOCK
  5
3A
100
AcDbEntity
  8
0
100
AcDbBlockBegin
  2
CLUMP1
 70
         0
 10
0.0
 20
0.0
 30
0.0
  3

  1

  0
LINE
  5
3B
100
AcDbEntity
  8
LAYER0
 62
         4
100
AcDbLine
 10
13.0643662471
 20
79.9442365602
 30
0.0
 11
10.5158379755
 21
77.3957082887
 31
0.0
  0
LINE
  5
3C
100
AcDbEntity
  8
LAYER0
 62
         4
100
AcDbLine
 10
8.0894923788
 20
83.0300233256
 30
0.0
 11
8.0894923788
 21
79.0220538854
 31
0.0
  0
LINE
  5
3D
100
AcDbEntity
  8
LAYER0
 62
         4
100
AcDbLine
 10
12.0037060753
 20
81.004896732
 30
0.0
 11
9.4551778038
 21
78.4563684605
 31
0.0
  0
LINE
  5
3E
100
AcDbEntity
  8
LAYER0
 62
         4
100
AcDbLine
 10
23.4894924533
 20
80.5300229978
 30
0.0
 11
14.4785798094
 21
80.5300229978
 31
0.0
  0
LINE
  5
3F
100
AcDbEntity
  8
LAYER0
 62
         4
100
AcDbLine
 10
15.0894928407
 20
76.0300228637
 30
0.0
 11
15.0894928407
 21
75.0300220143
 31
0.0
  0
ARC
  5
40
100
AcDbEntity
  8
LAYER0
 62
         4
100
AcDbCircle
 10
14.5894924533
 20
75.0300229382
 30
0.0
 40
0.5
210
0.0
220
0.0
230
1.0
100
AcDbArc
 50
270.0000015352
 51
359.9999984648
  0
LINE
  5
41
100
AcDbEntity
  8
LAYER0
 62
         4
100
AcDbLine
 10
14.5894927588
 20
74.5300228637
 30
0.0
 11
10.0894923788
 21
74.5300228637
 31
0.0
  0
LINE
  5
42
100
AcDbEntity
  8
LAYER0
 62
         4
100
AcDbLine
 10
14.4785798094
 20
103.5300228786
 30
0.0
 11
23.4894924533
 21
103.5300228786
 31
0.0
  0
LINE
  5
43
100
AcDbEntity
  8
LAYER0
 62
         4
100
AcDbLine
 10
6.5894923788
 20
78.0300228637
 30
0.0
 11
6.5894923788
 21
82.5300232437
 31
0.0
  0
ARC
  5
44
100
AcDbEntity
  8
LAYER0
 62
         4
100
AcDbCircle
 10
7.0894924533
 20
82.5300229382
 30
0.0
 40
0.5
210
0.0
220
0.0
230
1.0
100
AcDbArc
 50
90.0000015352
 51
179.9999984648
  0
LINE
  5
45
100
AcDbEntity
  8
LAYER0
 62
         4
100
AcDbLine
 10
7.0894915294
 20
83.0300233256
 30
0.0
 11
8.0894923788
 21
83.0300233256
 31
0.0
  0
LINE
  5
46
100
AcDbEntity
  8
LAYER0
 62
         4
100
AcDbLine
 10
12.5894925129
 20
82.4191102944
 30
0.0
 11
12.5894925129
 21
91.4300229382
 31
0.0
  0
LINE
  5
47
100
AcDbEntity
  8
LAYER0
 62
         4
100
AcDbLine
 10
12.5894925129
 20
91.4300229382
 30
0.0
 11
13.0894925949
 21
92.0300229382
 31
0.0
  0
LINE
  5
48
100
AcDbEntity
  8
LAYER0
 62
         4
100
AcDbLine
 10
13.0894925949
 20
92.0300229382
 30
0.0
 11
12.5894925129
 21
92.6300229382
 31
0.0
  0
LINE
  5
49
100
AcDbEntity
  8
LAYER0
 62
         4
100
AcDbLine
 10
15.0894928407
 20
108.0300230127
 30
0.0
 11
15.0894928407
 21
109.0300238621
 31
0.0
  0
ARC
  5
4A
100
AcDbEntity
  8
LAYER0
 62
         4
100
AcDbCircle
 10
14.5894924533
 20
109.0300229382
 30
0.0
 40
0.5
210
-0.0
220
-0.0
230
1.0
100
AcDbArc
 50
359.9999984648
 51
90.0000015352
  0
LINE
  5
4B
100
AcDbEntity
  8
LAYER0
 62
         4
100
AcDbLine
 10
14.5894927588
 20
109.5300230127
 30
0.0
 11
10.0894923788
 21
109.5300230127
 31
0.0
  0
LINE
  5
4C
100
AcDbEntity
  8
LAYER0
 62
         4
100
AcDbLine
 10
6.5894923788
 20
106.0300230127
 30
0.0
 11
6.5894923788
 21
101.5300226328
 31
0.0
  0
ARC
  5
4D
100
AcDbEntity
  8
LAYER0
 62
         4
100
AcDbCircle
 10
7.0894924533
 20
101.5300229382
 30
0.0
 40
0.5
210
0.0
220
0.0
230
1.0
100
AcDbArc
 50
179.9999984648
 51
270.0000015352
  0
LINE
  5
4E
100
AcDbEntity
  8
LAYER0
 62
         4
100
AcDbLine
 10
7.0894915294
 20
101.0300225508
 30
0.0
 11
8.0894923788
 21
101.0300225508
 31
0.0
  0
LINE
  5
4F
100
AcDbEntity
  8
LAYER0
 62
         4
100
AcDbLine
 10
34.0539584878
 20
80.5300229978
 30
0.0
 11
24.6894924533
 21
80.5300229978
 31
0.0
  0
LINE
  5
50
100
AcDbEntity
  8
LAYER0
 62
         4
100
AcDbLine
 10
12.5894925129
 20
101.6409355821
 30
0.0
 11
12.5894925129
 21
92.6300229382
 31
0.0
  0
ARC
  5
51
100
AcDbEntity
  8
LAYER0
 62
         4
100
AcDbCircle
 10
14.4785798094
 20
78.5300229978
 30
0.0
 40
2.0
210
0.0
220
0.0
230
1.0
100
AcDbArc
 50
90.0000015352
 51
135.0000030705
  0
ARC
  5
52
100
AcDbEntity
  8
LAYER0
 62
         4
100
AcDbCircle
 10
10.5894925129
 20
82.4191102944
 30
0.0
 40
2.0
210
0.0
220
0.0
230
1.0
100
AcDbArc
 50
314.9999969295
 51
359.9999984648
  0
ARC
  5
53
100
AcDbEntity
  8
LAYER0
 62
         4
100
AcDbCircle
 10
10.5894925129
 20
101.6409355821
 30
0.0
 40
2.0
210
-0.0
220
0.0
230
1.0
100
AcDbArc
 50
359.9999984648
 51
45.0
  0
ARC
  5
54
100
AcDbEntity
  8
LAYER0
 62
         4
100
AcDbCircle
 10
14.4785798094
 20
105.5300228786
 30
0.0
 40
2.0
210
0.0
220
0.0
230
1.0
100
AcDbArc
 50
225.0
 51
269.9999953943
  0
ARC
  5
55
100
AcDbEntity
  8
LAYER0
 62
         4
100
AcDbCircle
 10
11.0815234005
 20
107.2300230127
 30
0.0
 40
0.8
210
0.0
220
0.0
230
1.0
100
AcDbArc
 50
90.0000015352
 51
225.0
  0
ARC
  5
56
100
AcDbEntity
  8
LAYER0
 62
         4
100
AcDbCircle
 10
8.8894923788
 20
105.0379919911
 30
0.0
 40
0.8
210
0.0
220
-0.0
230
1.0
100
AcDbArc
 50
45.0
 51
179.9999984648
  0
ARC
  5
57
100
AcDbEntity
  8
LAYER0
 62
         4
100
AcDbCircle
 10
11.0815234005
 20
76.8300228637
 30
0.0
 40
0.8
210
0.0
220
0.0
230
1.0
100
AcDbArc
 50
135.0000030705
 51
269.9999953943
  0
ARC
  5
58
100
AcDbEntity
  8
LAYER0
 62
         4
100
AcDbCircle
 10
8.8894923788
 20
79.0220538854
 30
0.0
 40
0.8
210
0.0
220
0.0
230
1.0
100
AcDbArc
 50
179.9999984648
 51
314.9999969295
  0
LINE
  5
59
100
AcDbEntity
  8
LAYER0
 62
         4
100
AcDbLine
 10
37.0974615061
 20
108.0300230127
 30
0.0
 11
33.0894920659
 21
108.0300230127
 31
0.0
  0
LINE
  5
5A
100
AcDbEntity
  8
LAYER0
 62
         4
100
AcDbLine
 10
37.0974615061
 20
76.0300228637
 30
0.0
 11
33.0894920659
 21
76.0300228637
 31
0.0
  0
LINE
  5
5B
100
AcDbEntity
  8
LAYER0
 62
         4
100
AcDbLine
 10
33.0894920659
 20
76.0300228637
 30
0.0
 11
33.0894920659
 21
75.0300220143
 31
0.0
  0
ARC
  5
5C
100
AcDbEntity
  8
LAYER0
 62
         4
100
AcDbCircle
 10
33.5894924533
 20
75.0300229382
 30
0.0
 40
0.5
210
0.0
220
0.0
230
1.0
100
AcDbArc
 50
179.9999984648
 51
269.9999953943
  0
LINE
  5
5D
100
AcDbEntity
  8
LAYER0
 62
         4
100
AcDbLine
 10
33.5894921479
 20
74.5300228637
 30
0.0
 11
42.5894925278
 21
74.5300228637
 31
0.0
  0
LINE
  5
5E
100
AcDbEntity
  8
LAYER0
 62
         4
100
AcDbLine
 10
33.0894920659
 20
108.0300230127
 30
0.0
 11
33.0894920659
 21
109.0300238621
 31
0.0
  0
ARC
  5
5F
100
AcDbEntity
  8
LAYER0
 62
         4
100
AcDbCircle
 10
33.5894924533
 20
109.0300229382
 30
0.0
 40
0.5
210
0.0
220
0.0
230
1.0
100
AcDbArc
 50
90.0000015352
 51
179.9999984648
  0
LINE
  5
60
100
AcDbEntity
  8
LAYER0
 62
         4
100
AcDbLine
 10
33.5894921479
 20
109.5300230127
 30
0.0
 11
37.0894924533
 21
109.5300230127
 31
0.0
  0
LINE
  5
61
100
AcDbEntity
  8
LAYER0
 62
         4
100
AcDbLine
 10
54.5894925278
 20
86.5300228637
 30
0.0
 11
54.5894925278
 21
90.5300229382
 31
0.0
  0
LINE
  5
62
100
AcDbEntity
  8
LAYER0
 62
         4
100
AcDbLine
 10
35.8823854486
 20
102.7622557618
 30
0.0
 11
38.9501526251
 21
105.8300229382
 31
0.0
  0
LINE
  5
63
100
AcDbEntity
  8
LAYER0
 62
         4
100
AcDbLine
 10
15.0894928407
 20
108.0300230127
 30
0.0
 11
11.0815234005
 21
108.0300230127
 31
0.0
  0
LINE
  5
64
100
AcDbEntity
  8
LAYER0
 62
         4
100
AcDbLine
 10
8.0894923788
 20
101.0300225508
 30
0.0
 11
8.0894923788
 21
105.0379919911
 31
0.0
  0
LINE
  5
65
100
AcDbEntity
  8
LAYER0
 62
         4
100
AcDbLine
 10
13.0643662471
 20
104.1158093163
 30
0.0
 11
10.5158379755
 21
106.6643375878
 31
0.0
  0
LINE
  5
66
100
AcDbEntity
  8
LAYER0
 62
         4
100
AcDbLine
 10
12.0037060753
 20
103.0551491445
 30
0.0
 11
9.4551778038
 21
105.603677416
 31
0.0
  0
LINE
  5
67
100
AcDbEntity
  8
LAYER0
 62
         4
100
AcDbLine
 10
15.0894928407
 20
76.0300228637
 30
0.0
 11
11.0815234005
 21
76.0300228637
 31
0.0
  0
LINE
  5
68
100
AcDbEntity
  8
LAYER0
 62
         4
100
AcDbLine
 10
35.5894922298
 20
102.0551489806
 30
0.0
 11
35.5894922298
 21
91.3300229382
 31
0.0
  0
ARC
  5
69
100
AcDbEntity
  8
LAYER0
 62
         4
100
AcDbCircle
 10
37.0974615061
 20
107.2300230127
 30
0.0
 40
0.8
210
-0.0
220
-0.0
230
1.0
100
AcDbArc
 50
314.9999969295
 51
90.0000015352
  0
LINE
  5
6A
100
AcDbEntity
  8
LAYER0
 62
         4
100
AcDbLine
 10
35.1146186596
 20
104.1158093163
 30
0.0
 11
37.6631469311
 21
106.6643375878
 31
0.0
  0
LINE
  5
6B
100
AcDbEntity
  8
LAYER0
 62
         4
100
AcDbLine
 10
33.5894922298
 20
81.5300229978
 30
0.0
 11
28.5894924533
 21
81.5300229978
 31
0.0
  0
LINE
  5
6C
100
AcDbEntity
  8
LAYER0
 62
         4
100
AcDbLine
 10
35.5894922298
 20
89.7300229382
 30
0.0
 11
35.5894922298
 21
81.2977901147
 31
0.0
  0
LINE
  5
6D
100
AcDbEntity
  8
LAYER0
 62
         4
100
AcDbLine
 10
41.0894925278
 20
90.0300229382
 30
0.0
 11
35.8894922298
 21
90.0300229382
 31
0.0
  0
LINE
  5
6E
100
AcDbEntity
  8
LAYER0
 62
         4
100
AcDbLine
 10
42.5894925278
 20
75.5300228637
 30
0.0
 11
39.3894924533
 21
75.5300228637
 31
0.0
  0
LINE
  5
6F
100
AcDbEntity
  8
LAYER0
 62
         4
100
AcDbLine
 10
53.0894925278
 20
90.0300229382
 30
0.0
 11
49.0894925278
 21
90.0300229382
 31
0.0
  0
LINE
  5
70
100
AcDbEntity
  8
LAYER0
 62
         4
100
AcDbLine
 10
53.5894925278
 20
86.5300228637
 30
0.0
 11
53.5894925278
 21
89.5300229382
 31
0.0
  0
LINE
  5
71
100
AcDbEntity
  8
LAYER0
 62
         4
100
AcDbLine
 10
33.5894922298
 20
102.5300228786
 30
0.0
 11
28.5894924533
 21
102.5300228786
 31
0.0
  0
LINE
  5
72
100
AcDbEntity
  8
LAYER0
 62
         4
100
AcDbLine
 10
14.5894925129
 20
81.5300229978
 30
0.0
 11
19.5894924533
 21
81.5300229978
 31
0.0
  0
LINE
  5
73
100
AcDbEntity
  8
LAYER0
 62
         4
100
AcDbLine
 10
14.5894925129
 20
102.5300228786
 30
0.0
 11
19.5894924533
 21
102.5300228786
 31
0.0
  0
LINE
  5
74
100
AcDbEntity
  8
LAYER0
 62
         4
100
AcDbLine
 10
13.5894925129
 20
101.5300228786
 30
0.0
 11
13.5894925129
 21
96.5300229382
 31
0.0
  0
LINE
  5
75
100
AcDbEntity
  8
LAYER0
 62
         4
100
AcDbLine
 10
13.5894925129
 20
87.5300229382
 30
0.0
 11
13.5894925129
 21
82.5300229978
 31
0.0
  0
ARC
  5
76
100
AcDbEntity
  8
LAYER0
 62
         4
100
AcDbCircle
 10
14.5894925129
 20
101.5300228786
 30
0.0
 40
1.0
210
0.0
220
0.0
230
1.0
100
AcDbArc
 50
90.0000015352
 51
180.0000030705
  0
ARC
  5
77
100
AcDbEntity
  8
LAYER0
 62
         4
100
AcDbCircle
 10
14.5894925129
 20
82.5300229978
 30
0.0
 40
1.0
210
0.0
220
0.0
230
1.0
100
AcDbArc
 50
180.0000030705
 51
269.9999984648
  0
LINE
  5
78
100
AcDbEntity
  8
LAYER0
 62
         4
100
AcDbLine
 10
34.8217254407
 20
80.237129779
 30
0.0
 11
37.6631469311
 21
77.3957082887
 31
0.0
  0
ARC
  5
79
100
AcDbEntity
  8
LAYER0
 62
         4
100
AcDbCircle
 10
34.1146186596
 20
79.5300229978
 30
0.0
 40
1.0
210
0.0
220
-0.0
230
1.0
100
AcDbArc
 50
45.0000030705
 51
90.0000046057
  0
ARC
  5
7A
100
AcDbEntity
  8
LAYER0
 62
         4
100
AcDbCircle
 10
37.0974615061
 20
76.8300228637
 30
0.0
 40
0.8
210
-0.0
220
0.0
230
1.0
100
AcDbArc
 50
269.9999984648
 51
45.0000030705
  0
LINE
  5
7B
100
AcDbEntity
  8
LAYER0
 62
         4
100
AcDbLine
 10
38.3622846594
 20
78.1107841227
 30
0.0
 11
35.8823854486
 21
80.5906833335
 31
0.0
  0
LINE
  5
7C
100
AcDbEntity
  8
LAYER0
 62
         4
100
AcDbLine
 10
23.4894924533
 20
103.5300228786
 30
0.0
 11
24.0894924533
 21
103.0300227967
 31
0.0
  0
LINE
  5
7D
100
AcDbEntity
  8
LAYER0
 62
         4
100
AcDbLine
 10
24.0894924533
 20
103.0300227967
 30
0.0
 11
24.6894924533
 21
103.5300228786
 31
0.0
  0
LINE
  5
7E
100
AcDbEntity
  8
LAYER0
 62
         4
100
AcDbLine
 10
24.6894924533
 20
80.5300229978
 30
0.0
 11
24.0894924533
 21
81.0300230798
 31
0.0
  0
LINE
  5
7F
100
AcDbEntity
  8
LAYER0
 62
         4
100
AcDbLine
 10
24.0894924533
 20
81.0300230798
 30
0.0
 11
23.4894924533
 21
80.5300229978
 31
0.0
  0
LINE
  5
80
100
AcDbEntity
  8
LAYER0
 62
         4
100
AcDbLine
 10
33.7004050972
 20
103.5300228786
 30
0.0
 11
24.6894924533
 21
103.5300228786
 31
0.0
  0
ARC
  5
81
100
AcDbEntity
  8
LAYER0
 62
         4
100
AcDbCircle
 10
36.5894922298
 20
102.0551489806
 30
0.0
 40
1.0
210
0.0
220
0.0
230
1.0
100
AcDbArc
 50
135.0000023029
 51
180.0000030705
  0
ARC
  5
82
100
AcDbEntity
  8
LAYER0
 62
         4
100
AcDbCircle
 10
42.5894925278
 20
86.5300228637
 30
0.0
 40
12.0
210
-0.0
220
0.0
230
1.0
100
AcDbArc
 50
269.9999984648
 51
0.0
  0
ARC
  5
83
100
AcDbEntity
  8
LAYER0
 62
         4
100
AcDbCircle
 10
42.5894925278
 20
86.5300228637
 30
0.0
 40
11.0
210
-0.0
220
0.0
230
1.0
100
AcDbArc
 50
269.9999984648
 51
0.0
  0
ARC
  5
84
100
AcDbEntity
  8
LAYER0
 62
         4
100
AcDbCircle
 10
37.0894924533
 20
107.2300230127
 30
0.0
 40
2.3
210
0.0
220
-0.0
230
1.0
100
AcDbArc
 50
0.0
 51
90.0000015352
  0
LINE
  5
85
100
AcDbEntity
  8
LAYER0
 62
         4
100
AcDbLine
 10
39.3894924533
 20
107.2300230127
 30
0.0
 11
39.3894924533
 21
106.89068311
 31
0.0
  0
ARC
  5
86
100
AcDbEntity
  8
LAYER0
 62
         4
100
AcDbCircle
 10
37.8894924533
 20
106.89068311
 30
0.0
 40
1.5
210
-0.0
220
0.0
230
1.0
100
AcDbArc
 50
314.9999992324
 51
0.0
  0
LINE
  5
87
100
AcDbEntity
  8
LAYER0
 62
         4
100
AcDbLine
 10
38.8894924533
 20
76.0300228637
 30
0.0
 11
38.8894924533
 21
76.8379919166
 31
0.0
  0
ARC
  5
88
100
AcDbEntity
  8
LAYER0
 62
         4
100
AcDbCircle
 10
37.0894924533
 20
76.8379919166
 30
0.0
 40
1.8
210
0.0
220
0.0
230
1.0
100
AcDbArc
 50
0.0
 51
45.0000007676
  0
ARC
  5
89
100
AcDbEntity
  8
LAYER0
 62
         4
100
AcDbCircle
 10
53.0894925278
 20
89.5300229382
 30
0.0
 40
0.5
210
0.0
220
-0.0
230
1.0
100
AcDbArc
 50
0.0
 51
90.0000015352
  0
ARC
  5
8A
100
AcDbEntity
  8
LAYER0
 62
         4
100
AcDbCircle
 10
39.3894924533
 20
76.0300228637
 30
0.0
 40
0.5
210
0.0
220
0.0
230
1.0
100
AcDbArc
 50
180.0000030705
 51
269.9999984648
  0
ARC
  5
8B
100
AcDbEntity
  8
LAYER0
 62
         4
100
AcDbCircle
 10
10.0894923788
 20
78.0300228637
 30
0.0
 40
3.5
210
0.0
220
0.0
230
1.0
100
AcDbArc
 50
180.0000030705
 51
269.9999984648
  0
ARC
  5
8C
100
AcDbEntity
  8
LAYER0
 62
         4
100
AcDbCircle
 10
10.0894923788
 20
106.0300230127
 30
0.0
 40
3.5
210
0.0
220
0.0
230
1.0
100
AcDbArc
 50
90.0000015352
 51
180.0000030705
  0
ARC
  5
8D
100
AcDbEntity
  8
LAYER0
 62
         4
100
AcDbCircle
 10
35.8894922298
 20
91.3300229382
 30
0.0
 40
0.3
210
0.0
220
0.0
230
1.0
100
AcDbArc
 50
180.0000030705
 51
269.9999984648
  0
ARC
  5
8E
100
AcDbEntity
  8
LAYER0
 62
         4
100
AcDbCircle
 10
35.8894922298
 20
89.7300229382
 30
0.0
 40
0.3
210
0.0
220
0.0
230
1.0
100
AcDbArc
 50
90.0000015352
 51
180.0000030705
  0
LINE
  5
8F
100
AcDbEntity
  8
LAYER0
 62
         4
100
AcDbLine
 10
43.1156641168
 20
88.8300229382
 30
0.0
 11
47.0633209388
 21
88.8300229382
 31
0.0
  0
LINE
  5
90
100
AcDbEntity
  8
LAYER0
 62
         4
100
AcDbLine
 10
49.0894925278
 20
90.0300229382
 30
0.0
 11
48.0003635101
 21
89.1587197241
 31
0.0
  0
LINE
  5
91
100
AcDbEntity
  8
LAYER0
 62
         4
100
AcDbLine
 10
42.1786215455
 20
89.1587197241
 30
0.0
 11
41.0894925278
 21
90.0300229382
 31
0.0
  0
ARC
  5
92
100
AcDbEntity
  8
LAYER0
 62
         4
100
AcDbCircle
 10
47.0633209388
 20
90.3300229382
 30
0.0
 40
1.5
210
0.0
220
0.0
230
1.0
100
AcDbArc
 50
269.9999984648
 51
308.6598073783
  0
ARC
  5
93
100
AcDbEntity
  8
LAYER0
 62
         4
100
AcDbCircle
 10
43.1156641168
 20
90.3300229382
 30
0.0
 40
1.5
210
0.0
220
0.0
230
1.0
100
AcDbArc
 50
231.3401895512
 51
269.9999984648
  0
LINE
  5
94
100
AcDbEntity
  8
LAYER0
 62
         4
100
AcDbLine
 10
27.5003634356
 20
82.401326212
 30
0.0
 11
28.5894924533
 21
81.5300229978
 31
0.0
  0
ARC
  5
95
100
AcDbEntity
  8
LAYER0
 62
         4
100
AcDbCircle
 10
54.0894925278
 20
90.5300229382
 30
0.0
 40
0.5
210
-0.0
220
-0.0
230
1.0
100
AcDbArc
 50
359.9999984648
 51
90.0000015352
  0
LINE
  5
96
100
AcDbEntity
  8
LAYER0
 62
         4
100
AcDbLine
 10
44.4894925278
 20
91.0300229382
 30
0.0
 11
45.0894925278
 21
90.5300228563
 31
0.0
  0
LINE
  5
97
100
AcDbEntity
  8
LAYER0
 62
         4
100
AcDbLine
 10
45.0894925278
 20
90.5300228563
 30
0.0
 11
45.6894925278
 21
91.0300229382
 31
0.0
  0
LINE
  5
98
100
AcDbEntity
  8
LAYER0
 62
         4
100
AcDbLine
 10
54.0894925278
 20
91.0300229382
 30
0.0
 11
45.6894925278
 21
91.0300229382
 31
0.0
  0
LINE
  5
99
100
AcDbEntity
  8
LAYER0
 62
         4
100
AcDbLine
 10
44.4894925278
 20
91.0300229382
 30
0.0
 11
35.8894922298
 21
91.0300229382
 31
0.0
  0
ARC
  5
9A
100
AcDbEntity
  8
LAYER0
 62
         4
100
AcDbCircle
 10
26.5633208643
 20
81.2300229978
 30
0.0
 40
1.5
210
0.0
220
-0.0
230
1.0
100
AcDbArc
 50
51.3401926217
 51
90.0000015352
  0
LINE
  5
9B
100
AcDbEntity
  8
LAYER0
 62
         4
100
AcDbLine
 10
23.4894924533
 20
82.7300229978
 30
0.0
 11
24.0894924533
 21
82.2300229159
 31
0.0
  0
LINE
  5
9C
100
AcDbEntity
  8
LAYER0
 62
         4
100
AcDbLine
 10
24.0894924533
 20
82.2300229159
 30
0.0
 11
24.6894924533
 21
82.7300229978
 31
0.0
  0
LINE
  5
9D
100
AcDbEntity
  8
LAYER0
 62
         4
100
AcDbLine
 10
26.5633208643
 20
82.7300229978
 30
0.0
 11
24.6894924533
 21
82.7300229978
 31
0.0
  0
LINE
  5
9E
100
AcDbEntity
  8
LAYER0
 62
         4
100
AcDbLine
 10
23.4894924533
 20
82.7300229978
 30
0.0
 11
21.6156640423
 21
82.7300229978
 31
0.0
  0
ARC
  5
9F
100
AcDbEntity
  8
LAYER0
 62
         4
100
AcDbCircle
 10
21.6156640423
 20
81.2300229978
 30
0.0
 40
1.5
210
0.0
220
0.0
230
1.0
100
AcDbArc
 50
90.0000015352
 51
128.6598104488
  0
LINE
  5
A0
100
AcDbEntity
  8
LAYER0
 62
         4
100
AcDbLine
 10
20.678621471
 20
82.401326212
 30
0.0
 11
19.5894924533
 21
81.5300229978
 31
0.0
  0
LINE
  5
A1
100
AcDbEntity
  8
LAYER0
 62
         4
100
AcDbLine
 10
14.7894925129
 20
89.5561945273
 30
0.0
 11
14.7894925129
 21
94.5038513492
 31
0.0
  0
LINE
  5
A2
100
AcDbEntity
  8
LAYER0
 62
         4
100
AcDbLine
 10
14.4607957271
 20
95.4408939205
 30
0.0
 11
13.5894925129
 21
96.5300229382
 31
0.0
  0
LINE
  5
A3
100
AcDbEntity
  8
LAYER0
 62
         4
100
AcDbLine
 10
14.4607957271
 20
88.6191519559
 30
0.0
 11
13.5894925129
 21
87.5300229382
 31
0.0
  0
ARC
  5
A4
100
AcDbEntity
  8
LAYER0
 62
         4
100
AcDbCircle
 10
13.2894925129
 20
89.5561945273
 30
0.0
 40
1.5
210
-0.0
220
0.0
230
1.0
100
AcDbArc
 50
321.3401910864
 51
0.0
  0
ARC
  5
A5
100
AcDbEntity
  8
LAYER0
 62
         4
100
AcDbCircle
 10
13.2894925129
 20
94.5038513492
 30
0.0
 40
1.5
210
0.0
220
0.0
230
1.0
100
AcDbArc
 50
0.0
 51
38.6598089136
  0
LINE
  5
A6
100
AcDbEntity
  8
LAYER0
 62
         4
100
AcDbLine
 10
27.5003634356
 20
101.6587196645
 30
0.0
 11
28.5894924533
 21
102.5300228786
 31
0.0
  0
ARC
  5
A7
100
AcDbEntity
  8
LAYER0
 62
         4
100
AcDbCircle
 10
26.5633208643
 20
102.8300228786
 30
0.0
 40
1.5
210
0.0
220
0.0
230
1.0
100
AcDbArc
 50
269.9999984648
 51
308.6598073783
  0
LINE
  5
A8
100
AcDbEntity
  8
LAYER0
 62
         4
100
AcDbLine
 10
23.4894924533
 20
101.3300228786
 30
0.0
 11
24.0894924533
 21
101.8300229606
 31
0.0
  0
LINE
  5
A9
100
AcDbEntity
  8
LAYER0
 62
         4
100
AcDbLine
 10
24.0894924533
 20
101.8300229606
 30
0.0
 11
24.6894924533
 21
101.3300228786
 31
0.0
  0
LINE
  5
AA
100
AcDbEntity
  8
LAYER0
 62
         4
100
AcDbLine
 10
26.5633208643
 20
101.3300228786
 30
0.0
 11
24.6894924533
 21
101.3300228786
 31
0.0
  0
LINE
  5
AB
100
AcDbEntity
  8
LAYER0
 62
         4
100
AcDbLine
 10
23.4894924533
 20
101.3300228786
 30
0.0
 11
21.6156640423
 21
101.3300228786
 31
0.0
  0
ARC
  5
AC
100
AcDbEntity
  8
LAYER0
 62
         4
100
AcDbCircle
 10
21.6156640423
 20
102.8300228786
 30
0.0
 40
1.5
210
0.0
220
0.0
230
1.0
100
AcDbArc
 50
231.3401895512
 51
269.9999984648
  0
LINE
  5
AD
100
AcDbEntity
  8
LAYER0
 62
         4
100
AcDbLine
 10
20.678621471
 20
101.6587196645
 30
0.0
 11
19.5894924533
 21
102.5300228786
 31
0.0
  0
ARC
  5
AE
100
AcDbEntity
  8
LAYER0
 62
         4
100
AcDbCircle
 10
33.7004050972
 20
105.5300228786
 30
0.0
 40
2.0
210
0.0
220
0.0
230
1.0
100
AcDbArc
 50
270.0000015352
 51
314.9999969295
  0
ARC
  5
AF
100
AcDbEntity
  8
LAYER0
 62
         4
100
AcDbCircle
 10
33.5894922298
 20
101.5300228786
 30
0.0
 40
1.0
210
0.0
220
-0.0
230
1.0
100
AcDbArc
 50
0.0
 51
90.0000015352
  0
ARC
  5
B0
100
AcDbEntity
  8
LAYER0
 62
         4
100
AcDbCircle
 10
33.5894922298
 20
82.5300229978
 30
0.0
 40
1.0
210
-0.0
220
0.0
230
1.0
100
AcDbArc
 50
269.9999984648
 51
0.0
  0
LINE
  5
B1
100
AcDbEntity
  8
LAYER0
 62
         4
100
AcDbLine
 10
34.5894922298
 20
101.5300228786
 30
0.0
 11
34.5894922298
 21
82.5300229978
 31
0.0
  0
ARC
  5
B2
100
AcDbEntity
  8
LAYER0
 62
         4
100
AcDbCircle
 10
36.5894922298
 20
81.2977901147
 30
0.0
 40
1.0
210
0.0
220
0.0
230
1.0
100
AcDbArc
 50
180.0000030705
 51
224.9999976971
  0
ENDBLK
  5
B3
100
AcDbEntity
  8
0
100
AcDbBlockEnd
  0
BLOCK
  5
B7
100
AcDbEntity
  8
0
100
AcDbBlockBegin
  2
CLUMP2
 70
         0
 10
0.0
 20
0.0
 30
0.0
  3

  1

  0
INSERT
  5
B9
100
AcDbEntity
  8
0
100
AcDbBlockReference
  2
CLUMP3
 10
0.0
 20
0.0
 30
0.0
  0
ENDBLK
  5
C9
100
AcDbEntity
  8
0
100
AcDbBlockEnd
  0
BLOCK
  5
BA
100
AcDbEntity
  8
0
100
AcDbBlockBegin
  2
CLUMP3
 70
         0
 10
0.0
 20
0.0
 30
0.0
  3

  1

  0
LINE
  5
BB
100
AcDbEntity
  8
LAYER0
 62
         5
100
AcDbLine
 10
5.5894923788
 20
99.3300225508
 30
0.0
 11
5.5894923788
 21
84.7300233256
 31
0.0
  0
LINE
  5
BC
100
AcDbEntity
  8
LAYER0
 62
         5
100
AcDbLine
 10
12.5894925129
 20
83.2300233256
 30
0.0
 11
7.0894923788
 21
83.2300233256
 31
0.0
  0
LINE
  5
BD
100
AcDbEntity
  8
LAYER0
 62
         5
100
AcDbLine
 10
12.5894925129
 20
100.8300225508
 30
0.0
 11
7.0894923788
 21
100.8300225508
 31
0.0
  0
LINE
  5
BE
100
AcDbEntity
  8
LAYER0
 62
         5
100
AcDbLine
 10
12.5894925129
 20
83.2300233256
 30
0.0
 11
12.5894925129
 21
84.7300233256
 31
0.0
  0
LINE
  5
BF
100
AcDbEntity
  8
LAYER0
 62
         5
100
AcDbLine
 10
12.5894925129
 20
83.2300233256
 30
0.0
 11
12.5894925129
 21
100.8300225508
 31
0.0
  0
ARC
  5
C0
100
AcDbEntity
  8
LAYER0
 62
         5
100
AcDbCircle
 10
7.0894923788
 20
84.7300233256
 30
0.0
 40
1.5
210
0.0
220
0.0
230
1.0
100
AcDbArc
 50
179.9999969295
 51
269.9999984648
  0
ARC
  5
C1
100
AcDbEntity
  8
LAYER0
 62
         5
100
AcDbCircle
 10
7.0894923788
 20
99.3300225508
 30
0.0
 40
1.5
210
0.0
220
0.0
230
1.0
100
AcDbArc
 50
90.0000015352
 51
179.9999969295
  0
LINE
  5
C2
100
AcDbEntity
  8
LAYER0
 62
         5
100
AcDbLine
 10
5.0894923788
 20
97.0300229382
 30
0.0
 11
5.5894923788
 21
97.0300229382
 31
0.0
  0
LINE
  5
C3
100
AcDbEntity
  8
LAYER0
 62
         5
100
AcDbLine
 10
5.0894923788
 20
98.8300229382
 30
0.0
 11
5.5894923788
 21
98.8300229382
 31
0.0
  0
LINE
  5
C4
100
AcDbEntity
  8
LAYER0
 62
         5
100
AcDbLine
 10
5.0894923788
 20
97.0300229382
 30
0.0
 11
5.0894923788
 21
98.8300229382
 31
0.0
  0
LINE
  5
C5
100
AcDbEntity
  8
LAYER0
 62
         5
100
AcDbLine
 10
5.0894923788
 20
87.0300229382
 30
0.0
 11
5.5894923788
 21
87.0300229382
 31
0.0
  0
LINE
  5
C6
100
AcDbEntity
  8
LAYER0
 62
         5
100
AcDbLine
 10
5.0894923788
 20
85.2300229382
 30
0.0
 11
5.5894923788
 21
85.2300229382
 31
0.0
  0
LINE
  5
C7
100
AcDbEntity
  8
LAYER0
 62
         5
100
AcDbLine
 10
5.0894923788
 20
87.0300229382
 30
0.0
 11
5.0894923788
 21
85.2300229382
 31
0.0
  0
ENDBLK
  5
C8
100
AcDbEntity
  8
0
100
AcDbBlockEnd
  0
BLOCK
  5
16E
100
AcDbEntity
  8
0
100
AcDbBlockBegin
  2
CLUMP4
 70
         0
 10
0.0
 20
0.0
 30
0.0
  3

  1

  0
INSERT
  5
170
100
AcDbEntity
  8
0
100
AcDbBlockReference
  2
CLUMP5
 10
0.0
 20
0.0
 30
0.0
  0
ENDBLK
  5
180
100
AcDbEntity
  8
0
100
AcDbBlockEnd
  0
BLOCK
  5
171
100
AcDbEntity
  8
0
100
AcDbBlockBegin
  2
CLUMP5
 70
         0
 10
0.0
 20
0.0
 30
0.0
  3

  1

  0
CIRCLE
  5
172
100
AcDbEntity
  8
LAYER3
 62
         2
100
AcDbCircle
 10
-13.9105076957
 20
-95.2699769053
 30
0.0
 40
3.5
210
0.0
220
0.0
230
1.0
  0
ARC
  5
173
100
AcDbEntity
  8
LAYER3
 62
         2
100
AcDbCircle
 10
-13.9105076957
 20
-95.2699769053
 30
0.0
 40
1.7
210
0.0
220
-0.0
230
1.0
100
AcDbArc
 50
72.8953660668
 51
107.1046370037
  0
ARC
  5
174
100
AcDbEntity
  8
LAYER3
 62
         2
100
AcDbCircle
 10
-13.9105076957
 20
-95.2699769053
 30
0.0
 40
1.7
210
0.0
220
0.0
230
1.0
100
AcDbArc
 50
162.8953676021
 51
197.1046323979
  0
ARC
  5
175
100
AcDbEntity
  8
LAYER3
 62
         2
100
AcDbCircle
 10
-13.9105076957
 20
-95.2699769053
 30
0.0
 40
1.7
210
0.0
220
0.0
230
1.0
100
AcDbArc
 50
252.8953629963
 51
287.1046339332
  0
ARC
  5
176
100
AcDbEntity
  8
LAYER3
 62
         2
100
AcDbCircle
 10
-13.9105076957
 20
-95.2699769053
 30
0.0
 40
1.7
210
-0.0
220
0.0
230
1.0
100
AcDbArc
 50
342.8953645316
 51
17.1046354684
  0
LINE
  5
177
100
AcDbEntity
  8
LAYER3
 62
         2
100
AcDbLine
 10
-13.4105076957
 20
-93.6451692244
 30
0.0
 11
-13.4105076957
 21
-94.7699769053
 31
0.0
  0
LINE
  5
178
100
AcDbEntity
  8
LAYER3
 62
         2
100
AcDbLine
 10
-13.4105076957
 20
-95.7699769053
 30
0.0
 11
-13.4105076957
 21
-96.8947845862
 31
0.0
  0
LINE
  5
179
100
AcDbEntity
  8
LAYER3
 62
         2
100
AcDbLine
 10
-14.4105076957
 20
-93.6451692244
 30
0.0
 11
-14.4105076957
 21
-94.7699769053
 31
0.0
  0
LINE
  5
17A
100
AcDbEntity
  8
LAYER3
 62
         2
100
AcDbLine
 10
-14.4105076957
 20
-95.7699769053
 30
0.0
 11
-14.4105076957
 21
-96.8947845862
 31
0.0
  0
LINE
  5
17B
100
AcDbEntity
  8
LAYER3
 62
         2
100
AcDbLine
 10
-12.2857000148
 20
-95.7699769053
 30
0.0
 11
-13.4105076957
 21
-95.7699769053
 31
0.0
  0
LINE
  5
17C
100
AcDbEntity
  8
LAYER3
 62
         2
100
AcDbLine
 10
-14.4105076957
 20
-95.7699769053
 30
0.0
 11
-15.5353153766
 21
-95.7699769053
 31
0.0
  0
LINE
  5
17D
100
AcDbEntity
  8
LAYER3
 62
         2
100
AcDbLine
 10
-12.2857000148
 20
-94.7699769053
 30
0.0
 11
-13.4105076957
 21
-94.7699769053
 31
0.0
  0
LINE
  5
17E
100
AcDbEntity
  8
LAYER3
 62
         2
100
AcDbLine
 10
-14.4105076957
 20
-94.7699769053
 30
0.0
 11
-15.5353153766
 21
-94.7699769053
 31
0.0
  0
ENDBLK
  5
17F
100
AcDbEntity
  8
0
100
AcDbBlockEnd
  0
BLOCK
  5
183
100
AcDbEntity
  8
0
100
AcDbBlockBegin
  2
CLUMP6
 70
         0
 10
0.0
 20
0.0
 30
0.0
  3

  1

  0
INSERT
  5
185
100
AcDbEntity
  8
0
100
AcDbBlockReference
  2
CLUMP7
 10
0.0
 20
0.0
 30
0.0
  0
ENDBLK
  5
195
100
AcDbEntity
  8
0
100
AcDbBlockEnd
  0
BLOCK
  5
186
100
AcDbEntity
  8
0
100
AcDbBlockBegin
  2
CLUMP7
 70
         0
 10
0.0
 20
0.0
 30
0.0
  3

  1

  0
CIRCLE
  5
187
100
AcDbEntity
  8
LAYER3
 62
         2
100
AcDbCircle
 10
-13.9105076957
 20
-108.2699769053
 30
0.0
 40
3.5
210
0.0
220
0.0
230
1.0
  0
ARC
  5
188
100
AcDbEntity
  8
LAYER3
 62
         2
100
AcDbCircle
 10
-13.9105076957
 20
-108.2699769053
 30
0.0
 40
1.7
210
0.0
220
-0.0
230
1.0
100
AcDbArc
 50
72.8953660668
 51
107.1046370037
  0
ARC
  5
189
100
AcDbEntity
  8
LAYER3
 62
         2
100
AcDbCircle
 10
-13.9105076957
 20
-108.2699769053
 30
0.0
 40
1.7
210
0.0
220
0.0
230
1.0
100
AcDbArc
 50
162.8953676021
 51
197.1046323979
  0
ARC
  5
18A
100
AcDbEntity
  8
LAYER3
 62
         2
100
AcDbCircle
 10
-13.9105076957
 20
-108.2699769053
 30
0.0
 40
1.7
210
0.0
220
0.0
230
1.0
100
AcDbArc
 50
252.8953629963
 51
287.1046339332
  0
ARC
  5
18B
100
AcDbEntity
  8
LAYER3
 62
         2
100
AcDbCircle
 10
-13.9105076957
 20
-108.2699769053
 30
0.0
 40
1.7
210
-0.0
220
0.0
230
1.0
100
AcDbArc
 50
342.8953645316
 51
17.1046354684
  0
LINE
  5
18C
100
AcDbEntity
  8
LAYER3
 62
         2
100
AcDbLine
 10
-13.4105076957
 20
-106.6451692244
 30
0.0
 11
-13.4105076957
 21
-107.7699769053
 31
0.0
  0
LINE
  5
18D
100
AcDbEntity
  8
LAYER3
 62
         2
100
AcDbLine
 10
-13.4105076957
 20
-108.7699769053
 30
0.0
 11
-13.4105076957
 21
-109.8947845862
 31
0.0
  0
LINE
  5
18E
100
AcDbEntity
  8
LAYER3
 62
         2
100
AcDbLine
 10
-14.4105076957
 20
-106.6451692244
 30
0.0
 11
-14.4105076957
 21
-107.7699769053
 31
0.0
  0
LINE
  5
18F
100
AcDbEntity
  8
LAYER3
 62
         2
100
AcDbLine
 10
-14.4105076957
 20
-108.7699769053
 30
0.0
 11
-14.4105076957
 21
-109.8947845862
 31
0.0
  0
LINE
  5
190
100
AcDbEntity
  8
LAYER3
 62
         2
100
AcDbLine
 10
-12.2857000148
 20
-108.7699769053
 30
0.0
 11
-13.4105076957
 21
-108.7699769053
 31
0.0
  0
LINE
  5
191
100
AcDbEntity
  8
LAYER3
 62
         2
100
AcDbLine
 10
-14.4105076957
 20
-108.7699769053
 30
0.0
 11
-15.5353153766
 21
-108.7699769053
 31
0.0
  0
LINE
  5
192
100
AcDbEntity
  8
LAYER3
 62
         2
100
AcDbLine
 10
-12.2857000148
 20
-107.7699769053
 30
0.0
 11
-13.4105076957
 21
-107.7699769053
 31
0.0
  0
LINE
  5
193
100
AcDbEntity
  8
LAYER3
 62
         2
100
AcDbLine
 10
-14.4105076957
 20
-107.7699769053
 30
0.0
 11
-15.5353153766
 21
-107.7699769053
 31
0.0
  0
ENDBLK
  5
194
100
AcDbEntity
  8
0
100
AcDbBlockEnd
  0
BLOCK
  5
19C
100
AcDbEntity
  8
0
100
AcDbBlockBegin
  2
CLUMP8
 70
         0
 10
0.0
 20
0.0
 30
0.0
  3

  1

  0
INSERT
  5
19E
100
AcDbEntity
  8
0
100
AcDbBlockReference
  2
CLUMP9
 10
0.0
 20
0.0
 30
0.0
  0
ENDBLK
  5
1A6
100
AcDbEntity
  8
0
100
AcDbBlockEnd
  0
BLOCK
  5
19F
100
AcDbEntity
  8
0
100
AcDbBlockBegin
  2
CLUMP9
 70
         0
 10
0.0
 20
0.0
 30
0.0
  3

  1

  0
MTEXT
  5
1A0
100
AcDbEntity
  8
LAYER0
100
AcDbMText
 10
-21.2976156957
 20
-33.7263528163
 30
0.0
 40
2.1473683357
 41
15.3878759766
 71
         1
 72
         1
  1
\W0.8;外れ防止バー
  0
LINE
  5
1A1
100
AcDbEntity
  8
LAYER0
100
AcDbLine
 10
-21.5976156957
 20
-36.8140115077
 30
0.0
 11
-6.5976156957
 21
-36.8140115077
 31
0.0
  0
LINE
  5
1A2
100
AcDbEntity
  8
LAYER0
100
AcDbLine
 10
-6.5976156957
 20
-36.8140115077
 30
0.0
 11
-6.5976156957
 21
-33.2140115077
 31
0.0
  0
LINE
  5
1A3
100
AcDbEntity
  8
LAYER0
100
AcDbLine
 10
-21.5976156957
 20
-33.2140115077
 30
0.0
 11
-6.5976156957
 21
-33.2140115077
 31
0.0
  0
LINE
  5
1A4
100
AcDbEntity
  8
LAYER0
100
AcDbLine
 10
-21.5976156957
 20
-36.8140115077
 30
0.0
 11
-21.5976156957
 21
-33.2140115077
 31
0.0
  0
ENDBLK
  5
1A5
100
AcDbEntity
  8
0
100
AcDbBlockEnd
  0
BLOCK
  5
1ED
100
AcDbEntity
  8
0
100
AcDbBlockBegin
  2
CLUMP10
 70
         0
 10
0.0
 20
0.0
 30
0.0
  3

  1

  0
INSERT
  5
1EF
100
AcDbEntity
  8
0
100
AcDbBlockReference
  2
CLUMP11
 10
0.0
 20
0.0
 30
0.0
  0
ENDBLK
  5
1F7
100
AcDbEntity
  8
0
100
AcDbBlockEnd
  0
BLOCK
  5
1F0
100
AcDbEntity
  8
0
100
AcDbBlockBegin
  2
CLUMP11
 70
         0
 10
0.0
 20
0.0
 30
0.0
  3

  1

  0
MTEXT
  5
1F1
100
AcDbEntity
  8
LAYER0
100
AcDbMText
 10
-3.314664545
 20
-78.0103440032
 30
0.0
 40
2.1473683357
 41
12.8232299805
 71
         1
 72
         1
  1
\W0.8;ロックバー
  0
LINE
  5
1F2
100
AcDbEntity
  8
LAYER0
100
AcDbLine
 10
-3.614664545
 20
-81.0980026946
 30
0.0
 11
8.985335455
 21
-81.0980026946
 31
0.0
  0
LINE
  5
1F3
100
AcDbEntity
  8
LAYER0
100
AcDbLine
 10
8.985335455
 20
-81.0980026946
 30
0.0
 11
8.985335455
 21
-77.4980026946
 31
0.0
  0
LINE
  5
1F4
100
AcDbEntity
  8
LAYER0
100
AcDbLine
 10
-3.614664545
 20
-77.4980026946
 30
0.0
 11
8.985335455
 21
-77.4980026946
 31
0.0
  0
LINE
  5
1F5
100
AcDbEntity
  8
LAYER0
100
AcDbLine
 10
-3.614664545
 20
-81.0980026946
 30
0.0
 11
-3.614664545
 21
-77.4980026946
 31
0.0
  0
ENDBLK
  5
1F6
100
AcDbEntity
  8
0
100
AcDbBlockEnd
  0
BLOCK
  5
1FC
100
AcDbEntity
  8
0
100
AcDbBlockBegin
  2
CLUMP12
 70
         0
 10
0.0
 20
0.0
 30
0.0
  3

  1

  0
INSERT
  5
1FE
100
AcDbEntity
  8
0
100
AcDbBlockReference
  2
CLUMP13
 10
0.0
 20
0.0
 30
0.0
  0
ENDBLK
  5
279
100
AcDbEntity
  8
0
100
AcDbBlockEnd
  0
BLOCK
  5
1FF
100
AcDbEntity
  8
0
100
AcDbBlockBegin
  2
CLUMP13
 70
         0
 10
0.0
 20
0.0
 30
0.0
  3

  1

  0
LINE
  5
200
100
AcDbEntity
  8
LAYER0
 62
         4
100
AcDbLine
 10
-2.8853814894
 20
79.9442365602
 30
0.0
 11
-0.3368532179
 21
77.3957082887
 31
0.0
  0
LINE
  5
201
100
AcDbEntity
  8
LAYER0
 62
         4
100
AcDbLine
 10
2.0894923788
 20
83.0300233256
 30
0.0
 11
2.0894923788
 21
79.0220538854
 31
0.0
  0
LINE
  5
202
100
AcDbEntity
  8
LAYER0
 62
         4
100
AcDbLine
 10
-1.8247213177
 20
81.004896732
 30
0.0
 11
0.7238069539
 21
78.4563684605
 31
0.0
  0
LINE
  5
203
100
AcDbEntity
  8
LAYER0
 62
         4
100
AcDbLine
 10
-13.3105076957
 20
80.5300229978
 30
0.0
 11
-4.2995950518
 21
80.5300229978
 31
0.0
  0
LINE
  5
204
100
AcDbEntity
  8
LAYER0
 62
         4
100
AcDbLine
 10
-4.9105080831
 20
76.0300228637
 30
0.0
 11
-4.9105080831
 21
75.0300220143
 31
0.0
  0
ARC
  5
205
100
AcDbEntity
  8
LAYER0
 62
         4
100
AcDbCircle
 10
-4.4105076957
 20
75.0300229382
 30
0.0
 40
0.5
210
0.0
220
0.0
230
1.0
100
AcDbArc
 50
179.9999984648
 51
269.9999953943
  0
LINE
  5
206
100
AcDbEntity
  8
LAYER0
 62
         4
100
AcDbLine
 10
-4.4105080011
 20
74.5300228637
 30
0.0
 11
0.0894923788
 21
74.5300228637
 31
0.0
  0
LINE
  5
207
100
AcDbEntity
  8
LAYER0
 62
         4
100
AcDbLine
 10
-4.2995950518
 20
103.5300228786
 30
0.0
 11
-13.3105076957
 21
103.5300228786
 31
0.0
  0
LINE
  5
208
100
AcDbEntity
  8
LAYER0
 62
         4
100
AcDbLine
 10
3.5894923788
 20
78.0300228637
 30
0.0
 11
3.5894923788
 21
82.5300232437
 31
0.0
  0
ARC
  5
209
100
AcDbEntity
  8
LAYER0
 62
         4
100
AcDbCircle
 10
3.0894923043
 20
82.5300229382
 30
0.0
 40
0.5
210
-0.0
220
-0.0
230
1.0
100
AcDbArc
 50
359.9999984648
 51
90.0000015352
  0
LINE
  5
20A
100
AcDbEntity
  8
LAYER0
 62
         4
100
AcDbLine
 10
3.0894932282
 20
83.0300233256
 30
0.0
 11
2.0894923788
 21
83.0300233256
 31
0.0
  0
LINE
  5
20B
100
AcDbEntity
  8
LAYER0
 62
         4
100
AcDbLine
 10
-2.4105077553
 20
82.4191102944
 30
0.0
 11
-2.4105077553
 21
91.4300229382
 31
0.0
  0
LINE
  5
20C
100
AcDbEntity
  8
LAYER0
 62
         4
100
AcDbLine
 10
-2.4105077553
 20
91.4300229382
 30
0.0
 11
-2.9105078372
 21
92.0300229382
 31
0.0
  0
LINE
  5
20D
100
AcDbEntity
  8
LAYER0
 62
         4
100
AcDbLine
 10
-2.9105078372
 20
92.0300229382
 30
0.0
 11
-2.4105077553
 21
92.6300229382
 31
0.0
  0
LINE
  5
20E
100
AcDbEntity
  8
LAYER0
 62
         4
100
AcDbLine
 10
-4.9105080831
 20
108.0300230127
 30
0.0
 11
-4.9105080831
 21
109.0300238621
 31
0.0
  0
ARC
  5
20F
100
AcDbEntity
  8
LAYER0
 62
         4
100
AcDbCircle
 10
-4.4105076957
 20
109.0300229382
 30
0.0
 40
0.5
210
0.0
220
0.0
230
1.0
100
AcDbArc
 50
90.0000015352
 51
179.9999984648
  0
LINE
  5
210
100
AcDbEntity
  8
LAYER0
 62
         4
100
AcDbLine
 10
-4.4105080011
 20
109.5300230127
 30
0.0
 11
0.0894923788
 21
109.5300230127
 31
0.0
  0
LINE
  5
211
100
AcDbEntity
  8
LAYER0
 62
         4
100
AcDbLine
 10
3.5894923788
 20
106.0300230127
 30
0.0
 11
3.5894923788
 21
101.5300226328
 31
0.0
  0
ARC
  5
212
100
AcDbEntity
  8
LAYER0
 62
         4
100
AcDbCircle
 10
3.0894923043
 20
101.5300229382
 30
0.0
 40
0.5
210
0.0
220
0.0
230
1.0
100
AcDbArc
 50
269.9999953943
 51
359.9999984648
  0
LINE
  5
213
100
AcDbEntity
  8
LAYER0
 62
         4
100
AcDbLine
 10
3.0894932282
 20
101.0300225508
 30
0.0
 11
2.0894923788
 21
101.0300225508
 31
0.0
  0
LINE
  5
214
100
AcDbEntity
  8
LAYER0
 62
         4
100
AcDbLine
 10
-23.8749737302
 20
80.5300229978
 30
0.0
 11
-14.5105076957
 21
80.5300229978
 31
0.0
  0
LINE
  5
215
100
AcDbEntity
  8
LAYER0
 62
         4
100
AcDbLine
 10
-2.4105077553
 20
101.6409355821
 30
0.0
 11
-2.4105077553
 21
92.6300229382
 31
0.0
  0
ARC
  5
216
100
AcDbEntity
  8
LAYER0
 62
         4
100
AcDbCircle
 10
-4.2995950518
 20
78.5300229978
 30
0.0
 40
2.0
210
0.0
220
-0.0
230
1.0
100
AcDbArc
 50
45.0
 51
90.0000015352
  0
ARC
  5
217
100
AcDbEntity
  8
LAYER0
 62
         4
100
AcDbCircle
 10
-0.4105077553
 20
82.4191102944
 30
0.0
 40
2.0
210
0.0
220
0.0
230
1.0
100
AcDbArc
 50
179.9999984648
 51
225.0
  0
ARC
  5
218
100
AcDbEntity
  8
LAYER0
 62
         4
100
AcDbCircle
 10
-0.4105077553
 20
101.6409355821
 30
0.0
 40
2.0
210
0.0
220
0.0
230
1.0
100
AcDbArc
 50
135.0000030705
 51
179.9999984648
  0
ARC
  5
219
100
AcDbEntity
  8
LAYER0
 62
         4
100
AcDbCircle
 10
-4.2995950518
 20
105.5300228786
 30
0.0
 40
2.0
210
0.0
220
0.0
230
1.0
100
AcDbArc
 50
270.0000015352
 51
314.9999969295
  0
ARC
  5
21A
100
AcDbEntity
  8
LAYER0
 62
         4
100
AcDbCircle
 10
-0.9025386429
 20
107.2300230127
 30
0.0
 40
0.8
210
-0.0
220
-0.0
230
1.0
100
AcDbArc
 50
314.9999969295
 51
90.0000015352
  0
ARC
  5
21B
100
AcDbEntity
  8
LAYER0
 62
         4
100
AcDbCircle
 10
1.2894923788
 20
105.0379919911
 30
0.0
 40
0.8
210
-0.0
220
-0.0
230
1.0
100
AcDbArc
 50
359.9999984648
 51
135.0000030705
  0
ARC
  5
21C
100
AcDbEntity
  8
LAYER0
 62
         4
100
AcDbCircle
 10
-0.9025386429
 20
76.8300228637
 30
0.0
 40
0.8
210
-0.0
220
0.0
230
1.0
100
AcDbArc
 50
270.0000015352
 51
45.0
  0
ARC
  5
21D
100
AcDbEntity
  8
LAYER0
 62
         4
100
AcDbCircle
 10
1.2894923788
 20
79.0220538854
 30
0.0
 40
0.8
210
0.0
220
0.0
230
1.0
100
AcDbArc
 50
225.0
 51
359.9999984648
  0
LINE
  5
21E
100
AcDbEntity
  8
LAYER0
 62
         4
100
AcDbLine
 10
-26.9184767485
 20
108.0300230127
 30
0.0
 11
-22.9105073083
 21
108.0300230127
 31
0.0
  0
LINE
  5
21F
100
AcDbEntity
  8
LAYER0
 62
         4
100
AcDbLine
 10
-26.9184767485
 20
76.0300228637
 30
0.0
 11
-22.9105073083
 21
76.0300228637
 31
0.0
  0
LINE
  5
220
100
AcDbEntity
  8
LAYER0
 62
         4
100
AcDbLine
 10
-22.9105073083
 20
76.0300228637
 30
0.0
 11
-22.9105073083
 21
75.0300220143
 31
0.0
  0
ARC
  5
221
100
AcDbEntity
  8
LAYER0
 62
         4
100
AcDbCircle
 10
-23.4105076957
 20
75.0300229382
 30
0.0
 40
0.5
210
0.0
220
0.0
230
1.0
100
AcDbArc
 50
270.0000015352
 51
359.9999984648
  0
LINE
  5
222
100
AcDbEntity
  8
LAYER0
 62
         4
100
AcDbLine
 10
-23.4105073902
 20
74.5300228637
 30
0.0
 11
-32.4105077702
 21
74.5300228637
 31
0.0
  0
LINE
  5
223
100
AcDbEntity
  8
LAYER0
 62
         4
100
AcDbLine
 10
-22.9105073083
 20
108.0300230127
 30
0.0
 11
-22.9105073083
 21
109.0300238621
 31
0.0
  0
ARC
  5
224
100
AcDbEntity
  8
LAYER0
 62
         4
100
AcDbCircle
 10
-23.4105076957
 20
109.0300229382
 30
0.0
 40
0.5
210
-0.0
220
-0.0
230
1.0
100
AcDbArc
 50
359.9999984648
 51
90.0000015352
  0
LINE
  5
225
100
AcDbEntity
  8
LAYER0
 62
         4
100
AcDbLine
 10
-23.4105073902
 20
109.5300230127
 30
0.0
 11
-26.9105076957
 21
109.5300230127
 31
0.0
  0
LINE
  5
226
100
AcDbEntity
  8
LAYER0
 62
         4
100
AcDbLine
 10
-44.4105077702
 20
86.5300228637
 30
0.0
 11
-44.4105077702
 21
90.5300229382
 31
0.0
  0
LINE
  5
227
100
AcDbEntity
  8
LAYER0
 62
         4
100
AcDbLine
 10
-25.703400691
 20
102.7622557618
 30
0.0
 11
-28.7711678675
 21
105.8300229382
 31
0.0
  0
LINE
  5
228
100
AcDbEntity
  8
LAYER0
 62
         4
100
AcDbLine
 10
-4.9105080831
 20
108.0300230127
 30
0.0
 11
-0.9025386429
 21
108.0300230127
 31
0.0
  0
LINE
  5
229
100
AcDbEntity
  8
LAYER0
 62
         4
100
AcDbLine
 10
2.0894923788
 20
101.0300225508
 30
0.0
 11
2.0894923788
 21
105.0379919911
 31
0.0
  0
LINE
  5
22A
100
AcDbEntity
  8
LAYER0
 62
         4
100
AcDbLine
 10
-2.8853814894
 20
104.1158093163
 30
0.0
 11
-0.3368532179
 21
106.6643375878
 31
0.0
  0
LINE
  5
22B
100
AcDbEntity
  8
LAYER0
 62
         4
100
AcDbLine
 10
-1.8247213177
 20
103.0551491445
 30
0.0
 11
0.7238069539
 21
105.603677416
 31
0.0
  0
LINE
  5
22C
100
AcDbEntity
  8
LAYER0
 62
         4
100
AcDbLine
 10
-4.9105080831
 20
76.0300228637
 30
0.0
 11
-0.9025386429
 21
76.0300228637
 31
0.0
  0
LINE
  5
22D
100
AcDbEntity
  8
LAYER0
 62
         4
100
AcDbLine
 10
-25.4105074722
 20
102.0551489806
 30
0.0
 11
-25.4105074722
 21
91.3300229382
 31
0.0
  0
ARC
  5
22E
100
AcDbEntity
  8
LAYER0
 62
         4
100
AcDbCircle
 10
-26.9184767485
 20
107.2300230127
 30
0.0
 40
0.8
210
0.0
220
0.0
230
1.0
100
AcDbArc
 50
90.0000015352
 51
225.0
  0
LINE
  5
22F
100
AcDbEntity
  8
LAYER0
 62
         4
100
AcDbLine
 10
-24.9356339019
 20
104.1158093163
 30
0.0
 11
-27.4841621735
 21
106.6643375878
 31
0.0
  0
LINE
  5
230
100
AcDbEntity
  8
LAYER0
 62
         4
100
AcDbLine
 10
-23.4105074722
 20
81.5300229978
 30
0.0
 11
-18.4105076957
 21
81.5300229978
 31
0.0
  0
LINE
  5
231
100
AcDbEntity
  8
LAYER0
 62
         4
100
AcDbLine
 10
-25.4105074722
 20
89.7300229382
 30
0.0
 11
-25.4105074722
 21
81.2977901147
 31
0.0
  0
LINE
  5
232
100
AcDbEntity
  8
LAYER0
 62
         4
100
AcDbLine
 10
-30.9105077702
 20
90.0300229382
 30
0.0
 11
-25.7105074722
 21
90.0300229382
 31
0.0
  0
LINE
  5
233
100
AcDbEntity
  8
LAYER0
 62
         4
100
AcDbLine
 10
-32.4105077702
 20
75.5300228637
 30
0.0
 11
-29.2105076957
 21
75.5300228637
 31
0.0
  0
LINE
  5
234
100
AcDbEntity
  8
LAYER0
 62
         4
100
AcDbLine
 10
-42.9105077702
 20
90.0300229382
 30
0.0
 11
-38.9105077702
 21
90.0300229382
 31
0.0
  0
LINE
  5
235
100
AcDbEntity
  8
LAYER0
 62
         4
100
AcDbLine
 10
-43.4105077702
 20
86.5300228637
 30
0.0
 11
-43.4105077702
 21
89.5300229382
 31
0.0
  0
LINE
  5
236
100
AcDbEntity
  8
LAYER0
 62
         4
100
AcDbLine
 10
-23.4105074722
 20
102.5300228786
 30
0.0
 11
-18.4105076957
 21
102.5300228786
 31
0.0
  0
LINE
  5
237
100
AcDbEntity
  8
LAYER0
 62
         4
100
AcDbLine
 10
-4.4105077553
 20
81.5300229978
 30
0.0
 11
-9.4105076957
 21
81.5300229978
 31
0.0
  0
LINE
  5
238
100
AcDbEntity
  8
LAYER0
 62
         4
100
AcDbLine
 10
-4.4105077553
 20
102.5300228786
 30
0.0
 11
-9.4105076957
 21
102.5300228786
 31
0.0
  0
LINE
  5
239
100
AcDbEntity
  8
LAYER0
 62
         4
100
AcDbLine
 10
-3.4105077553
 20
101.5300228786
 30
0.0
 11
-3.4105077553
 21
96.5300229382
 31
0.0
  0
LINE
  5
23A
100
AcDbEntity
  8
LAYER0
 62
         4
100
AcDbLine
 10
-3.4105077553
 20
87.5300229382
 30
0.0
 11
-3.4105077553
 21
82.5300229978
 31
0.0
  0
ARC
  5
23B
100
AcDbEntity
  8
LAYER0
 62
         4
100
AcDbCircle
 10
-4.4105077553
 20
101.5300228786
 30
0.0
 40
1.0
210
0.0
220
-0.0
230
1.0
100
AcDbArc
 50
0.0
 51
90.0000015352
  0
ARC
  5
23C
100
AcDbEntity
  8
LAYER0
 62
         4
100
AcDbCircle
 10
-4.4105077553
 20
82.5300229978
 30
0.0
 40
1.0
210
-0.0
220
0.0
230
1.0
100
AcDbArc
 50
269.9999984648
 51
0.0
  0
LINE
  5
23D
100
AcDbEntity
  8
LAYER0
 62
         4
100
AcDbLine
 10
-24.6427406831
 20
80.237129779
 30
0.0
 11
-27.4841621735
 21
77.3957082887
 31
0.0
  0
ARC
  5
23E
100
AcDbEntity
  8
LAYER0
 62
         4
100
AcDbCircle
 10
-23.9356339019
 20
79.5300229978
 30
0.0
 40
1.0
210
0.0
220
-0.0
230
1.0
100
AcDbArc
 50
89.9999984648
 51
135.0
  0
ARC
  5
23F
100
AcDbEntity
  8
LAYER0
 62
         4
100
AcDbCircle
 10
-26.9184767485
 20
76.8300228637
 30
0.0
 40
0.8
210
0.0
220
0.0
230
1.0
100
AcDbArc
 50
135.0
 51
269.9999984648
  0
LINE
  5
240
100
AcDbEntity
  8
LAYER0
 62
         4
100
AcDbLine
 10
-28.1832999018
 20
78.1107841227
 30
0.0
 11
-25.703400691
 21
80.5906833335
 31
0.0
  0
LINE
  5
241
100
AcDbEntity
  8
LAYER0
 62
         4
100
AcDbLine
 10
-13.3105076957
 20
103.5300228786
 30
0.0
 11
-13.9105076957
 21
103.0300227967
 31
0.0
  0
LINE
  5
242
100
AcDbEntity
  8
LAYER0
 62
         4
100
AcDbLine
 10
-13.9105076957
 20
103.0300227967
 30
0.0
 11
-14.5105076957
 21
103.5300228786
 31
0.0
  0
LINE
  5
243
100
AcDbEntity
  8
LAYER0
 62
         4
100
AcDbLine
 10
-14.5105076957
 20
80.5300229978
 30
0.0
 11
-13.9105076957
 21
81.0300230798
 31
0.0
  0
LINE
  5
244
100
AcDbEntity
  8
LAYER0
 62
         4
100
AcDbLine
 10
-13.9105076957
 20
81.0300230798
 30
0.0
 11
-13.3105076957
 21
80.5300229978
 31
0.0
  0
LINE
  5
245
100
AcDbEntity
  8
LAYER0
 62
         4
100
AcDbLine
 10
-23.5214203396
 20
103.5300228786
 30
0.0
 11
-14.5105076957
 21
103.5300228786
 31
0.0
  0
ARC
  5
246
100
AcDbEntity
  8
LAYER0
 62
         4
100
AcDbCircle
 10
-26.4105074722
 20
102.0551489806
 30
0.0
 40
1.0
210
0.0
220
0.0
230
1.0
100
AcDbArc
 50
0.0
 51
45.0000007676
  0
ARC
  5
247
100
AcDbEntity
  8
LAYER0
 62
         4
100
AcDbCircle
 10
-32.4105077702
 20
86.5300228637
 30
0.0
 40
12.0
210
0.0
220
0.0
230
1.0
100
AcDbArc
 50
179.9999969295
 51
269.9999984648
  0
ARC
  5
248
100
AcDbEntity
  8
LAYER0
 62
         4
100
AcDbCircle
 10
-32.4105077702
 20
86.5300228637
 30
0.0
 40
11.0
210
0.0
220
0.0
230
1.0
100
AcDbArc
 50
179.9999969295
 51
269.9999984648
  0
ARC
  5
249
100
AcDbEntity
  8
LAYER0
 62
         4
100
AcDbCircle
 10
-26.9105076957
 20
107.2300230127
 30
0.0
 40
2.3
210
0.0
220
0.0
230
1.0
100
AcDbArc
 50
90.0000015352
 51
179.9999969295
  0
LINE
  5
24A
100
AcDbEntity
  8
LAYER0
 62
         4
100
AcDbLine
 10
-29.2105076957
 20
107.2300230127
 30
0.0
 11
-29.2105076957
 21
106.89068311
 31
0.0
  0
ARC
  5
24B
100
AcDbEntity
  8
LAYER0
 62
         4
100
AcDbCircle
 10
-27.7105076957
 20
106.89068311
 30
0.0
 40
1.5
210
0.0
220
0.0
230
1.0
100
AcDbArc
 50
179.9999969295
 51
224.9999976971
  0
LINE
  5
24C
100
AcDbEntity
  8
LAYER0
 62
         4
100
AcDbLine
 10
-28.7105076957
 20
76.0300228637
 30
0.0
 11
-28.7105076957
 21
76.8379919166
 31
0.0
  0
ARC
  5
24D
100
AcDbEntity
  8
LAYER0
 62
         4
100
AcDbCircle
 10
-26.9105076957
 20
76.8379919166
 30
0.0
 40
1.8
210
0.0
220
0.0
230
1.0
100
AcDbArc
 50
135.0000023029
 51
179.9999969295
  0
ARC
  5
24E
100
AcDbEntity
  8
LAYER0
 62
         4
100
AcDbCircle
 10
-42.9105077702
 20
89.5300229382
 30
0.0
 40
0.5
210
0.0
220
0.0
230
1.0
100
AcDbArc
 50
90.0000015352
 51
179.9999969295
  0
ARC
  5
24F
100
AcDbEntity
  8
LAYER0
 62
         4
100
AcDbCircle
 10
-29.2105076957
 20
76.0300228637
 30
0.0
 40
0.5
210
-0.0
220
0.0
230
1.0
100
AcDbArc
 50
269.9999984648
 51
0.0
  0
ARC
  5
250
100
AcDbEntity
  8
LAYER0
 62
         4
100
AcDbCircle
 10
0.0894923788
 20
78.0300228637
 30
0.0
 40
3.5
210
-0.0
220
0.0
230
1.0
100
AcDbArc
 50
269.9999984648
 51
0.0
  0
ARC
  5
251
100
AcDbEntity
  8
LAYER0
 62
         4
100
AcDbCircle
 10
0.0894923788
 20
106.0300230127
 30
0.0
 40
3.5
210
0.0
220
-0.0
230
1.0
100
AcDbArc
 50
0.0
 51
90.0000015352
  0
ARC
  5
252
100
AcDbEntity
  8
LAYER0
 62
         4
100
AcDbCircle
 10
-25.7105074722
 20
91.3300229382
 30
0.0
 40
0.3
210
-0.0
220
0.0
230
1.0
100
AcDbArc
 50
269.9999984648
 51
0.0
  0
ARC
  5
253
100
AcDbEntity
  8
LAYER0
 62
         4
100
AcDbCircle
 10
-25.7105074722
 20
89.7300229382
 30
0.0
 40
0.3
210
0.0
220
-0.0
230
1.0
100
AcDbArc
 50
0.0
 51
90.0000015352
  0
LINE
  5
254
100
AcDbEntity
  8
LAYER0
 62
         4
100
AcDbLine
 10
-32.9366793592
 20
88.8300229382
 30
0.0
 11
-36.8843361812
 21
88.8300229382
 31
0.0
  0
LINE
  5
255
100
AcDbEntity
  8
LAYER0
 62
         4
100
AcDbLine
 10
-38.9105077702
 20
90.0300229382
 30
0.0
 11
-37.8213787525
 21
89.1587197241
 31
0.0
  0
LINE
  5
256
100
AcDbEntity
  8
LAYER0
 62
         4
100
AcDbLine
 10
-31.9996367879
 20
89.1587197241
 30
0.0
 11
-30.9105077702
 21
90.0300229382
 31
0.0
  0
ARC
  5
257
100
AcDbEntity
  8
LAYER0
 62
         4
100
AcDbCircle
 10
-36.8843361812
 20
90.3300229382
 30
0.0
 40
1.5
210
0.0
220
0.0
230
1.0
100
AcDbArc
 50
231.3401895512
 51
269.9999984648
  0
ARC
  5
258
100
AcDbEntity
  8
LAYER0
 62
         4
100
AcDbCircle
 10
-32.9366793592
 20
90.3300229382
 30
0.0
 40
1.5
210
0.0
220
0.0
230
1.0
100
AcDbArc
 50
269.9999984648
 51
308.6598073783
  0
LINE
  5
259
100
AcDbEntity
  8
LAYER0
 62
         4
100
AcDbLine
 10
-17.321378678
 20
82.401326212
 30
0.0
 11
-18.4105076957
 21
81.5300229978
 31
0.0
  0
ARC
  5
25A
100
AcDbEntity
  8
LAYER0
 62
         4
100
AcDbCircle
 10
-43.9105077702
 20
90.5300229382
 30
0.0
 40
0.5
210
0.0
220
0.0
230
1.0
100
AcDbArc
 50
90.0000015352
 51
179.9999984648
  0
LINE
  5
25B
100
AcDbEntity
  8
LAYER0
 62
         4
100
AcDbLine
 10
-34.3105077702
 20
91.0300229382
 30
0.0
 11
-34.9105077702
 21
90.5300228563
 31
0.0
  0
LINE
  5
25C
100
AcDbEntity
  8
LAYER0
 62
         4
100
AcDbLine
 10
-34.9105077702
 20
90.5300228563
 30
0.0
 11
-35.5105077702
 21
91.0300229382
 31
0.0
  0
LINE
  5
25D
100
AcDbEntity
  8
LAYER0
 62
         4
100
AcDbLine
 10
-43.9105077702
 20
91.0300229382
 30
0.0
 11
-35.5105077702
 21
91.0300229382
 31
0.0
  0
LINE
  5
25E
100
AcDbEntity
  8
LAYER0
 62
         4
100
AcDbLine
 10
-34.3105077702
 20
91.0300229382
 30
0.0
 11
-25.7105074722
 21
91.0300229382
 31
0.0
  0
ARC
  5
25F
100
AcDbEntity
  8
LAYER0
 62
         4
100
AcDbCircle
 10
-16.3843361067
 20
81.2300229978
 30
0.0
 40
1.5
210
0.0
220
0.0
230
1.0
100
AcDbArc
 50
90.0000015352
 51
128.6598104488
  0
LINE
  5
260
100
AcDbEntity
  8
LAYER0
 62
         4
100
AcDbLine
 10
-13.3105076957
 20
82.7300229978
 30
0.0
 11
-13.9105076957
 21
82.2300229159
 31
0.0
  0
LINE
  5
261
100
AcDbEntity
  8
LAYER0
 62
         4
100
AcDbLine
 10
-13.9105076957
 20
82.2300229159
 30
0.0
 11
-14.5105076957
 21
82.7300229978
 31
0.0
  0
LINE
  5
262
100
AcDbEntity
  8
LAYER0
 62
         4
100
AcDbLine
 10
-16.3843361067
 20
82.7300229978
 30
0.0
 11
-14.5105076957
 21
82.7300229978
 31
0.0
  0
LINE
  5
263
100
AcDbEntity
  8
LAYER0
 62
         4
100
AcDbLine
 10
-13.3105076957
 20
82.7300229978
 30
0.0
 11
-11.4366792847
 21
82.7300229978
 31
0.0
  0
ARC
  5
264
100
AcDbEntity
  8
LAYER0
 62
         4
100
AcDbCircle
 10
-11.4366792847
 20
81.2300229978
 30
0.0
 40
1.5
210
0.0
220
-0.0
230
1.0
100
AcDbArc
 50
51.3401926217
 51
90.0000015352
  0
LINE
  5
265
100
AcDbEntity
  8
LAYER0
 62
         4
100
AcDbLine
 10
-10.4996367134
 20
82.401326212
 30
0.0
 11
-9.4105076957
 21
81.5300229978
 31
0.0
  0
LINE
  5
266
100
AcDbEntity
  8
LAYER0
 62
         4
100
AcDbLine
 10
-4.6105077553
 20
89.5561945273
 30
0.0
 11
-4.6105077553
 21
94.5038513492
 31
0.0
  0
LINE
  5
267
100
AcDbEntity
  8
LAYER0
 62
         4
100
AcDbLine
 10
-4.2818109695
 20
95.4408939205
 30
0.0
 11
-3.4105077553
 21
96.5300229382
 31
0.0
  0
LINE
  5
268
100
AcDbEntity
  8
LAYER0
 62
         4
100
AcDbLine
 10
-4.2818109695
 20
88.6191519559
 30
0.0
 11
-3.4105077553
 21
87.5300229382
 31
0.0
  0
ARC
  5
269
100
AcDbEntity
  8
LAYER0
 62
         4
100
AcDbCircle
 10
-3.1105077553
 20
89.5561945273
 30
0.0
 40
1.5
210
0.0
220
0.0
230
1.0
100
AcDbArc
 50
179.9999969295
 51
218.6598058431
  0
ARC
  5
26A
100
AcDbEntity
  8
LAYER0
 62
         4
100
AcDbCircle
 10
-3.1105077553
 20
94.5038513492
 30
0.0
 40
1.5
210
0.0
220
0.0
230
1.0
100
AcDbArc
 50
141.3401941569
 51
179.9999969295
  0
LINE
  5
26B
100
AcDbEntity
  8
LAYER0
 62
         4
100
AcDbLine
 10
-17.321378678
 20
101.6587196645
 30
0.0
 11
-18.4105076957
 21
102.5300228786
 31
0.0
  0
ARC
  5
26C
100
AcDbEntity
  8
LAYER0
 62
         4
100
AcDbCircle
 10
-16.3843361067
 20
102.8300228786
 30
0.0
 40
1.5
210
0.0
220
0.0
230
1.0
100
AcDbArc
 50
231.3401895512
 51
269.9999984648
  0
LINE
  5
26D
100
AcDbEntity
  8
LAYER0
 62
         4
100
AcDbLine
 10
-13.3105076957
 20
101.3300228786
 30
0.0
 11
-13.9105076957
 21
101.8300229606
 31
0.0
  0
LINE
  5
26E
100
AcDbEntity
  8
LAYER0
 62
         4
100
AcDbLine
 10
-13.9105076957
 20
101.8300229606
 30
0.0
 11
-14.5105076957
 21
101.3300228786
 31
0.0
  0
LINE
  5
26F
100
AcDbEntity
  8
LAYER0
 62
         4
100
AcDbLine
 10
-16.3843361067
 20
101.3300228786
 30
0.0
 11
-14.5105076957
 21
101.3300228786
 31
0.0
  0
LINE
  5
270
100
AcDbEntity
  8
LAYER0
 62
         4
100
AcDbLine
 10
-13.3105076957
 20
101.3300228786
 30
0.0
 11
-11.4366792847
 21
101.3300228786
 31
0.0
  0
ARC
  5
271
100
AcDbEntity
  8
LAYER0
 62
         4
100
AcDbCircle
 10
-11.4366792847
 20
102.8300228786
 30
0.0
 40
1.5
210
0.0
220
0.0
230
1.0
100
AcDbArc
 50
269.9999984648
 51
308.6598073783
  0
LINE
  5
272
100
AcDbEntity
  8
LAYER0
 62
         4
100
AcDbLine
 10
-10.4996367134
 20
101.6587196645
 30
0.0
 11
-9.4105076957
 21
102.5300228786
 31
0.0
  0
ARC
  5
273
100
AcDbEntity
  8
LAYER0
 62
         4
100
AcDbCircle
 10
-23.5214203396
 20
105.5300228786
 30
0.0
 40
2.0
210
0.0
220
0.0
230
1.0
100
AcDbArc
 50
225.0
 51
269.9999953943
  0
ARC
  5
274
100
AcDbEntity
  8
LAYER0
 62
         4
100
AcDbCircle
 10
-23.4105074722
 20
101.5300228786
 30
0.0
 40
1.0
210
0.0
220
0.0
230
1.0
100
AcDbArc
 50
90.0000015352
 51
179.9999969295
  0
ARC
  5
275
100
AcDbEntity
  8
LAYER0
 62
         4
100
AcDbCircle
 10
-23.4105074722
 20
82.5300229978
 30
0.0
 40
1.0
210
0.0
220
0.0
230
1.0
100
AcDbArc
 50
179.9999969295
 51
269.9999984648
  0
LINE
  5
276
100
AcDbEntity
  8
LAYER0
 62
         4
100
AcDbLine
 10
-24.4105074722
 20
101.5300228786
 30
0.0
 11
-24.4105074722
 21
82.5300229978
 31
0.0
  0
ARC
  5
277
100
AcDbEntity
  8
LAYER0
 62
         4
100
AcDbCircle
 10
-26.4105074722
 20
81.2977901147
 30
0.0
 40
1.0
210
-0.0
220
0.0
230
1.0
100
AcDbArc
 50
314.9999992324
 51
0.0
  0
ENDBLK
  5
278
100
AcDbEntity
  8
0
100
AcDbBlockEnd
  0
BLOCK
  5
27C
100
AcDbEntity
  8
0
100
AcDbBlockBegin
  2
CLUMP14
 70
         0
 10
0.0
 20
0.0
 30
0.0
  3

  1

  0
INSERT
  5
27E
100
AcDbEntity
  8
0
100
AcDbBlockReference
  2
CLUMP15
 10
0.0
 20
0.0
 30
0.0
  0
ENDBLK
  5
28E
100
AcDbEntity
  8
0
100
AcDbBlockEnd
  0
BLOCK
  5
27F
100
AcDbEntity
  8
0
100
AcDbBlockBegin
  2
CLUMP15
 70
         0
 10
0.0
 20
0.0
 30
0.0
  3

  1

  0
LINE
  5
280
100
AcDbEntity
  8
LAYER0
 62
         5
100
AcDbLine
 10
4.5894923788
 20
99.3300225508
 30
0.0
 11
4.5894923788
 21
84.7300233256
 31
0.0
  0
LINE
  5
281
100
AcDbEntity
  8
LAYER0
 62
         5
100
AcDbLine
 10
-2.4105077553
 20
83.2300233256
 30
0.0
 11
3.0894923788
 21
83.2300233256
 31
0.0
  0
LINE
  5
282
100
AcDbEntity
  8
LAYER0
 62
         5
100
AcDbLine
 10
-2.4105077553
 20
100.8300225508
 30
0.0
 11
3.0894923788
 21
100.8300225508
 31
0.0
  0
LINE
  5
283
100
AcDbEntity
  8
LAYER0
 62
         5
100
AcDbLine
 10
-2.4105077553
 20
83.2300233256
 30
0.0
 11
-2.4105077553
 21
84.7300233256
 31
0.0
  0
LINE
  5
284
100
AcDbEntity
  8
LAYER0
 62
         5
100
AcDbLine
 10
-2.4105077553
 20
83.2300233256
 30
0.0
 11
-2.4105077553
 21
100.8300225508
 31
0.0
  0
ARC
  5
285
100
AcDbEntity
  8
LAYER0
 62
         5
100
AcDbCircle
 10
3.0894923788
 20
84.7300233256
 30
0.0
 40
1.5
210
-0.0
220
0.0
230
1.0
100
AcDbArc
 50
269.9999984648
 51
0.0
  0
ARC
  5
286
100
AcDbEntity
  8
LAYER0
 62
         5
100
AcDbCircle
 10
3.0894923788
 20
99.3300225508
 30
0.0
 40
1.5
210
0.0
220
-0.0
230
1.0
100
AcDbArc
 50
0.0
 51
90.0000015352
  0
LINE
  5
287
100
AcDbEntity
  8
LAYER0
 62
         5
100
AcDbLine
 10
5.0894923788
 20
97.0300229382
 30
0.0
 11
4.5894923788
 21
97.0300229382
 31
0.0
  0
LINE
  5
288
100
AcDbEntity
  8
LAYER0
 62
         5
100
AcDbLine
 10
5.0894923788
 20
98.8300229382
 30
0.0
 11
4.5894923788
 21
98.8300229382
 31
0.0
  0
LINE
  5
289
100
AcDbEntity
  8
LAYER0
 62
         5
100
AcDbLine
 10
5.0894923788
 20
97.0300229382
 30
0.0
 11
5.0894923788
 21
98.8300229382
 31
0.0
  0
LINE
  5
28A
100
AcDbEntity
  8
LAYER0
 62
         5
100
AcDbLine
 10
5.0894923788
 20
87.0300229382
 30
0.0
 11
4.5894923788
 21
87.0300229382
 31
0.0
  0
LINE
  5
28B
100
AcDbEntity
  8
LAYER0
 62
         5
100
AcDbLine
 10
5.0894923788
 20
85.2300229382
 30
0.0
 11
4.5894923788
 21
85.2300229382
 31
0.0
  0
LINE
  5
28C
100
AcDbEntity
  8
LAYER0
 62
         5
100
AcDbLine
 10
5.0894923788
 20
87.0300229382
 30
0.0
 11
5.0894923788
 21
85.2300229382
 31
0.0
  0
ENDBLK
  5
28D
100
AcDbEntity
  8
0
100
AcDbBlockEnd
  0
ENDSEC
  0
SECTION
  2
ENTITIES
  0
LINE
  5
2F
100
AcDbEntity
  8
LAYER0
 62
         3
100
AcDbLine
 10
17.4562428726
 20
70.9300228637
 30
0.0
 11
17.4562428726
 21
74.1300228637
 31
0.0
  0
LINE
  5
30
100
AcDbEntity
  8
LAYER0
 62
         3
100
AcDbLine
 10
36.0894924533
 20
70.9300228637
 30
0.0
 11
36.0894924533
 21
73.9300228637
 31
0.0
  0
LINE
  5
32
100
AcDbEntity
  8
LAYER3
 62
         4
100
AcDbLine
 10
36.0894924533
 20
138.4977164289
 30
0.0
 11
33.1550496511
 21
137.8739813565
 31
0.0
  0
LINE
  5
33
100
AcDbEntity
  8
LAYER3
 62
         4
100
AcDbLine
 10
36.0894924533
 20
138.4977164289
 30
0.0
 11
33.1550496511
 21
139.1214515014
 31
0.0
  0
LINE
  5
34
100
AcDbEntity
  8
LAYER3
 62
         4
100
AcDbLine
 10
36.0894924533
 20
114.1300230127
 30
0.0
 11
36.0894924533
 21
139.4977164289
 31
0.0
  0
INSERT
  5
36
100
AcDbEntity
  8
0
100
AcDbBlockReference
  2
CLUMP0
 10
0.0
 20
0.0
 30
0.0
  0
INSERT
  5
B6
100
AcDbEntity
  8
0
100
AcDbBlockReference
  2
CLUMP2
 10
0.0
 20
0.0
 30
0.0
  0
LINE
  5
CA
100
AcDbEntity
  8
LAYER0
 62
         3
100
AcDbLine
 10
13.7331706862
 20
69.5035089795
 30
0.0
 11
15.7828685904
 21
70.9300228637
 31
0.0
  0
LINE
  5
CB
100
AcDbEntity
  8
LAYER0
 62
         3
100
AcDbLine
 10
28.0894924533
 20
74.1300228637
 30
0.0
 11
24.0894924533
 21
74.1300228637
 31
0.0
  0
LINE
  5
CC
100
AcDbEntity
  8
LAYER0
 62
         6
100
AcDbLine
 10
28.0894924533
 20
70.9300228637
 30
0.0
 11
28.0894924533
 21
70.8300229382
 31
0.0
  0
ARC
  5
CD
100
AcDbEntity
  8
LAYER0
 62
         2
100
AcDbCircle
 10
24.0894924533
 20
73.9818747901
 30
0.0
 40
6.5518518519
210
0.0
220
0.0
230
1.0
100
AcDbArc
 50
216.0083207556
 51
323.9916761739
  0
LINE
  5
CE
100
AcDbEntity
  8
LAYER0
 62
         2
100
AcDbLine
 10
18.7894924533
 20
70.8300229382
 30
0.0
 11
18.7894924533
 21
70.1300229382
 31
0.0
  0
LINE
  5
CF
100
AcDbEntity
  8
LAYER0
 62
         2
100
AcDbLine
 10
29.3894924533
 20
70.8300229382
 30
0.0
 11
29.3894924533
 21
70.1300229382
 31
0.0
  0
LINE
  5
D0
100
AcDbEntity
  8
LAYER0
 62
         2
100
AcDbLine
 10
18.7894924533
 20
70.1300229382
 30
0.0
 11
29.3894924533
 21
70.1300229382
 31
0.0
  0
LINE
  5
D1
100
AcDbEntity
  8
LAYER0
 62
         2
100
AcDbLine
 10
24.0894924533
 20
67.4300229382
 30
0.0
 11
24.0894924533
 21
69.1800229382
 31
0.0
  0
LINE
  5
D2
100
AcDbEntity
  8
LAYER0
 62
         2
100
AcDbLine
 10
29.3894924533
 20
70.8300229382
 30
0.0
 11
18.7894924533
 21
70.8300229382
 31
0.0
  0
LINE
  5
D3
100
AcDbEntity
  8
LAYER0
 62
         6
100
AcDbLine
 10
28.0894924533
 20
70.8300229382
 30
0.0
 11
24.0894924533
 21
70.8300229382
 31
0.0
  0
ARC
  5
D4
100
AcDbEntity
  8
LAYER0
 62
         3
100
AcDbCircle
 10
11.0894924533
 20
113.1300230127
 30
0.0
 40
3.2
210
0.0
220
0.0
230
1.0
100
AcDbArc
 50
224.9999976971
 51
269.9999984648
  0
ARC
  5
D5
100
AcDbEntity
  8
LAYER0
 62
         3
100
AcDbCircle
 10
15.7828685904
 20
113.1300230127
 30
0.0
 40
3.2
210
0.0
220
0.0
230
1.0
100
AcDbArc
 50
235.1635095666
 51
269.9999984648
  0
ARC
  5
D6
100
AcDbEntity
  8
LAYER0
 62
         3
100
AcDbCircle
 10
11.9052142272
 20
111.9300230127
 30
0.0
 40
3.2
210
0.0
220
-0.0
230
1.0
100
AcDbArc
 50
55.1635126371
 51
90.0000015352
  0
LINE
  5
D7
100
AcDbEntity
  8
LAYER0
 62
         3
100
AcDbLine
 10
11.9052142272
 20
111.9300230127
 30
0.0
 11
13.9549121314
 21
110.5035091285
 31
0.0
  0
LINE
  5
D8
100
AcDbEntity
  8
LAYER0
 62
         6
100
AcDbLine
 10
20.0894924533
 20
74.1300228637
 30
0.0
 11
20.0894924533
 21
80.5300229978
 31
0.0
  0
LINE
  5
D9
100
AcDbEntity
  8
LAYER0
 62
         6
100
AcDbLine
 10
28.0894924533
 20
80.5300229978
 30
0.0
 11
28.0894924533
 21
74.1300228637
 31
0.0
  0
ARC
  5
DA
100
AcDbEntity
  8
LAYER0
 62
         3
100
AcDbCircle
 10
11.0894924533
 20
70.9300228637
 30
0.0
 40
3.2
210
0.0
220
0.0
230
1.0
100
AcDbArc
 50
90.0000015352
 51
135.0000023029
  0
ARC
  5
DB
100
AcDbEntity
  8
LAYER0
 62
         3
100
AcDbCircle
 10
15.7828685904
 20
70.9300228637
 30
0.0
 40
3.2
210
0.0
220
0.0
230
1.0
100
AcDbArc
 50
90.0000015352
 51
124.8364904334
  0
ARC
  5
DC
100
AcDbEntity
  8
LAYER0
 62
         3
100
AcDbCircle
 10
11.9052142272
 20
72.1300228637
 30
0.0
 40
3.2
210
0.0
220
0.0
230
1.0
100
AcDbArc
 50
269.9999984648
 51
304.8364873629
  0
LINE
  5
DD
100
AcDbEntity
  8
LAYER0
 62
         3
100
AcDbLine
 10
11.9052142272
 20
72.1300228637
 30
0.0
 11
13.9549121314
 21
73.556536748
 31
0.0
  0
LINE
  5
DE
100
AcDbEntity
  8
LAYER0
 62
         3
100
AcDbLine
 10
7.7640090537
 20
72.1300228637
 30
0.0
 11
8.8267507535
 21
73.1927645635
 31
0.0
  0
LINE
  5
DF
100
AcDbEntity
  8
LAYER0
 62
         2
100
AcDbLine
 10
21.5894924533
 20
70.9300228637
 30
0.0
 11
21.5894924533
 21
70.8300229382
 31
0.0
  0
LINE
  5
E0
100
AcDbEntity
  8
LAYER0
 62
         6
100
AcDbLine
 10
24.0894924533
 20
70.9300228637
 30
0.0
 11
24.0894924533
 21
70.8300229382
 31
0.0
  0
ARC
  5
E1
100
AcDbEntity
  8
LAYER0
 62
         3
100
AcDbCircle
 10
35.8894924533
 20
73.9300228637
 30
0.0
 40
0.2
210
0.0
220
-0.0
230
1.0
100
AcDbArc
 50
0.0
 51
90.0000015352
  0
LINE
  5
E2
100
AcDbEntity
  8
LAYER0
 62
         3
100
AcDbLine
 10
36.0894924533
 20
70.9300228637
 30
0.0
 11
15.7828685904
 21
70.9300228637
 31
0.0
  0
LINE
  5
E3
100
AcDbEntity
  8
LAYER0
 62
         6
100
AcDbLine
 10
20.0894924533
 20
109.9300230127
 30
0.0
 11
20.0894924533
 21
103.5300228786
 31
0.0
  0
LINE
  5
E4
100
AcDbEntity
  8
LAYER0
 62
         6
100
AcDbLine
 10
28.0894924533
 20
103.5300228786
 30
0.0
 11
28.0894924533
 21
109.9300230127
 31
0.0
  0
LINE
  5
E5
100
AcDbEntity
  8
LAYER0
 62
         6
100
AcDbLine
 10
28.0894924533
 20
113.1300230127
 30
0.0
 11
28.0894924533
 21
113.2300229382
 31
0.0
  0
ARC
  5
E6
100
AcDbEntity
  8
LAYER0
 62
         2
100
AcDbCircle
 10
24.0894924533
 20
110.0781710864
 30
0.0
 40
6.5518518519
210
0.0
220
-0.0
230
1.0
100
AcDbArc
 50
36.0083238261
 51
143.9916792444
  0
LINE
  5
E7
100
AcDbEntity
  8
LAYER0
 62
         2
100
AcDbLine
 10
18.7894924533
 20
113.2300229382
 30
0.0
 11
18.7894924533
 21
113.9300229382
 31
0.0
  0
LINE
  5
E8
100
AcDbEntity
  8
LAYER0
 62
         2
100
AcDbLine
 10
29.3894924533
 20
113.2300229382
 30
0.0
 11
29.3894924533
 21
113.9300229382
 31
0.0
  0
LINE
  5
E9
100
AcDbEntity
  8
LAYER0
 62
         2
100
AcDbLine
 10
18.7894924533
 20
113.9300229382
 30
0.0
 11
29.3894924533
 21
113.9300229382
 31
0.0
  0
LINE
  5
EA
100
AcDbEntity
  8
LAYER0
 62
         2
100
AcDbLine
 10
24.0894924533
 20
116.6300229382
 30
0.0
 11
24.0894924533
 21
114.8800229382
 31
0.0
  0
LINE
  5
EB
100
AcDbEntity
  8
LAYER0
 62
         2
100
AcDbLine
 10
29.3894924533
 20
113.2300229382
 30
0.0
 11
18.7894924533
 21
113.2300229382
 31
0.0
  0
LINE
  5
EC
100
AcDbEntity
  8
LAYER0
 62
         6
100
AcDbLine
 10
28.0894924533
 20
113.2300229382
 30
0.0
 11
24.0894924533
 21
113.2300229382
 31
0.0
  0
LINE
  5
ED
100
AcDbEntity
  8
LAYER0
 62
         6
100
AcDbLine
 10
20.0894924533
 20
81.5300231617
 30
0.0
 11
20.0894924533
 21
102.5300227147
 31
0.0
  0
LINE
  5
EE
100
AcDbEntity
  8
LAYER0
 62
         6
100
AcDbLine
 10
28.0894924533
 20
102.5300227147
 30
0.0
 11
28.0894924533
 21
81.5300231617
 31
0.0
  0
LINE
  5
EF
100
AcDbEntity
  8
LAYER0
 62
         3
100
AcDbLine
 10
7.7640090537
 20
111.9300230127
 30
0.0
 11
8.8267507535
 21
110.8672813129
 31
0.0
  0
LINE
  5
F0
100
AcDbEntity
  8
LAYER0
 62
         2
100
AcDbLine
 10
21.5894924533
 20
113.1300230127
 30
0.0
 11
21.5894924533
 21
113.2300229382
 31
0.0
  0
LINE
  5
F1
100
AcDbEntity
  8
LAYER0
 62
         6
100
AcDbLine
 10
24.0894924533
 20
113.1300230127
 30
0.0
 11
24.0894924533
 21
113.2300229382
 31
0.0
  0
ARC
  5
F2
100
AcDbEntity
  8
LAYER0
 62
         3
100
AcDbCircle
 10
35.8894924533
 20
110.1300230127
 30
0.0
 40
0.2
210
-0.0
220
0.0
230
1.0
100
AcDbArc
 50
269.9999984648
 51
0.0
  0
LINE
  5
F3
100
AcDbEntity
  8
LAYER0
 62
         3
100
AcDbLine
 10
36.0894924533
 20
113.1300230127
 30
0.0
 11
15.7828685904
 21
113.1300230127
 31
0.0
  0
LINE
  5
F4
100
AcDbEntity
  8
LAYER0
 62
         3
100
AcDbLine
 10
17.4562428726
 20
113.1300230127
 30
0.0
 11
17.4562428726
 21
109.9300230127
 31
0.0
  0
LINE
  5
F5
100
AcDbEntity
  8
LAYER0
 62
         3
100
AcDbLine
 10
36.0894924533
 20
113.1300230127
 30
0.0
 11
36.0894924533
 21
110.1300230127
 31
0.0
  0
LINE
  5
F6
100
AcDbEntity
  8
LAYER0
 62
         3
100
AcDbLine
 10
35.8894924533
 20
109.9300230127
 30
0.0
 11
11.0894924533
 21
109.9300230127
 31
0.0
  0
LINE
  5
F7
100
AcDbEntity
  8
LAYER0
 62
         3
100
AcDbLine
 10
28.0894924533
 20
109.9300230127
 30
0.0
 11
24.0894924533
 21
109.9300230127
 31
0.0
  0
LINE
  5
F8
100
AcDbEntity
  8
LAYER0
 62
         3
100
AcDbLine
 10
13.7331706862
 20
114.556536897
 30
0.0
 11
15.7828685904
 21
113.1300230127
 31
0.0
  0
LINE
  5
F9
100
AcDbEntity
  8
LAYER0
 62
         3
100
AcDbLine
 10
28.0894924533
 20
109.9300230127
 30
0.0
 11
24.0894924533
 21
109.9300230127
 31
0.0
  0
LINE
  5
FA
100
AcDbEntity
  8
LAYER0
 62
         3
100
AcDbLine
 10
35.8894924533
 20
74.1300228637
 30
0.0
 11
11.0894924533
 21
74.1300228637
 31
0.0
  0
LINE
  5
FB
100
AcDbEntity
  8
LAYER0
 62
         3
100
AcDbLine
 10
28.0894924533
 20
74.1300228637
 30
0.0
 11
24.0894924533
 21
74.1300228637
 31
0.0
  0
LINE
  5
FC
100
AcDbEntity
  8
LAYER0
 62
         3
100
AcDbLine
 10
10.0
 20
-138.5
 30
0.0
 11
10.0
 21
-125.5
 31
0.0
  0
LINE
  5
FD
100
AcDbEntity
  8
LAYER0
 62
         3
100
AcDbLine
 10
95.0
 20
-138.5
 30
0.0
 11
95.0
 21
-125.5
 31
0.0
  0
ARC
  5
FE
100
AcDbEntity
  8
LAYER0
 62
         2
100
AcDbCircle
 10
24.0894924533
 20
-72.4699769053
 30
0.0
 40
2.8
210
0.0
220
0.0
230
1.0
100
AcDbArc
 50
259.7134376778
 51
280.2865592517
  0
ARC
  5
FF
100
AcDbEntity
  8
LAYER0
 62
         2
100
AcDbCircle
 10
24.0894924533
 20
-72.4699769053
 30
0.0
 40
2.8
210
0.0
220
0.0
230
1.0
100
AcDbArc
 50
169.7134422835
 51
190.2865577165
  0
ARC
  5
100
100
AcDbEntity
  8
LAYER0
 62
         2
100
AcDbCircle
 10
24.0894924533
 20
-72.4699769053
 30
0.0
 40
2.8
210
0.0
220
-0.0
230
1.0
100
AcDbArc
 50
79.7134407483
 51
100.2865623222
  0
ARC
  5
101
100
AcDbEntity
  8
LAYER0
 62
         2
100
AcDbCircle
 10
24.0894924533
 20
-72.4699769053
 30
0.0
 40
2.8
210
-0.0
220
0.0
230
1.0
100
AcDbArc
 50
349.7134392131
 51
10.2865607869
  0
LINE
  5
102
100
AcDbEntity
  8
LAYER0
 62
         2
100
AcDbLine
 10
24.5894924533
 20
-72.9699769053
 30
0.0
 11
26.8444879161
 21
-72.9699769053
 31
0.0
  0
LINE
  5
103
100
AcDbEntity
  8
LAYER0
 62
         2
100
AcDbLine
 10
21.3344969905
 20
-72.9699769053
 30
0.0
 11
23.5894924533
 21
-72.9699769053
 31
0.0
  0
LINE
  5
104
100
AcDbEntity
  8
LAYER0
 62
         2
100
AcDbLine
 10
23.5894924533
 20
-71.9699769053
 30
0.0
 11
21.3344969905
 21
-71.9699769053
 31
0.0
  0
LINE
  5
105
100
AcDbEntity
  8
LAYER0
 62
         2
100
AcDbLine
 10
26.8444879161
 20
-71.9699769053
 30
0.0
 11
24.5894924533
 21
-71.9699769053
 31
0.0
  0
LINE
  5
106
100
AcDbEntity
  8
LAYER0
 62
         2
100
AcDbLine
 10
23.5894924533
 20
-71.9699769053
 30
0.0
 11
23.5894924533
 21
-69.7149814425
 31
0.0
  0
LINE
  5
107
100
AcDbEntity
  8
LAYER0
 62
         2
100
AcDbLine
 10
23.5894924533
 20
-75.2249723681
 30
0.0
 11
23.5894924533
 21
-72.9699769053
 31
0.0
  0
LINE
  5
108
100
AcDbEntity
  8
LAYER0
 62
         2
100
AcDbLine
 10
24.5894924533
 20
-72.9699769053
 30
0.0
 11
24.5894924533
 21
-75.2249723681
 31
0.0
  0
LINE
  5
109
100
AcDbEntity
  8
LAYER0
 62
         2
100
AcDbLine
 10
24.5894924533
 20
-69.7149814425
 30
0.0
 11
24.5894924533
 21
-71.9699769053
 31
0.0
  0
CIRCLE
  5
10A
100
AcDbEntity
  8
LAYER0
 62
         2
100
AcDbCircle
 10
24.0894924533
 20
-72.4699769053
 30
0.0
 40
7.0
210
0.0
220
0.0
230
1.0
  0
LINE
  5
10B
100
AcDbEntity
  8
LAYER0
 62
         4
100
AcDbLine
 10
3.5894923788
 20
-82.4699769053
 30
0.0
 11
3.5894923788
 21
-120.2699769053
 31
0.0
  0
LINE
  5
10C
100
AcDbEntity
  8
LAYER0
 62
         4
100
AcDbLine
 10
6.5894923788
 20
-82.4699769053
 30
0.0
 11
6.5894923788
 21
-120.2699769053
 31
0.0
  0
LINE
  5
10D
100
AcDbEntity
  8
LAYER0
 62
         4
100
AcDbLine
 10
15.0894924533
 20
-82.4699769053
 30
0.0
 11
15.0894924533
 21
-120.2699769053
 31
0.0
  0
ARC
  5
10E
100
AcDbEntity
  8
LAYER0
 62
         3
100
AcDbCircle
 10
24.0894924533
 20
-72.4699769053
 30
0.0
 40
13.0
210
0.0
220
0.0
230
1.0
100
AcDbArc
 50
129.7151394445
 51
230.2848605555
  0
ARC
  5
10F
100
AcDbEntity
  8
LAYER0
  6
CENTER
 62
         3
100
AcDbCircle
 10
24.0894924533
 20
-72.4699769053
 30
0.0
 40
15.0
210
0.0
220
0.0
230
1.0
100
AcDbArc
 50
138.1896874615
 51
221.8103125385
  0
LINE
  5
110
100
AcDbEntity
  8
LAYER0
 62
         4
100
AcDbLine
 10
23.4894924533
 20
-120.2699769053
 30
0.0
 11
23.4894924533
 21
-84.4549675186
 31
0.0
  0
LINE
  5
111
100
AcDbEntity
  8
LAYER0
 62
         4
100
AcDbLine
 10
24.0894924533
 20
-120.2699769053
 30
0.0
 11
24.0894924533
 21
-84.4699769053
 31
0.0
  0
LINE
  5
112
100
AcDbEntity
  8
LAYER0
 62
         4
100
AcDbLine
 10
24.6894924533
 20
-120.2699769053
 30
0.0
 11
24.6894924533
 21
-84.4549675186
 31
0.0
  0
LINE
  5
113
100
AcDbEntity
  8
LAYER0
 62
         4
100
AcDbLine
 10
33.0894924533
 20
-80.4072308385
 30
0.0
 11
33.0894924533
 21
-120.2699769053
 31
0.0
  0
LINE
  5
114
100
AcDbEntity
  8
LAYER0
 62
         4
100
AcDbLine
 10
6.5894923788
 20
47.5300230947
 30
0.0
 11
54.5894925278
 21
47.5300230947
 31
0.0
  0
LINE
  5
115
100
AcDbEntity
  8
LAYER0
 62
         6
100
AcDbLine
 10
-5.4105076957
 20
67.7300229978
 30
0.0
 11
-22.4105076957
 21
67.7300229978
 31
0.0
  0
LINE
  5
116
100
AcDbEntity
  8
LAYER0
 62
         3
100
AcDbLine
 10
-25.2105076957
 20
132.9300230127
 30
0.0
 11
-25.2105076957
 21
115.1300230127
 31
0.0
  0
LINE
  5
117
100
AcDbEntity
  8
LAYER0
 62
         6
100
AcDbLine
 10
-22.4105076957
 20
72.1300228637
 30
0.0
 11
-22.4105076957
 21
80.5300229978
 31
0.0
  0
LINE
  5
118
100
AcDbEntity
  8
LAYER0
 62
         6
100
AcDbLine
 10
-5.4105076957
 20
80.5300229978
 30
0.0
 11
-5.4105076957
 21
72.1300228637
 31
0.0
  0
LINE
  5
119
100
AcDbEntity
  8
LAYER0
 62
         3
100
AcDbLine
 10
-25.2105076957
 20
51.1300228637
 30
0.0
 11
-25.2105076957
 21
68.9300228637
 31
0.0
  0
ARC
  5
11A
100
AcDbEntity
  8
LAYER0
 62
         3
100
AcDbCircle
 10
-28.2105076957
 20
51.3300228637
 30
0.0
 40
0.2
210
0.0
220
0.0
230
1.0
100
AcDbArc
 50
180.0000030705
 51
269.9999984648
  0
LINE
  5
11B
100
AcDbEntity
  8
LAYER3
 62
         4
100
AcDbLine
 10
-29.2105076957
 20
132.9300230127
 30
0.0
 11
-53.043591224
 21
132.9300230127
 31
0.0
  0
LINE
  5
11C
100
AcDbEntity
  8
LAYER3
 62
         4
100
AcDbLine
 10
-28.4105076957
 20
138.4977164289
 30
0.0
 11
-25.4760648935
 21
139.1214515014
 31
0.0
  0
LINE
  5
11D
100
AcDbEntity
  8
LAYER3
 62
         4
100
AcDbLine
 10
-28.4105076957
 20
138.4977164289
 30
0.0
 11
-25.4760648935
 21
137.8739813565
 31
0.0
  0
LINE
  5
11E
100
AcDbEntity
  8
LAYER3
 62
         4
100
AcDbLine
 10
-28.4105076957
 20
133.7300230127
 30
0.0
 11
-28.4105076957
 21
139.4977164289
 31
0.0
  0
LINE
  5
11F
100
AcDbEntity
  8
LAYER3
 62
         4
100
AcDbLine
 10
-14.9105076957
 20
4.0300230947
 30
0.0
 11
-69.0270265232
 21
4.0300230947
 31
0.0
  0
MTEXT
  5
120
100
AcDbEntity
  8
LAYER3
100
AcDbMText
 10
-55.8312499154
 20
87.3300228635
 30
0.0
 40
2.1473683357
 41
5.1292919922
 71
         1
 72
         1
  1
\W0.8;81.6
 11
-0.0000000268
 21
1.0
 31
0.0
  0
LINE
  5
121
100
AcDbEntity
  8
LAYER3
 62
         4
100
AcDbLine
 10
-52.043591224
 20
51.3300228637
 30
0.0
 11
-52.6673262965
 21
54.2644656659
 31
0.0
  0
LINE
  5
122
100
AcDbEntity
  8
LAYER3
 62
         4
100
AcDbLine
 10
-52.043591224
 20
51.3300228637
 30
0.0
 11
-51.4198561516
 21
54.2644656659
 31
0.0
  0
LINE
  5
123
100
AcDbEntity
  8
LAYER3
 62
         4
100
AcDbLine
 10
-52.043591224
 20
132.9300230127
 30
0.0
 11
-51.4198561516
 21
129.9955802105
 31
0.0
  0
LINE
  5
124
100
AcDbEntity
  8
LAYER3
 62
         4
100
AcDbLine
 10
-52.043591224
 20
132.9300230127
 30
0.0
 11
-52.6673262965
 21
129.9955802105
 31
0.0
  0
LINE
  5
125
100
AcDbEntity
  8
LAYER3
 62
         4
100
AcDbLine
 10
-52.043591224
 20
132.9300230127
 30
0.0
 11
-52.043591224
 21
51.3300228637
 31
0.0
  0
LINE
  5
126
100
AcDbEntity
  8
LAYER3
 62
         4
100
AcDbLine
 10
-29.2105076957
 20
51.3300228637
 30
0.0
 11
-53.043591224
 21
51.3300228637
 31
0.0
  0
LINE
  5
127
100
AcDbEntity
  8
LAYER0
  6
CENTER
100
AcDbLine
 10
24.0894924533
 20
-62.4699769053
 30
0.0
 11
24.0894924533
 21
-82.4699769053
 31
0.0
  0
ARC
  5
128
100
AcDbEntity
  8
LAYER0
 62
         3
100
AcDbCircle
 10
24.0894924533
 20
-72.4699769053
 30
0.0
 40
12.0
210
0.0
220
0.0
230
1.0
100
AcDbArc
 50
236.4426881304
 51
123.5573118696
  0
MTEXT
  5
129
100
AcDbEntity
  8
LAYER0
100
AcDbMText
 10
25.9174363939
 20
-132.8866032766
 30
0.0
 40
2.4737683892
 41
23.6357781351
 71
         1
 72
         1
  1
\W0.8;両開きロック金具
  0
MTEXT
  5
12A
100
AcDbEntity
  8
LAYER0
100
AcDbMText
 10
70.0823898377
 20
-133.1227062422
 30
0.0
 40
2.4737683892
 41
7.3861806672
 71
         1
 72
         1
  1
\W0.8;55359
  0
LINE
  5
12B
100
AcDbEntity
  8
LAYER0
 62
         3
100
AcDbLine
 10
60.0
 20
-125.5
 30
0.0
 11
60.0
 21
-138.5
 31
0.0
  0
MTEXT
  5
12C
100
AcDbEntity
  8
LAYER0
100
AcDbMText
 10
72.5158633528
 20
-126.7970201517
 30
0.0
 40
2.1473683357
 41
10.2585839844
 71
         1
 72
         1
  1
\W0.8;管理図番
  0
MTEXT
  5
12D
100
AcDbEntity
  8
LAYER0
100
AcDbMText
 10
32.0542682872
 20
-126.7970201517
 30
0.0
 40
2.1473683357
 41
7.6538653946
 71
         1
 72
         1
  1
\W0.8;品　名
  0
LINE
  5
12E
100
AcDbEntity
  8
LAYER0
 62
         6
100
AcDbLine
 10
-22.4105076957
 20
119.5300228786
 30
0.0
 11
-5.4105076957
 21
119.5300228786
 31
0.0
  0
LINE
  5
12F
100
AcDbEntity
  8
LAYER0
 62
         6
100
AcDbLine
 10
-5.4105076957
 20
116.3300228786
 30
0.0
 11
-22.4105076957
 21
116.3300228786
 31
0.0
  0
LINE
  5
130
100
AcDbEntity
  8
LAYER0
 62
         2
100
AcDbLine
 10
-13.9105076957
 20
90.7300229978
 30
0.0
 11
-12.1605076957
 21
88.9800229978
 31
0.0
  0
LINE
  5
131
100
AcDbEntity
  8
LAYER0
 62
         2
100
AcDbLine
 10
-13.9105076957
 20
90.7300229978
 30
0.0
 11
-15.6605076957
 21
88.9800229978
 31
0.0
  0
LINE
  5
132
100
AcDbEntity
  8
LAYER0
 62
         2
100
AcDbLine
 10
-15.6605076957
 20
83.0300231617
 30
0.0
 11
-15.6605076957
 21
88.9800229978
 31
0.0
  0
LINE
  5
133
100
AcDbEntity
  8
LAYER0
 62
         2
100
AcDbLine
 10
-12.1605076957
 20
83.0300231617
 30
0.0
 11
-12.1605076957
 21
88.9800229978
 31
0.0
  0
LINE
  5
134
100
AcDbEntity
  8
LAYER0
 62
         6
100
AcDbLine
 10
-22.4105076957
 20
80.5300229978
 30
0.0
 11
-5.4105076957
 21
80.5300229978
 31
0.0
  0
ARC
  5
135
100
AcDbEntity
  8
LAYER0
 62
         3
100
AcDbCircle
 10
-28.2105076957
 20
132.7300230127
 30
0.0
 40
0.2
210
0.0
220
0.0
230
1.0
100
AcDbArc
 50
90.0000015352
 51
179.9999969295
  0
LINE
  5
136
100
AcDbEntity
  8
LAYER0
 62
         3
100
AcDbLine
 10
-25.2105076957
 20
132.9300230127
 30
0.0
 11
-28.2105076957
 21
132.9300230127
 31
0.0
  0
ARC
  5
137
100
AcDbEntity
  8
LAYER0
 62
         3
100
AcDbCircle
 10
-24.6105076957
 20
115.7300230127
 30
0.0
 40
3.8
210
0.0
220
0.0
230
1.0
100
AcDbArc
 50
179.9999969295
 51
269.9999984648
  0
LINE
  5
138
100
AcDbEntity
  8
LAYER0
 62
         3
100
AcDbLine
 10
-28.4105076957
 20
132.7300230127
 30
0.0
 11
-28.4105076957
 21
115.7300230127
 31
0.0
  0
LINE
  5
139
100
AcDbEntity
  8
LAYER0
 62
         2
100
AcDbLine
 10
-13.9105076957
 20
93.3300228786
 30
0.0
 11
-12.1605076957
 21
95.0800228786
 31
0.0
  0
LINE
  5
13A
100
AcDbEntity
  8
LAYER0
 62
         2
100
AcDbLine
 10
-13.9105076957
 20
93.3300228786
 30
0.0
 11
-15.6605076957
 21
95.0800228786
 31
0.0
  0
LINE
  5
13B
100
AcDbEntity
  8
LAYER0
 62
         2
100
AcDbLine
 10
-15.6605076957
 20
101.0300227147
 30
0.0
 11
-15.6605076957
 21
95.0800228786
 31
0.0
  0
LINE
  5
13C
100
AcDbEntity
  8
LAYER0
 62
         2
100
AcDbLine
 10
-12.1605076957
 20
101.0300227147
 30
0.0
 11
-12.1605076957
 21
95.0800228786
 31
0.0
  0
LINE
  5
13D
100
AcDbEntity
  8
LAYER0
 62
         6
100
AcDbLine
 10
-5.4105076957
 20
115.1300230127
 30
0.0
 11
-5.4105076957
 21
119.5300228786
 31
0.0
  0
LINE
  5
13E
100
AcDbEntity
  8
LAYER0
 62
         6
100
AcDbLine
 10
-5.4105076957
 20
103.5300228786
 30
0.0
 11
-5.4105076957
 21
111.7300230127
 31
0.0
  0
LINE
  5
13F
100
AcDbEntity
  8
LAYER0
 62
         6
100
AcDbLine
 10
-22.4105076957
 20
111.7300230127
 30
0.0
 11
-22.4105076957
 21
103.5300228786
 31
0.0
  0
LINE
  5
140
100
AcDbEntity
  8
LAYER0
 62
         6
100
AcDbLine
 10
-22.4105076957
 20
119.5300228786
 30
0.0
 11
-22.4105076957
 21
115.1300230127
 31
0.0
  0
LINE
  5
141
100
AcDbEntity
  8
LAYER0
 62
         3
100
AcDbLine
 10
-25.2105076957
 20
51.1300228637
 30
0.0
 11
-28.2105076957
 21
51.1300228637
 31
0.0
  0
ARC
  5
142
100
AcDbEntity
  8
LAYER0
 62
         3
100
AcDbCircle
 10
-24.6105076957
 20
68.3300228637
 30
0.0
 40
3.8
210
0.0
220
0.0
230
1.0
100
AcDbArc
 50
90.0000015352
 51
180.0000030705
  0
LINE
  5
143
100
AcDbEntity
  8
LAYER0
 62
         3
100
AcDbLine
 10
-28.4105076957
 20
51.3300228637
 30
0.0
 11
-28.4105076957
 21
68.3300228637
 31
0.0
  0
LINE
  5
144
100
AcDbEntity
  8
LAYER0
 62
         6
100
AcDbLine
 10
-5.4105076957
 20
68.9300228637
 30
0.0
 11
-5.4105076957
 21
64.5300229978
 31
0.0
  0
LINE
  5
145
100
AcDbEntity
  8
LAYER0
 62
         6
100
AcDbLine
 10
-22.4105076957
 20
64.5300229978
 30
0.0
 11
-22.4105076957
 21
68.9300228637
 31
0.0
  0
LINE
  5
146
100
AcDbEntity
  8
LAYER0
 62
         6
100
AcDbLine
 10
-22.4105076957
 20
64.5300229978
 30
0.0
 11
-5.4105076957
 21
64.5300229978
 31
0.0
  0
LINE
  5
147
100
AcDbEntity
  8
LAYER3
 62
         4
100
AcDbLine
 10
-19.4105076957
 20
-108.2699769053
 30
0.0
 11
-61.5384887114
 21
-108.2699769053
 31
0.0
  0
LINE
  5
148
100
AcDbEntity
  8
LAYER3
 62
         4
100
AcDbLine
 10
-20.4105076957
 20
-95.2699769053
 30
0.0
 11
-61.5384887114
 21
-95.2699769053
 31
0.0
  0
MTEXT
  5
149
100
AcDbEntity
  8
LAYER3
100
AcDbMText
 10
-63.7686157171
 20
-87.7099769651
 30
0.0
 40
1.7178947091
 41
4.1034336906
 71
         1
 72
         1
  1
\W0.8;22.8
 11
-0.0000000268
 21
1.0
 31
0.0
  0
LINE
  5
14A
100
AcDbEntity
  8
LAYER3
 62
         4
100
AcDbLine
 10
-60.5384887114
 20
-95.2699769053
 30
0.0
 11
-61.1622237838
 21
-92.3355341031
 31
0.0
  0
LINE
  5
14B
100
AcDbEntity
  8
LAYER3
 62
         4
100
AcDbLine
 10
-60.5384887114
 20
-95.2699769053
 30
0.0
 11
-59.9147536389
 21
-92.3355341031
 31
0.0
  0
LINE
  5
14C
100
AcDbEntity
  8
LAYER3
 62
         4
100
AcDbLine
 10
-60.5384887114
 20
-72.4699769053
 30
0.0
 11
-59.9147536389
 21
-75.4044197075
 31
0.0
  0
LINE
  5
14D
100
AcDbEntity
  8
LAYER3
 62
         4
100
AcDbLine
 10
-60.5384887114
 20
-72.4699769053
 30
0.0
 11
-61.1622237838
 21
-75.4044197075
 31
0.0
  0
LINE
  5
14E
100
AcDbEntity
  8
LAYER3
 62
         4
100
AcDbLine
 10
-60.5384887114
 20
-72.4699769053
 30
0.0
 11
-60.5384887114
 21
-95.2699769053
 31
0.0
  0
LINE
  5
14F
100
AcDbEntity
  8
LAYER3
 62
         4
100
AcDbLine
 10
-19.4105076957
 20
-95.2699769053
 30
0.0
 11
-61.5384887114
 21
-95.2699769053
 31
0.0
  0
LINE
  5
150
100
AcDbEntity
  8
LAYER3
 62
         4
100
AcDbLine
 10
-31.0952878865
 20
-72.4699769053
 30
0.0
 11
-61.5384887114
 21
-72.4699769053
 31
0.0
  0
MTEXT
  5
151
100
AcDbEntity
  8
LAYER3
100
AcDbMText
 10
-63.7686157171
 20
-44.0599769651
 30
0.0
 40
1.7178947091
 41
4.1034336906
 71
         1
 72
         1
  1
\W0.8;64.5
 11
-0.0000000268
 21
1.0
 31
0.0
  0
LINE
  5
152
100
AcDbEntity
  8
LAYER3
 62
         4
100
AcDbLine
 10
-60.5384887114
 20
-72.4699769053
 30
0.0
 11
-61.1622237838
 21
-69.5355341031
 31
0.0
  0
LINE
  5
153
100
AcDbEntity
  8
LAYER3
 62
         4
100
AcDbLine
 10
-60.5384887114
 20
-72.4699769053
 30
0.0
 11
-59.9147536389
 21
-69.5355341031
 31
0.0
  0
MTEXT
  5
154
100
AcDbEntity
  8
LAYER3
100
AcDbMText
 10
-71.2571535289
 20
-60.4199769651
 30
0.0
 40
1.7178947091
 41
5.1292921132
 71
         1
 72
         1
  1
\W0.8;119.3
 11
-0.0000000268
 21
1.0
 31
0.0
  0
LINE
  5
155
100
AcDbEntity
  8
LAYER3
 62
         4
100
AcDbLine
 10
-68.0270265232
 20
-115.2699769053
 30
0.0
 11
-68.6507615956
 21
-112.3355341031
 31
0.0
  0
LINE
  5
156
100
AcDbEntity
  8
LAYER3
 62
         4
100
AcDbLine
 10
-68.0270265232
 20
-115.2699769053
 30
0.0
 11
-67.4032914507
 21
-112.3355341031
 31
0.0
  0
LINE
  5
157
100
AcDbEntity
  8
LAYER3
 62
         4
100
AcDbLine
 10
-61.3558414477
 20
-115.2699769053
 30
0.0
 11
-69.0270265232
 21
-115.2699769053
 31
0.0
  0
MTEXT
  5
158
100
AcDbEntity
  8
LAYER3
100
AcDbMText
 10
-63.5859684534
 20
-112.7299769651
 30
0.0
 40
1.7178947091
 41
1.0258584226
 71
         1
 72
         1
  1
\W0.8;7
 11
-0.0000000268
 21
1.0
 31
0.0
  0
LINE
  5
159
100
AcDbEntity
  8
LAYER3
 62
         4
100
AcDbLine
 10
-60.3558414477
 20
-108.2699769053
 30
0.0
 11
-59.7321063752
 21
-111.2044197075
 31
0.0
  0
LINE
  5
15A
100
AcDbEntity
  8
LAYER3
 62
         4
100
AcDbLine
 10
-60.3558414477
 20
-108.2699769053
 30
0.0
 11
-60.9795765201
 21
-111.2044197075
 31
0.0
  0
LINE
  5
15B
100
AcDbEntity
  8
LAYER3
 62
         4
100
AcDbLine
 10
-60.3558414477
 20
-115.2699769053
 30
0.0
 11
-60.9795765201
 21
-112.3355341031
 31
0.0
  0
LINE
  5
15C
100
AcDbEntity
  8
LAYER0
 62
         4
100
AcDbLine
 10
-13.3105076957
 20
47.5300230947
 30
0.0
 11
-13.3105076957
 21
4.015013708
 31
0.0
  0
LINE
  5
15D
100
AcDbEntity
  8
LAYER0
 62
         4
100
AcDbLine
 10
-13.9105076957
 20
47.5300230947
 30
0.0
 11
-13.9105076957
 21
4.0300230947
 31
0.0
  0
LINE
  5
15E
100
AcDbEntity
  8
LAYER0
 62
         4
100
AcDbLine
 10
-14.5105076957
 20
47.5300230947
 30
0.0
 11
-14.5105076957
 21
4.015013708
 31
0.0
  0
LINE
  5
15F
100
AcDbEntity
  8
LAYER0
 62
         6
100
AcDbLine
 10
-22.4105076957
 20
103.5300228786
 30
0.0
 11
-5.4105076957
 21
103.5300228786
 31
0.0
  0
LINE
  5
160
100
AcDbEntity
  8
LAYER0
 62
         4
100
AcDbLine
 10
-4.9105076957
 20
-82.4699769053
 30
0.0
 11
-4.9105076957
 21
-120.2699769053
 31
0.0
  0
LINE
  5
161
100
AcDbEntity
  8
LAYER0
 62
         4
100
AcDbLine
 10
-4.9105076957
 20
-60.4699770543
 30
0.0
 11
-4.9105076957
 21
-62.4699769053
 31
0.0
  0
LINE
  5
162
100
AcDbEntity
  8
LAYER0
 62
         4
100
AcDbLine
 10
-3.9105076957
 20
-57.2699770543
 30
0.0
 11
-23.9105076957
 21
-57.2699770543
 31
0.0
  0
LINE
  5
163
100
AcDbEntity
  8
LAYER0
 62
         3
100
AcDbLine
 10
-25.2105076957
 20
-62.4699769053
 30
0.0
 11
-25.2105076957
 21
-82.4699769053
 31
0.0
  0
LINE
  5
164
100
AcDbEntity
  8
LAYER0
 62
         6
100
AcDbLine
 10
-5.4105076957
 20
-85.6699769053
 30
0.0
 11
-22.4105076957
 21
-85.6699769053
 31
0.0
  0
ARC
  5
165
100
AcDbEntity
  8
LAYER0
 62
         4
100
AcDbCircle
 10
-13.9105076957
 20
-7.9699769053
 30
0.0
 40
13.0
210
0.0
220
0.0
230
1.0
100
AcDbArc
 50
219.7151348388
 51
320.2848620907
  0
ARC
  5
166
100
AcDbEntity
  8
LAYER0
  6
CENTER
 62
         4
100
AcDbCircle
 10
-13.9105076957
 20
-7.9699769053
 30
0.0
 40
15.0
210
0.0
220
0.0
230
1.0
100
AcDbArc
 50
228.1896828558
 51
311.8103140738
  0
LINE
  5
167
100
AcDbEntity
  8
LAYER3
 62
         4
100
AcDbLine
 10
-60.5384887114
 20
-7.9699769053
 30
0.0
 11
-59.9147536389
 21
-10.9044197075
 31
0.0
  0
LINE
  5
168
100
AcDbEntity
  8
LAYER3
 62
         4
100
AcDbLine
 10
-60.5384887114
 20
-7.9699769053
 30
0.0
 11
-61.1622237838
 21
-10.9044197075
 31
0.0
  0
LINE
  5
169
100
AcDbEntity
  8
LAYER3
 62
         4
100
AcDbLine
 10
-60.5384887114
 20
-7.9699769053
 30
0.0
 11
-60.5384887114
 21
-72.4699769053
 31
0.0
  0
LINE
  5
16A
100
AcDbEntity
  8
LAYER3
 62
         4
100
AcDbLine
 10
-24.9105076957
 20
-7.9699769053
 30
0.0
 11
-61.5384887114
 21
-7.9699769053
 31
0.0
  0
LINE
  5
16B
100
AcDbEntity
  8
LAYER3
 62
         4
100
AcDbLine
 10
-31.0952878865
 20
-72.4699769053
 30
0.0
 11
-61.5384887114
 21
-72.4699769053
 31
0.0
  0
INSERT
  5
16D
100
AcDbEntity
  8
0
100
AcDbBlockReference
  2
CLUMP4
 10
0.0
 20
0.0
 30
0.0
  0
INSERT
  5
182
100
AcDbEntity
  8
0
100
AcDbBlockReference
  2
CLUMP6
 10
0.0
 20
0.0
 30
0.0
  0
LINE
  5
196
100
AcDbEntity
  8
LAYER3
 62
         4
100
AcDbLine
 10
-60.3558414477
 20
-115.2699769053
 30
0.0
 11
-59.7321063752
 21
-112.3355341031
 31
0.0
  0
LINE
  5
197
100
AcDbEntity
  8
LAYER3
 62
         4
100
AcDbLine
 10
-60.3558414477
 20
-115.2699769053
 30
0.0
 11
-60.3558414477
 21
-108.2699769053
 31
0.0
  0
LINE
  5
198
100
AcDbEntity
  8
LAYER3
 62
         4
100
AcDbLine
 10
-20.4105076957
 20
-108.2699769053
 30
0.0
 11
-61.3558414477
 21
-108.2699769053
 31
0.0
  0
LINE
  5
199
100
AcDbEntity
  8
LAYER3
 62
         4
100
AcDbLine
 10
-20.4105076957
 20
-115.2699769053
 30
0.0
 11
-61.3558414477
 21
-115.2699769053
 31
0.0
  0
INSERT
  5
19B
100
AcDbEntity
  8
0
100
AcDbBlockReference
  2
CLUMP8
 10
0.0
 20
0.0
 30
0.0
  0
MTEXT
  5
1A7
100
AcDbEntity
  8
LAYER3
100
AcDbMText
 10
-63.7686157171
 20
-103.6899769651
 30
0.0
 40
1.7178947091
 41
2.0517168453
 71
         1
 72
         1
  1
\W0.8;13
 11
-0.0000000268
 21
1.0
 31
0.0
  0
LINE
  5
1A8
100
AcDbEntity
  8
LAYER3
 62
         4
100
AcDbLine
 10
-60.5384887114
 20
-108.2699769053
 30
0.0
 11
-61.1622237838
 21
-105.3355341031
 31
0.0
  0
LINE
  5
1A9
100
AcDbEntity
  8
LAYER3
 62
         4
100
AcDbLine
 10
-60.5384887114
 20
-108.2699769053
 30
0.0
 11
-59.9147536389
 21
-105.3355341031
 31
0.0
  0
LINE
  5
1AA
100
AcDbEntity
  8
LAYER3
 62
         4
100
AcDbLine
 10
-60.5384887114
 20
-95.2699769053
 30
0.0
 11
-59.9147536389
 21
-98.2044197075
 31
0.0
  0
LINE
  5
1AB
100
AcDbEntity
  8
LAYER3
 62
         4
100
AcDbLine
 10
-60.5384887114
 20
-95.2699769053
 30
0.0
 11
-61.1622237838
 21
-98.2044197075
 31
0.0
  0
LINE
  5
1AC
100
AcDbEntity
  8
LAYER3
 62
         4
100
AcDbLine
 10
-60.5384887114
 20
-95.2699769053
 30
0.0
 11
-60.5384887114
 21
-108.2699769053
 31
0.0
  0
LINE
  5
1AD
100
AcDbEntity
  8
LAYER0
 62
         6
100
AcDbLine
 10
-22.4105076957
 20
-112.2699769053
 30
0.0
 11
-22.4105076957
 21
-65.4699769053
 31
0.0
  0
ARC
  5
1AE
100
AcDbEntity
  8
LAYER0
 62
         4
100
AcDbCircle
 10
-13.9105076957
 20
-7.9699769053
 30
0.0
 40
2.8
210
-0.0
220
0.0
230
1.0
100
AcDbArc
 50
349.7134392131
 51
10.2865607869
  0
ARC
  5
1AF
100
AcDbEntity
  8
LAYER0
 62
         4
100
AcDbCircle
 10
-13.9105076957
 20
-7.9699769053
 30
0.0
 40
2.8
210
0.0
220
0.0
230
1.0
100
AcDbArc
 50
259.7134376778
 51
280.2865592517
  0
ARC
  5
1B0
100
AcDbEntity
  8
LAYER0
 62
         4
100
AcDbCircle
 10
-13.9105076957
 20
-7.9699769053
 30
0.0
 40
2.8
210
0.0
220
0.0
230
1.0
100
AcDbArc
 50
169.7134422835
 51
190.2865577165
  0
ARC
  5
1B1
100
AcDbEntity
  8
LAYER0
 62
         4
100
AcDbCircle
 10
-13.9105076957
 20
-7.9699769053
 30
0.0
 40
2.8
210
0.0
220
-0.0
230
1.0
100
AcDbArc
 50
79.7134407483
 51
100.2865623222
  0
LINE
  5
1B2
100
AcDbEntity
  8
LAYER0
 62
         4
100
AcDbLine
 10
-13.4105076957
 20
-7.4699769053
 30
0.0
 11
-13.4105076957
 21
-5.2149814425
 31
0.0
  0
LINE
  5
1B3
100
AcDbEntity
  8
LAYER0
 62
         4
100
AcDbLine
 10
-13.4105076957
 20
-10.7249723681
 30
0.0
 11
-13.4105076957
 21
-8.4699769053
 31
0.0
  0
LINE
  5
1B4
100
AcDbEntity
  8
LAYER0
 62
         4
100
AcDbLine
 10
-14.4105076957
 20
-8.4699769053
 30
0.0
 11
-14.4105076957
 21
-10.7249723681
 31
0.0
  0
LINE
  5
1B5
100
AcDbEntity
  8
LAYER0
 62
         4
100
AcDbLine
 10
-14.4105076957
 20
-5.2149814425
 30
0.0
 11
-14.4105076957
 21
-7.4699769053
 31
0.0
  0
LINE
  5
1B6
100
AcDbEntity
  8
LAYER0
 62
         4
100
AcDbLine
 10
-14.4105076957
 20
-8.4699769053
 30
0.0
 11
-16.6655031585
 21
-8.4699769053
 31
0.0
  0
LINE
  5
1B7
100
AcDbEntity
  8
LAYER0
 62
         4
100
AcDbLine
 10
-11.1555122329
 20
-8.4699769053
 30
0.0
 11
-13.4105076957
 21
-8.4699769053
 31
0.0
  0
LINE
  5
1B8
100
AcDbEntity
  8
LAYER0
 62
         4
100
AcDbLine
 10
-13.4105076957
 20
-7.4699769053
 30
0.0
 11
-11.1555122329
 21
-7.4699769053
 31
0.0
  0
LINE
  5
1B9
100
AcDbEntity
  8
LAYER0
 62
         4
100
AcDbLine
 10
-16.6655031585
 20
-7.4699769053
 30
0.0
 11
-14.4105076957
 21
-7.4699769053
 31
0.0
  0
LINE
  5
1BA
100
AcDbEntity
  8
LAYER0
 62
         4
100
AcDbLine
 10
-3.9105076957
 20
-14.603226486
 30
0.0
 11
-3.9105076957
 21
-60.4699770543
 31
0.0
  0
LINE
  5
1BB
100
AcDbEntity
  8
LAYER0
  6
CENTER
100
AcDbLine
 10
-23.9105076957
 20
-7.9699769053
 30
0.0
 11
-3.9105076957
 21
-7.9699769053
 31
0.0
  0
LINE
  5
1BC
100
AcDbEntity
  8
LAYER0
 62
         4
100
AcDbLine
 10
-23.9105076957
 20
-60.4699770543
 30
0.0
 11
-23.9105076957
 21
-14.603226486
 31
0.0
  0
LINE
  5
1BD
100
AcDbEntity
  8
LAYER0
 62
         4
100
AcDbLine
 10
-14.5105076957
 20
-62.4699769053
 30
0.0
 11
-14.5105076957
 21
-60.4699770543
 31
0.0
  0
LINE
  5
1BE
100
AcDbEntity
  8
LAYER0
 62
         4
100
AcDbLine
 10
-14.5105076957
 20
-120.2699769053
 30
0.0
 11
-14.5105076957
 21
-115.2699769053
 31
0.0
  0
LINE
  5
1BF
100
AcDbEntity
  8
LAYER0
 62
         4
100
AcDbLine
 10
-13.9105076957
 20
-62.4699769053
 30
0.0
 11
-13.9105076957
 21
-60.4699770543
 31
0.0
  0
LINE
  5
1C0
100
AcDbEntity
  8
LAYER0
 62
         4
100
AcDbLine
 10
-13.9105076957
 20
-120.2699769053
 30
0.0
 11
-13.9105076957
 21
-115.2699769053
 31
0.0
  0
LINE
  5
1C1
100
AcDbEntity
  8
LAYER0
 62
         4
100
AcDbLine
 10
-13.3105076957
 20
-62.4699769053
 30
0.0
 11
-13.3105076957
 21
-60.4699770543
 31
0.0
  0
LINE
  5
1C2
100
AcDbEntity
  8
LAYER0
 62
         4
100
AcDbLine
 10
-13.3105076957
 20
-120.2699769053
 30
0.0
 11
-13.3105076957
 21
-115.2699769053
 31
0.0
  0
LINE
  5
1C3
100
AcDbEntity
  8
LAYER0
  6
CENTER
100
AcDbLine
 10
-13.9105076957
 20
-38.5684831977
 30
0.0
 11
-13.9105076957
 21
-112.7699769053
 31
0.0
  0
LINE
  5
1C4
100
AcDbEntity
  8
LAYER0
 62
         4
100
AcDbLine
 10
-22.9105076957
 20
-82.4699769053
 30
0.0
 11
-22.9105076957
 21
-120.2699769053
 31
0.0
  0
LINE
  5
1C5
100
AcDbEntity
  8
LAYER0
 62
         4
100
AcDbLine
 10
-22.9105076957
 20
-60.4699770543
 30
0.0
 11
-22.9105076957
 21
-62.4699769053
 31
0.0
  0
LINE
  5
1C6
100
AcDbEntity
  8
LAYER0
 62
         4
100
AcDbLine
 10
54.5894925278
 20
47.5300230947
 30
0.0
 11
54.5894925278
 21
-120.2699769053
 31
0.0
  0
LINE
  5
1C7
100
AcDbEntity
  8
LAYER0
 62
         4
100
AcDbLine
 10
3.5894923788
 20
47.5300230947
 30
0.0
 11
3.5894923788
 21
-62.4699769053
 31
0.0
  0
LINE
  5
1C8
100
AcDbEntity
  8
LAYER0
 62
         4
100
AcDbLine
 10
6.5894923788
 20
47.5300230947
 30
0.0
 11
6.5894923788
 21
-62.4699769053
 31
0.0
  0
LINE
  5
1C9
100
AcDbEntity
  8
LAYER0
 62
         4
100
AcDbLine
 10
15.0894924533
 20
47.5300230947
 30
0.0
 11
15.0894924533
 21
-62.4699769053
 31
0.0
  0
LINE
  5
1CA
100
AcDbEntity
  8
LAYER0
 62
         4
100
AcDbLine
 10
24.0894924533
 20
47.5300230947
 30
0.0
 11
24.0894924533
 21
-60.4699769053
 31
0.0
  0
LINE
  5
1CB
100
AcDbEntity
  8
LAYER0
 62
         4
100
AcDbLine
 10
24.6894924533
 20
47.5300230947
 30
0.0
 11
24.6894924533
 21
-60.484986292
 31
0.0
  0
LINE
  5
1CC
100
AcDbEntity
  8
LAYER0
 62
         4
100
AcDbLine
 10
23.4894924533
 20
47.5300230947
 30
0.0
 11
23.4894924533
 21
-60.484986292
 31
0.0
  0
LINE
  5
1CD
100
AcDbEntity
  8
LAYER0
 62
         4
100
AcDbLine
 10
33.0894924533
 20
47.5300230947
 30
0.0
 11
33.0894924533
 21
-64.5327229721
 31
0.0
  0
LINE
  5
1CE
100
AcDbEntity
  8
LAYER0
 62
         6
100
AcDbLine
 10
-5.4105076957
 20
-112.2699769053
 30
0.0
 11
-5.4105076957
 21
-65.4699769053
 31
0.0
  0
LINE
  5
1CF
100
AcDbEntity
  8
LAYER0
 62
         3
100
AcDbLine
 10
-28.4105076957
 20
-62.4699769053
 30
0.0
 11
-28.4105076957
 21
-82.4699769053
 31
0.0
  0
MTEXT
  5
1D0
100
AcDbEntity
  8
LAYER0
100
AcDbMText
 10
-13.9221737419
 20
-132.5157576176
 30
0.0
 40
3.0922104359
 41
7.3861805462
 71
         1
 72
         1
  1
\W0.8;MR-8
  0
MTEXT
  5
1D1
100
AcDbEntity
  8
LAYER0
100
AcDbMText
 10
-35.7051459079
 20
-126.6461242782
 30
0.0
 40
2.1473683357
 41
6.4116149902
 71
         1
 72
         1
  1
\W0.8;Ｎｏ.
  0
LINE
  5
1D2
100
AcDbEntity
  8
LAYER0
 62
         3
100
AcDbLine
 10
-25.0
 20
-125.5
 30
0.0
 11
-25.0
 21
-138.5
 31
0.0
  0
MTEXT
  5
1D3
100
AcDbEntity
  8
LAYER0
100
AcDbMText
 10
-10.6564309049
 20
-126.7970201517
 30
0.0
 40
2.1473683357
 41
7.6538653946
 71
         1
 72
         1
  1
\W0.8;品　番
  0
LINE
  5
1D4
100
AcDbEntity
  8
LAYER0
 62
         3
100
AcDbLine
 10
-40.0
 20
-138.5
 30
0.0
 11
-40.0
 21
-125.5
 31
0.0
  0
LINE
  5
1D5
100
AcDbEntity
  8
LAYER0
 62
         4
100
AcDbLine
 10
-23.9105076957
 20
-60.4699770543
 30
0.0
 11
-3.9105076957
 21
-60.4699770543
 31
0.0
  0
LINE
  5
1D6
100
AcDbEntity
  8
LAYER0
 62
         3
100
AcDbLine
 10
-22.4105076957
 20
-82.4699769053
 30
0.0
 11
-28.4105076957
 21
-82.4699769053
 31
0.0
  0
LINE
  5
1D7
100
AcDbEntity
  8
LAYER0
  6
CENTER
100
AcDbLine
 10
-9.4105076957
 20
-95.2699769053
 30
0.0
 11
-18.4105076957
 21
-95.2699769053
 31
0.0
  0
LINE
  5
1D8
100
AcDbEntity
  8
LAYER0
  6
CENTER
100
AcDbLine
 10
-9.4105076957
 20
-108.2699769053
 30
0.0
 11
-18.4105076957
 21
-108.2699769053
 31
0.0
  0
LINE
  5
1D9
100
AcDbEntity
  8
LAYER0
 62
         6
100
AcDbLine
 10
-19.4105076957
 20
-62.4699769053
 30
0.0
 11
-8.4105076957
 21
-62.4699769053
 31
0.0
  0
ARC
  5
1DA
100
AcDbEntity
  8
LAYER0
 62
         6
100
AcDbCircle
 10
-8.4105076957
 20
-112.2699769053
 30
0.0
 40
3.0
210
-0.0
220
0.0
230
1.0
100
AcDbArc
 50
269.9999984648
 51
0.0
  0
ARC
  5
1DB
100
AcDbEntity
  8
LAYER0
 62
         6
100
AcDbCircle
 10
-19.4105076957
 20
-112.2699769053
 30
0.0
 40
3.0
210
0.0
220
0.0
230
1.0
100
AcDbArc
 50
180.0000030705
 51
269.9999984648
  0
ARC
  5
1DC
100
AcDbEntity
  8
LAYER0
 62
         6
100
AcDbCircle
 10
-8.4105076957
 20
-65.4699769053
 30
0.0
 40
3.0
210
0.0
220
-0.0
230
1.0
100
AcDbArc
 50
0.0
 51
90.0000015352
  0
ARC
  5
1DD
100
AcDbEntity
  8
LAYER0
 62
         6
100
AcDbCircle
 10
-19.4105076957
 20
-65.4699769053
 30
0.0
 40
3.0
210
0.0
220
0.0
230
1.0
100
AcDbArc
 50
90.0000015352
 51
180.0000030705
  0
LINE
  5
1DE
100
AcDbEntity
  8
LAYER0
 62
         6
100
AcDbLine
 10
-8.4105076957
 20
-115.2699769053
 30
0.0
 11
-19.4105076957
 21
-115.2699769053
 31
0.0
  0
LINE
  5
1DF
100
AcDbEntity
  8
LAYER0
  6
CENTER
100
AcDbLine
 10
34.0894924533
 20
-72.4699769053
 30
0.0
 11
-30.0952878865
 21
-72.4699769053
 31
0.0
  0
LINE
  5
1E0
100
AcDbEntity
  8
LAYER0
 62
         4
100
AcDbLine
 10
3.5894923788
 20
47.5300230947
 30
0.0
 11
-44.4105077702
 21
47.5300230947
 31
0.0
  0
LINE
  5
1E1
100
AcDbEntity
  8
LAYER0
 62
         3
100
AcDbLine
 10
-28.4105076957
 20
-62.4699769053
 30
0.0
 11
17.4562428726
 21
-62.4699769053
 31
0.0
  0
LINE
  5
1E2
100
AcDbEntity
  8
LAYER0
 62
         3
100
AcDbLine
 10
95.0
 20
-125.5
 30
0.0
 11
-40.0
 21
-125.5
 31
0.0
  0
LINE
  5
1E3
100
AcDbEntity
  8
LAYER0
 62
         3
100
AcDbLine
 10
95.0
 20
-130.5
 30
0.0
 11
-40.0
 21
-130.5
 31
0.0
  0
LINE
  5
1E4
100
AcDbEntity
  8
LAYER0
 62
         3
100
AcDbLine
 10
95.0
 20
-138.5
 30
0.0
 11
-40.0
 21
-138.5
 31
0.0
  0
LINE
  5
1E5
100
AcDbEntity
  8
LAYER0
 62
         3
100
AcDbLine
 10
17.4562428726
 20
-82.4699769053
 30
0.0
 11
-5.4105076957
 21
-82.4699769053
 31
0.0
  0
ARC
  5
1E6
100
AcDbEntity
  8
LAYER0
 62
         4
100
AcDbCircle
 10
-13.9105076957
 20
-7.9699769053
 30
0.0
 40
12.0
210
0.0
220
0.0
230
1.0
100
AcDbArc
 50
326.4426896657
 51
213.5573072639
  0
LINE
  5
1E7
100
AcDbEntity
  8
LAYER0
 62
         3
100
AcDbLine
 10
-24.6105076957
 20
111.9300230127
 30
0.0
 11
11.9052142272
 21
111.9300230127
 31
0.0
  0
LINE
  5
1E8
100
AcDbEntity
  8
LAYER0
 62
         3
100
AcDbLine
 10
11.9052142272
 20
115.1300230127
 30
0.0
 11
-25.2105076957
 21
115.1300230127
 31
0.0
  0
LINE
  5
1E9
100
AcDbEntity
  8
LAYER0
 62
         3
100
AcDbLine
 10
11.9052142272
 20
68.9300228637
 30
0.0
 11
-25.2105076957
 21
68.9300228637
 31
0.0
  0
LINE
  5
1EA
100
AcDbEntity
  8
LAYER0
 62
         3
100
AcDbLine
 10
-24.6105076957
 20
72.1300228637
 30
0.0
 11
11.9052142272
 21
72.1300228637
 31
0.0
  0
INSERT
  5
1EC
100
AcDbEntity
  8
0
100
AcDbBlockReference
  2
CLUMP10
 10
0.0
 20
0.0
 30
0.0
  0
MTEXT
  5
1F8
100
AcDbEntity
  8
LAYER3
100
AcDbMText
 10
-0.9605076212
 20
142.2853751203
 30
0.0
 40
2.1473683357
 41
5.1292919922
 71
         1
 72
         1
  1
\W0.8;64.5
  0
LINE
  5
1F9
100
AcDbEntity
  8
LAYER3
 62
         4
100
AcDbLine
 10
-28.4105076957
 20
138.4977164289
 30
0.0
 11
36.0894924533
 21
138.4977164289
 31
0.0
  0
INSERT
  5
1FB
100
AcDbEntity
  8
0
100
AcDbBlockReference
  2
CLUMP12
 10
0.0
 20
0.0
 30
0.0
  0
INSERT
  5
27B
100
AcDbEntity
  8
0
100
AcDbBlockReference
  2
CLUMP14
 10
0.0
 20
0.0
 30
0.0
  0
LINE
  5
28F
100
AcDbEntity
  8
LAYER0
 62
         4
100
AcDbLine
 10
-44.4105077702
 20
47.5300230947
 30
0.0
 11
-44.4105077702
 21
-120.2699769053
 31
0.0
  0
LINE
  5
290
100
AcDbEntity
  8
LAYER0
 62
         4
100
AcDbLine
 10
-22.9105076957
 20
47.5300230947
 30
0.0
 11
-22.9105076957
 21
-0.0327229721
 31
0.0
  0
LINE
  5
291
100
AcDbEntity
  8
LAYER0
 62
         4
100
AcDbLine
 10
-4.9105076957
 20
47.5300230947
 30
0.0
 11
-4.9105076957
 21
-0.0327229721
 31
0.0
  0
CIRCLE
  5
292
100
AcDbEntity
  8
LAYER0
 62
         4
100
AcDbCircle
 10
-13.9105076957
 20
-7.9699769053
 30
0.0
 40
7.0
210
0.0
220
0.0
230
1.0
  0
LINE
  5
293
100
AcDbEntity
  8
LAYER0
  6
CENTER
100
AcDbLine
 10
-13.9105076957
 20
1.5300230947
 30
0.0
 11
-13.9105076957
 21
-32.3322701639
 31
0.0
  0
LINE
  5
294
100
AcDbEntity
  8
LAYER3
 62
         4
100
AcDbLine
 10
-68.0270265232
 20
4.0300230947
 30
0.0
 11
-67.4032914507
 21
1.0955802925
 31
0.0
  0
LINE
  5
295
100
AcDbEntity
  8
LAYER3
 62
         4
100
AcDbLine
 10
-68.0270265232
 20
4.0300230947
 30
0.0
 11
-68.6507615956
 21
1.0955802925
 31
0.0
  0
LINE
  5
296
100
AcDbEntity
  8
LAYER3
 62
         4
100
AcDbLine
 10
-68.0270265232
 20
-115.2699769053
 30
0.0
 11
-68.0270265232
 21
4.0300230947
 31
0.0
  0
ENDSEC
  0
SECTION
  2
OBJECTS
  0
DICTIONARY
  5
19
100
AcDbDictionary
280
         0
281
         1
  3
ACAD_GROUP
350
1A
  3
ACAD_MLINESTYLE
350
1B
  3
ACAD_LAYOUT
350
1E
  3
ACAD_PLOTSETTINGS
350
22
  3
ACAD_PLOTSTYLENAME
350
1F
  3
ACAD_WIPEOUT_VARS
350
23
  0
DICTIONARY
  5
1A
102
{ACAD_REACTORS
330
19
102
}
100
AcDbDictionary
280
         0
281
         1
  0
DICTIONARY
  5
1B
102
{ACAD_REACTORS
330
19
102
}
100
AcDbDictionary
280
         0
281
         1
  3
Standard
350
1C
  0
MLINESTYLE
  5
1C
102
{ACAD_REACTORS
330
1B
102
}
100
AcDbMlineStyle
  2
Standard
 70
         0
  3

 62
         0
 51
90.0
 52
90.0
 71
         2
 49
0.5
 62
       256
  6
BYLAYER
 49
-0.5
 62
       256
  6
BYLAYER
  0
ACDBDICTIONARYWDFLT
  5
1F
102
{ACAD_REACTORS
330
19
102
}
100
AcDbDictionary
281
         1
  3
Normal
350
1D
100
AcDbDictionaryWithDefault
340
1D
  0
ACDBPLACEHOLDER
  5
1D
102
{ACAD_REACTORS
330
1F
102
}
  0
LAYOUT
  5
20
102
{ACAD_REACTORS
330
1E
102
}
100
AcDbPlotSettings
  1

  2

  4

  6

 40
0.0
 41
0.0
 42
0.0
 43
0.0
 44
0.0
 45
0.0
 46
0.0
 47
0.0
 48
0.0
 49
0.0
140
0.0
141
0.0
142
1.0
143
1.0
 70
         0
 72
         0
 73
         0
 74
         0
  7

 75
         0
147
1.0
148
0.0
149
0.0
100
AcDbLayout
  1
Model
 70
         0
 71
         0
 10
0.0
 20
0.0
 11
0.0
 21
0.0
 12
0.0
 22
0.0
 32
0.0
 14
0.0
 24
0.0
 34
0.0
 15
0.0
 25
0.0
 35
0.0
146
0.0
 13
0.0
 23
0.0
 33
0.0
 16
0.0
 26
0.0
 36
0.0
 17
0.0
 27
0.0
 37
0.0
 76
         0
330
A
331
0
345
0
346
0
  0
LAYOUT
  5
21
102
{ACAD_REACTORS
330
1E
102
}
100
AcDbPlotSettings
  1

  2

  4

  6

 40
0.0
 41
0.0
 42
0.0
 43
0.0
 44
0.0
 45
0.0
 46
0.0
 47
0.0
 48
0.0
 49
0.0
140
0.0
141
0.0
142
1.0
143
1.0
 70
         0
 72
         0
 73
         0
 74
         0
  7

 75
         0
147
1.0
148
0.0
149
0.0
100
AcDbLayout
  1
Layout1
 70
         0
 71
         0
 10
0.0
 20
0.0
 11
0.0
 21
0.0
 12
0.0
 22
0.0
 32
0.0
 14
0.0
 24
0.0
 34
0.0
 15
0.0
 25
0.0
 35
0.0
146
0.0
 13
0.0
 23
0.0
 33
0.0
 16
0.0
 26
0.0
 36
0.0
 17
0.0
 27
0.0
 37
0.0
 76
         0
330
B
331
0
345
0
346
0
  0
DICTIONARY
  5
1E
102
{ACAD_REACTORS
330
19
102
}
100
AcDbDictionary
280
         0
281
         1
  3
Layout1
350
21
  3
Model
350
20
  0
DICTIONARY
  5
22
102
{ACAD_REACTORS
330
19
102
}
100
AcDbDictionary
280
         0
281
         1
  0
WIPEOUTVARIABLES
  5
23
100
AcDbWipeoutVariables
 70
         1
  0
ENDSEC
  0
EOF
