  0
SECTION
  2
HEADER
  9
$ACADVER
  1
AC1015
  9
$ACADMAINTVER
 70
         6
  9
$DWGCODEPAGE
  3
ANSI_932
  9
$INSBASE
 10
0.0
 20
0.0
 30
0.0
  9
$EXTMIN
 10
1.0000000000E+20
 20
1.0000000000E+20
 30
1.0000000000E+20
  9
$EXTMAX
 10
-1.0000000000E+20
 20
-1.0000000000E+20
 30
-1.0000000000E+20
  9
$LIMMIN
 10
0.0
 20
0.0
  9
$LIMMAX
 10
0.0
 20
0.0
  9
$ORTHOMODE
 70
         0
  9
$REGENMODE
 70
         1
  9
$FILLMODE
 70
         1
  9
$QTEXTMODE
 70
         0
  9
$MIRRTEXT
 70
         1
  9
$LTSCALE
 40
1.0
  9
$ATTMODE
 70
         1
  9
$TEXTSIZE
 40
0.2
  9
$TRACEWID
 40
0.05
  9
$TEXTSTYLE
  7
Standard
  9
$CLAYER
  8
0
  9
$CELTYPE
  6
Continuous
  9
$CECOLOR
 62
       256
  9
$CELTSCALE
 40
1.0
  9
$DISPSILH
 70
         0
  9
$DIMSCALE
 40
1.0
  9
$DIMASZ
 40
0.18
  9
$DIMEXO
 40
0.0625
  9
$DIMDLI
 40
0.38
  9
$DIMRND
 40
0.0
  9
$DIMDLE
 40
0.0
  9
$DIMEXE
 40
0.18
  9
$DIMTP
 40
0.0
  9
$DIMTM
 40
0.0
  9
$DIMTXT
 40
0.18
  9
$DIMCEN
 40
0.09
  9
$DIMTSZ
 40
0.0
  9
$DIMTOL
 70
         0
  9
$DIMLIM
 70
         0
  9
$DIMTIH
 70
         1
  9
$DIMTOH
 70
         1
  9
$DIMSE1
 70
         0
  9
$DIMSE2
 70
         0
  9
$DIMTAD
 70
         0
  9
$DIMZIN
 70
         0
  9
$DIMBLK
  1

  9
$DIMASO
 70
         1
  9
$DIMSHO
 70
         1
  9
$DIMPOST
  1

  9
$DIMAPOST
  1

  9
$DIMALT
 70
         0
  9
$DIMALTD
 70
         2
  9
$DIMALTF
 40
25.4
  9
$DIMLFAC
 40
1.0
  9
$DIMTOFL
 70
         0
  9
$DIMTVP
 40
0.0
  9
$DIMTIX
 70
         0
  9
$DIMSOXD
 70
         0
  9
$DIMSAH
 70
         0
  9
$DIMBLK1
  1

  9
$DIMBLK2
  1

  9
$DIMSTYLE
  2
Standard
  9
$DIMCLRD
 70
         0
  9
$DIMCLRE
 70
         0
  9
$DIMCLRT
 70
         0
  9
$DIMTFAC
 40
1.0
  9
$DIMGAP
 40
0.09
  9
$DIMJUST
 70
         0
  9
$DIMSD1
 70
         0
  9
$DIMSD2
 70
         0
  9
$DIMTOLJ
 70
         1
  9
$DIMTZIN
 70
         0
  9
$DIMALTZ
 70
         0
  9
$DIMALTTZ
 70
         0
  9
$DIMUPT
 70
         0
  9
$DIMDEC
 70
         4
  9
$DIMTDEC
 70
         4
  9
$DIMALTU
 70
         2
  9
$DIMALTTD
 70
         2
  9
$DIMTXSTY
  7
Standard
  9
$DIMAUNIT
 70
         0
  9
$DIMADEC
 70
         0
  9
$DIMALTRND
 40
0.0
  9
$DIMAZIN
 70
         0
  9
$DIMDSEP
 70
         0
  9
$DIMATFIT
 70
         3
  9
$DIMFRAC
 70
         0
  9
$DIMLDRBLK
  1

  9
$DIMLUNIT
 70
         2
  9
$DIMLWD
 70
         0
  9
$DIMLWE
 70
         0
  9
$DIMTMOVE
 70
         0
  9
$LUNITS
 70
         2
  9
$LUPREC
 70
         4
  9
$SKETCHINC
 40
0.1
  9
$FILLETRAD
 40
0.0
  9
$AUNITS
 70
         0
  9
$AUPREC
 70
         0
  9
$MENU
  1
acad
  9
$ELEVATION
 40
0.0
  9
$PELEVATION
 40
0.0
  9
$THICKNESS
 40
0.0
  9
$LIMCHECK
 70
         0
  9
$CHAMFERA
 40
0.0
  9
$CHAMFERB
 40
0.0
  9
$CHAMFERC
 40
0.0
  9
$CHAMFERD
 40
0.0
  9
$SKPOLY
 70
         0
  9
$TDCREATE
 40
0.000000000
  9
$TDUCREATE
 40
0.000000000
  9
$TDUPDATE
 40
0.000000000
  9
$TDUUPDATE
 40
0.000000000
  9
$TDINDWG
 40
0.0000000000
  9
$TDUSRTIMER
 40
0.0000000000
  9
$USRTIMER
 70
         1
  9
$ANGBASE
 50
0.0
  9
$ANGDIR
 70
         0
  9
$PDMODE
 70
         3
  9
$PDSIZE
 40
-1.0
  9
$PLINEWID
 40
0.0
  9
$SPLFRAME
 70
         0
  9
$SPLINETYPE
 70
         6
  9
$SPLINESEGS
 70
         8
  9
$HANDSEED
  5
157
  9
$SURFTAB1
 70
         6
  9
$SURFTAB2
 70
         6
  9
$SURFTYPE
 70
         6
  9
$SURFU
 70
         6
  9
$SURFV
 70
         6
  9
$UCSBASE
  2

  9
$UCSNAME
  2

  9
$UCSORG
 10
0.0
 20
0.0
 30
0.0
  9
$UCSXDIR
 10
1.0
 20
0.0
 30
0.0
  9
$UCSYDIR
 10
0.0
 20
1.0
 30
0.0
  9
$UCSORTHOREF
  2

  9
$UCSORTHOVIEW
 70
         0
  9
$UCSORGTOP
 10
0.0
 20
0.0
 30
0.0
  9
$UCSORGBOTTOM
 10
0.0
 20
0.0
 30
0.0
  9
$UCSORGLEFT
 10
0.0
 20
0.0
 30
0.0
  9
$UCSORGRIGHT
 10
0.0
 20
0.0
 30
0.0
  9
$UCSORGFRONT
 10
0.0
 20
0.0
 30
0.0
  9
$UCSORGBACK
 10
0.0
 20
0.0
 30
0.0
  9
$PUCSBASE
  2

  9
$PUCSNAME
  2

  9
$PUCSORG
 10
0.0
 20
0.0
 30
0.0
  9
$PUCSXDIR
 10
1.0
 20
0.0
 30
0.0
  9
$PUCSYDIR
 10
0.0
 20
1.0
 30
0.0
  9
$PUCSORTHOREF
  2

  9
$PUCSORTHOVIEW
 70
         0
  9
$PUCSORGTOP
 10
0.0
 20
0.0
 30
0.0
  9
$PUCSORGBOTTOM
 10
0.0
 20
0.0
 30
0.0
  9
$PUCSORGLEFT
 10
0.0
 20
0.0
 30
0.0
  9
$PUCSORGRIGHT
 10
0.0
 20
0.0
 30
0.0
  9
$PUCSORGFRONT
 10
0.0
 20
0.0
 30
0.0
  9
$PUCSORGBACK
 10
0.0
 20
0.0
 30
0.0
  9
$USERI1
 70
         0
  9
$USERI2
 70
         0
  9
$USERI3
 70
         0
  9
$USERI4
 70
         0
  9
$USERI5
 70
         0
  9
$USERR1
 40
0.0
  9
$USERR2
 40
0.0
  9
$USERR3
 40
0.0
  9
$USERR4
 40
0.0
  9
$USERR5
 40
0.0
  9
$WORLDVIEW
 70
         1
  9
$SHADEDGE
 70
         3
  9
$SHADEDIF
 70
        70
  9
$TILEMODE
 70
         1
  9
$MAXACTVP
 70
        16
  9
$PINSBASE
 10
0.0
 20
0.0
 30
0.0
  9
$PLIMCHECK
 70
         0
  9
$PEXTMIN
 10
1.0000000000E+20
 20
1.0000000000E+20
 30
1.0000000000E+20
  9
$PEXTMAX
 10
-1.0000000000E+20
 20
-1.0000000000E+20
 30
-1.0000000000E+20
  9
$PLIMMIN
 10
0.0
 20
0.0
  9
$PLIMMAX
 10
12.0
 20
9.0
  9
$UNITMODE
 70
         0
  9
$VISRETAIN
 70
         0
  9
$PLINEGEN
 70
         1
  9
$PSLTSCALE
 70
         0
  9
$TREEDEPTH
 70
      3020
  9
$CMLSTYLE
  2
Standard
  9
$CMLJUST
 70
         0
  9
$CMLSCALE
 40
1.0
  9
$PROXYGRAPHICS
 70
         0
  9
$MEASUREMENT
 70
         0
  9
$CELWEIGHT
370
         0
  9
$ENDCAPS
280
         0
  9
$JOINSTYLE
280
         0
  9
$LWDISPLAY
290
         0
  9
$INSUNITS
 70
         0
  9
$HYPERLINKBASE
  1

  9
$XEDIT
290
         1
  9
$CEPSNTYPE
380
         0
  9
$PSTYLEMODE
290
         0
  9
$FINGERPRINTGUID
  2

  9
$VERSIONGUID
  2

  9
$EXTNAMES
290
         1
  9
$PSVPSCALE
 40
0.0
  0
ENDSEC
  0
SECTION
  2
CLASSES
  0
CLASS
  1
LWPOLYLINE
  2
AcDbPolyline
  3
"AutoCAD"
 90
        0
280
         0
281
         1
  0
CLASS
  1
IMAGE
  2
AcDbRasterImage
  3
ISM
 90
      127
280
         0
281
         1
  0
CLASS
  1
OLE2FRAME
  2
AcDbOle2Frame
  3
""
 90
        0
280
         0
281
         1
  0
CLASS
  1
HATCH
  2
AcDbHatch
  3
"ACAD_SEDONA"
 90
        0
280
         0
281
         1
  0
CLASS
  1
DICTIONARYVAR
  2
AcDbDictionaryVar
  3
"AutoCAD"
 90
        0
280
         0
281
         0
  0
CLASS
  1
RASTERVARIABLES
  2
AcDbRasterVariables
  3
ISM
 90
        0
280
         0
281
         0
  0
CLASS
  1
IMAGEDEF
  2
AcDbRasterImageDef
  3
ISM
 90
        0
280
         0
281
         0
  0
CLASS
  1
IMAGEDEF_REACTOR
  2
AcDbRasterImageDefReactor
  3
ISM
 90
        1
280
         0
281
         0
  0
CLASS
  1
IDBUFFER
  2
AcDbIdBuffer
  3
"Acad"
 90
        0
280
         0
281
         0
  0
CLASS
  1
SPATIAL_FILTER
  2
AcDbSpatialFilter
  3
"Acad"
 90
        0
280
         0
281
         0
  0
CLASS
  1
XRECORD
  2
AcDbXrecord
  3
"<Built In>"
 90
        0
280
         0
281
         0
  0
CLASS
  1
SORTENTSTABLE
  2
AcDbSortentsTable
  3
"AutoCAD"
 90
        0
280
         0
281
         0
  0
CLASS
  1
LAYER_INDEX
  2
AcDbLayerIndex
  3
"Acad"
 90
        0
280
         0
281
         0
  0
CLASS
  1
SPATIAL_INDEX
  2
AcDbSpatialIndex
  3
"Acad"
 90
        0
280
         0
281
         0
  0
CLASS
  1
OBJECT_PTR
  2
CAseDLPNTableRecord
  3
"ASE-LPNTableRecord"
 90
        1
280
         0
281
         0
  0
CLASS
  1
LAYOUT
  2
AcDbLayout
  3
"AutoCAD 2000"
 90
        1
280
         0
281
         0
  0
CLASS
  1
PLOTSETTINGS
  2
AcDbPlotSettings
  3
"AutoCAD 2000"
 90
        1
280
         0
281
         0
  0
CLASS
  1
ACDBDICTIONARYWDFLT
  2
AcDbDictionaryWithDefault
  3
"AutoCAD 2000"
 90
        1
280
         0
281
         0
  0
CLASS
  1
ACDBPLACEHOLDER
  2
AcDbPlaceHolder
  3
"AutoCAD 2000"
 90
        1
280
         0
281
         0
  0
CLASS
  1
VBA_PROJECT
  2
AcDbVbaProject
  3
"acadvba"
 90
        1
280
         0
281
         0
  0
CLASS
  1
WIPEOUT
  2
AcDbWipeout
  3
WipeOut|AutoCAD Express Tool|expresstools@autodesk.com
 90
      127
280
         0
281
         1
  0
CLASS
  1
WIPEOUTVARIABLES
  2
AcDbWipeoutVariables
  3
WipeOut|AutoCAD Express Tool|expresstools@autodesk.com
 90
        0
280
         0
281
         0
  0
CLASS
  1
RTEXT
  2
RText
  3
RText|AutoCAD Express Tool|expresstools@autodesk.com
 90
        0
280
         0
281
         1
  0
CLASS
  1
ARCALIGNEDTEXT
  2
AcDbArcAlignedText
  3
ATEXT|AutoCAD Express Tool|expresstools@autodesk.com
 90
        0
280
         0
281
         1
  0
ENDSEC
  0
SECTION
  2
TABLES
  0
TABLE
  2
VPORT
  5
7
100
AcDbSymbolTable
 70
         1
  0
VPORT
  5
15
100
AcDbSymbolTableRecord
100
AcDbViewportTableRecord
  2
*ACTIVE
 70
         0
 10
0.0
 20
0.0
 11
1.0
 21
1.0
 12
6.591288
 22
4.579184
 13
0.0
 23
0.0
 14
1.0
 24
1.0
 15
0.0
 25
0.0
 16
0.0
 26
0.0
 36
1.0
 17
0.0
 27
0.0
 37
0.0
 40
9.158369
 41
0.688564
 42
50.0
 43
0.0
 44
0.0
 50
0.0
 51
0.0
 71
         0
 72
       100
 73
         1
 74
         1
 75
         0
 76
         0
 77
         0
 78
         0
281
         0
 65
         0
110
0.0
120
0.0
130
0.0
111
1.0
121
0.0
131
0.0
112
0.0
122
1.0
132
0.0
345
0
346
0
 79
         0
146
0.0
  0
ENDTAB
  0
TABLE
  2
LTYPE
  5
4
100
AcDbSymbolTable
 70
        13
  0
LTYPE
  5
11
100
AcDbSymbolTableRecord
100
AcDbLinetypeTableRecord
  2
ByBlock
 70
        64
  3

 72
        65
 73
         0
 40
0.0
  0
LTYPE
  5
12
100
AcDbSymbolTableRecord
100
AcDbLinetypeTableRecord
  2
ByLayer
 70
        64
  3

 72
        65
 73
         0
 40
0.0
  0
LTYPE
  5
13
100
AcDbSymbolTableRecord
100
AcDbLinetypeTableRecord
  2
Continuous
 70
        64
  3
Solid line
 72
        65
 73
         0
 40
0.0
  0
LTYPE
  5
24
100
AcDbSymbolTableRecord
100
AcDbLinetypeTableRecord
  2
DOT
 70
        64
  3
. . . . . . . . 
 72
        65
 73
         2
 40
1.0
 49
0.0
 74
         0
 49
-1.0
 74
         0
  0
LTYPE
  5
25
100
AcDbSymbolTableRecord
100
AcDbLinetypeTableRecord
  2
DASHED
 70
        64
  3
___  ___  ___  ___  
 72
        65
 73
         2
 40
4.0
 49
3.0
 74
         0
 49
-1.0
 74
         0
  0
LTYPE
  5
26
100
AcDbSymbolTableRecord
100
AcDbLinetypeTableRecord
  2
HIDDEN
 70
        64
  3
__ __ __ __ 
 72
        65
 73
         2
 40
3.0
 49
2.0
 74
         0
 49
-1.0
 74
         0
  0
LTYPE
  5
27
100
AcDbSymbolTableRecord
100
AcDbLinetypeTableRecord
  2
STITCH
 70
        64
  3
_ _ _ _ 
 72
        65
 73
         2
 40
2.0
 49
1.0
 74
         0
 49
-1.0
 74
         0
  0
LTYPE
  5
28
100
AcDbSymbolTableRecord
100
AcDbLinetypeTableRecord
  2
CENTER
 70
        64
  3
______  __  ______  __  
 72
        65
 73
         4
 40
43.0
 49
40.0
 74
         0
 49
-1.0
 74
         0
 49
1.0
 74
         0
 49
-1.0
 74
         0
  0
LTYPE
  5
29
100
AcDbSymbolTableRecord
100
AcDbLinetypeTableRecord
  2
DASHDOT
 70
        64
  3
____ . ____ . 
 72
        65
 73
         4
 40
32.0
 49
30.0
 74
         0
 49
-1.0
 74
         0
 49
0.0
 74
         0
 49
-1.0
 74
         0
  0
LTYPE
  5
2A
100
AcDbSymbolTableRecord
100
AcDbLinetypeTableRecord
  2
BORDER
 70
        64
  3
__ . __ . 
 72
        65
 73
         4
 40
22.0
 49
20.0
 74
         0
 49
-1.0
 74
         0
 49
0.0
 74
         0
 49
-1.0
 74
         0
  0
LTYPE
  5
2B
100
AcDbSymbolTableRecord
100
AcDbLinetypeTableRecord
  2
CUTTING
 70
        64
  3
________   ___   ___   
 72
        65
 73
         6
 40
45.0
 49
40.0
 74
         0
 49
-1.0
 74
         0
 49
1.0
 74
         0
 49
-1.0
 74
         0
 49
1.0
 74
         0
 49
-1.0
 74
         0
  0
LTYPE
  5
2C
100
AcDbSymbolTableRecord
100
AcDbLinetypeTableRecord
  2
PHANTOM
 70
        64
  3
______  __  __  
 72
        65
 73
         6
 40
35.0
 49
30.0
 74
         0
 49
-1.0
 74
         0
 49
1.0
 74
         0
 49
-1.0
 74
         0
 49
1.0
 74
         0
 49
-1.0
 74
         0
  0
LTYPE
  5
2D
100
AcDbSymbolTableRecord
100
AcDbLinetypeTableRecord
  2
DIVIDE
 70
        64
  3
____ . . ____ . . 
 72
        65
 73
         6
 40
23.0
 49
20.0
 74
         0
 49
-1.0
 74
         0
 49
0.0
 74
         0
 49
-1.0
 74
         0
 49
0.0
 74
         0
 49
-1.0
 74
         0
  0
ENDTAB
  0
TABLE
  2
LAYER
  5
2
100
AcDbSymbolTable
 70
         3
  0
LAYER
  5
14
100
AcDbSymbolTableRecord
100
AcDbLayerTableRecord
  2
0
 70
         0
 62
         7
  6
Continuous
290
         1
370
        -3
390
1D
  0
LAYER
  5
2E
100
AcDbSymbolTableRecord
100
AcDbLayerTableRecord
  2
LAYER0
 70
         0
 62
         7
  6
Continuous
290
         1
370
        -3
390
1F
  0
LAYER
  5
86
100
AcDbSymbolTableRecord
100
AcDbLayerTableRecord
  2
LAYER3
 70
         0
 62
         7
  6
Continuous
290
         1
370
        -3
390
1F
  0
ENDTAB
  0
TABLE
  2
STYLE
  5
3
100
AcDbSymbolTable
 70
         1
  0
STYLE
  5
17
100
AcDbSymbolTableRecord
100
AcDbTextStyleTableRecord
  2
Standard
 70
         0
 40
0.0
 41
1.0
 50
0.0
 71
         0
 42
0.0
  3
txt
  4
extfont
  0
ENDTAB
  0
TABLE
  2
VIEW
  5
5
100
AcDbSymbolTable
 70
         0
  0
ENDTAB
  0
TABLE
  2
UCS
  5
6
100
AcDbSymbolTable
 70
         0
  0
ENDTAB
  0
TABLE
  2
APPID
  5
8
100
AcDbSymbolTable
 70
         1
  0
APPID
  5
16
100
AcDbSymbolTableRecord
100
AcDbRegAppTableRecord
  2
ACAD
 70
         0
  0
ENDTAB
  0
TABLE
  2
DIMSTYLE
  5
9
100
AcDbSymbolTable
 70
         1
100
AcDbDimStyleTable
 71
         0
  0
DIMSTYLE
105
18
100
AcDbSymbolTableRecord
100
AcDbDimStyleTableRecord
  2
Standard
 70
         0
  3

  4

 40
1.0
 41
0.18
 42
0.0625
 43
0.38
 44
0.18
 45
0.0
 46
0.0
 47
0.0
 48
0.0
 71
         0
 72
         0
 73
         1
 74
         1
 75
         0
 76
         0
 77
         0
 78
         0
 79
         0
140
0.18
141
0.09
142
0.0
143
25.4
144
1.0
145
0.0
146
1.0
147
0.09
148
0.0
170
         0
171
         2
172
         0
173
         0
174
         0
175
         0
176
         0
177
         0
178
         0
179
         0
271
         4
272
         4
273
         2
274
         2
275
         0
276
         0
277
         2
278
        46
279
         0
280
         0
281
         0
282
         0
283
         1
284
         0
285
         0
286
         0
288
         0
340
17
341
0
342
0
343
0
344
0
371
        -2
372
        -2
  0
ENDTAB
  0
TABLE
  2
BLOCK_RECORD
  5
1
100
AcDbSymbolTable
 70
         0
  0
BLOCK_RECORD
  5
A
100
AcDbSymbolTableRecord
100
AcDbBlockTableRecord
  2
*MODEL_SPACE
340
20
  0
BLOCK_RECORD
  5
B
100
AcDbSymbolTableRecord
100
AcDbBlockTableRecord
  2
*PAPER_SPACE
340
21
  0
ENDTAB
  0
ENDSEC
  0
SECTION
  2
BLOCKS
  0
BLOCK
  5
D
100
AcDbEntity
  8
0
100
AcDbBlockBegin
  2
*MODEL_SPACE
 70
         0
 10
0.0
 20
0.0
 30
0.0
  3
*MODEL_SPACE
  1

  0
ENDBLK
  5
E
100
AcDbEntity
  8
0
100
AcDbBlockEnd
  0
BLOCK
  5
F
100
AcDbEntity
 67
         1
  8
0
100
AcDbBlockBegin
  2
*PAPER_SPACE
 70
         0
 10
0.0
 20
0.0
 30
0.0
  3
*PAPER_SPACE
  1

  0
ENDBLK
  5
10
100
AcDbEntity
 67
         1
  8
0
100
AcDbBlockEnd
  0
ENDSEC
  0
SECTION
  2
ENTITIES
  0
LINE
  5
2F
100
AcDbEntity
  8
LAYER0
 62
         6
100
AcDbLine
 10
6.0404870476
 20
73.0769457285
 30
0.0
 11
6.0404870476
 21
39.2269457285
 31
0.0
  0
LINE
  5
30
100
AcDbEntity
  8
LAYER0
 62
         6
100
AcDbLine
 10
6.0404870476
 20
2.2769457285
 30
0.0
 11
4.4404870476
 21
2.2769457285
 31
0.0
  0
LINE
  5
31
100
AcDbEntity
  8
LAYER0
 62
         6
100
AcDbLine
 10
6.0404870476
 20
72.2769457285
 30
0.0
 11
4.4404870476
 21
72.2769457285
 31
0.0
  0
LINE
  5
32
100
AcDbEntity
  8
LAYER0
 62
         6
100
AcDbLine
 10
6.0404870476
 20
35.2769457285
 30
0.0
 11
4.4404870476
 21
35.2769457285
 31
0.0
  0
LINE
  5
33
100
AcDbEntity
  8
LAYER0
 62
         6
100
AcDbLine
 10
4.4404870476
 20
39.2769457285
 30
0.0
 11
6.0404870476
 21
39.2769457285
 31
0.0
  0
ARC
  5
34
100
AcDbEntity
  8
LAYER0
 62
         3
100
AcDbCircle
 10
5.8404866602
 20
35.5769457285
 30
0.0
 40
0.2
210
0.0
220
-0.0
230
1.0
100
AcDbArc
 50
0.0
 51
90.0000015352
  0
ARC
  5
35
100
AcDbEntity
  8
LAYER0
 62
         3
100
AcDbCircle
 10
10.9404870476
 20
116.0860334616
 30
0.0
 40
0.6
210
0.0
220
0.0
230
1.0
100
AcDbArc
 50
213.5573072639
 51
326.4426896656
  0
ARC
  5
36
100
AcDbEntity
  8
LAYER0
 62
         3
100
AcDbCircle
 10
50.2404866602
 20
89.7769457285
 30
0.0
 40
0.5
210
0.0
220
0.0
230
1.0
100
AcDbArc
 50
90.0000015352
 51
179.9999969295
  0
LINE
  5
37
100
AcDbEntity
  8
LAYER0
 62
         3
100
AcDbLine
 10
49.7404866602
 20
89.7769457285
 30
0.0
 11
49.7404866602
 21
77.7769457285
 31
0.0
  0
LINE
  5
38
100
AcDbEntity
  8
LAYER0
 62
         3
100
AcDbLine
 10
52.2404866602
 20
90.2769457285
 30
0.0
 11
50.2404866602
 21
90.2769457285
 31
0.0
  0
LINE
  5
39
100
AcDbEntity
  8
LAYER0
 62
         3
100
AcDbLine
 10
45.4404866602
 20
77.2769457285
 30
0.0
 11
52.2404866602
 21
77.2769457285
 31
0.0
  0
ARC
  5
3A
100
AcDbEntity
  8
LAYER0
 62
         3
100
AcDbCircle
 10
45.2729045706
 20
72.7769457285
 30
0.0
 40
0.6004179104
210
0.0
220
0.0
230
1.0
100
AcDbArc
 50
123.6173853611
 51
179.9999969295
  0
ARC
  5
3B
100
AcDbEntity
  8
LAYER0
 62
         3
100
AcDbCircle
 10
49.2404866602
 20
77.7769457285
 30
0.0
 40
0.5
210
-0.0
220
0.0
230
1.0
100
AcDbArc
 50
269.9999984648
 51
0.0
  0
ARC
  5
3C
100
AcDbEntity
  8
LAYER0
 62
         6
100
AcDbCircle
 10
45.0404866602
 20
71.7769457285
 30
0.0
 40
0.5
210
0.0
220
0.0
230
1.0
100
AcDbArc
 50
137.3917848139
 51
179.9999969295
  0
ARC
  5
3D
100
AcDbEntity
  8
LAYER0
 62
         6
100
AcDbCircle
 10
45.0404866602
 20
39.7769457285
 30
0.0
 40
0.5
210
0.0
220
0.0
230
1.0
100
AcDbArc
 50
179.9999969295
 51
222.6082151861
  0
ARC
  5
3E
100
AcDbEntity
  8
LAYER0
 62
         6
100
AcDbCircle
 10
45.0404866602
 20
34.7769457285
 30
0.0
 40
0.5
210
0.0
220
0.0
230
1.0
100
AcDbArc
 50
137.3917848139
 51
179.9999969295
  0
ARC
  5
3F
100
AcDbEntity
  8
LAYER0
 62
         6
100
AcDbCircle
 10
45.0404866602
 20
2.7769457285
 30
0.0
 40
0.5
210
0.0
220
0.0
230
1.0
100
AcDbArc
 50
179.9999969295
 51
222.6082151861
  0
LINE
  5
40
100
AcDbEntity
  8
LAYER0
 62
         6
100
AcDbLine
 10
44.5404866602
 20
39.7769457285
 30
0.0
 11
44.5404866602
 21
71.7769457285
 31
0.0
  0
LINE
  5
41
100
AcDbEntity
  8
LAYER0
 62
         6
100
AcDbLine
 10
44.5404866602
 20
2.7769457285
 30
0.0
 11
44.5404866602
 21
34.7769457285
 31
0.0
  0
ARC
  5
42
100
AcDbEntity
  8
LAYER0
 62
         3
100
AcDbCircle
 10
45.4404866602
 20
76.7769457285
 30
0.0
 40
0.5
210
0.0
220
0.0
230
1.0
100
AcDbArc
 50
90.0000015352
 51
180.0000030705
  0
ARC
  5
43
100
AcDbEntity
  8
LAYER0
 62
         3
100
AcDbCircle
 10
4.4404866602
 20
38.9769457285
 30
0.0
 40
0.2
210
0.0
220
0.0
230
1.0
100
AcDbArc
 50
180.0000030705
 51
269.9999984648
  0
ARC
  5
44
100
AcDbEntity
  8
LAYER0
 62
         3
100
AcDbCircle
 10
5.8404866602
 20
38.9769457285
 30
0.0
 40
0.2
210
-0.0
220
0.0
230
1.0
100
AcDbArc
 50
269.9999984648
 51
0.0
  0
LINE
  5
45
100
AcDbEntity
  8
LAYER0
 62
         3
100
AcDbLine
 10
6.0404866602
 20
52.7769457285
 30
0.0
 11
6.0404866602
 21
38.9769457285
 31
0.0
  0
LINE
  5
46
100
AcDbEntity
  8
LAYER0
 62
         3
100
AcDbLine
 10
6.0404866602
 20
73.0769457285
 30
0.0
 11
6.0404866602
 21
59.7769457285
 31
0.0
  0
LINE
  5
47
100
AcDbEntity
  8
LAYER0
 62
         3
100
AcDbLine
 10
6.4404866602
 20
59.7769457285
 30
0.0
 11
6.0404866602
 21
59.7769457285
 31
0.0
  0
LINE
  5
48
100
AcDbEntity
  8
LAYER0
 62
         3
100
AcDbLine
 10
6.4404866602
 20
52.7769457285
 30
0.0
 11
6.0404866602
 21
52.7769457285
 31
0.0
  0
LINE
  5
49
100
AcDbEntity
  8
LAYER0
 62
         3
100
AcDbLine
 10
6.0404870476
 20
53.7769457285
 30
0.0
 11
6.4404866602
 21
53.7769457285
 31
0.0
  0
LINE
  5
4A
100
AcDbEntity
  8
LAYER0
 62
         3
100
AcDbLine
 10
6.0404870476
 20
58.7769457285
 30
0.0
 11
6.4404866602
 21
58.7769457285
 31
0.0
  0
LINE
  5
4B
100
AcDbEntity
  8
LAYER0
 62
         3
100
AcDbLine
 10
6.4404866602
 20
52.7769457285
 30
0.0
 11
6.4404866602
 21
59.7769457285
 31
0.0
  0
LINE
  5
4C
100
AcDbEntity
  8
LAYER0
 62
         3
100
AcDbLine
 10
4.4404866602
 20
73.2769457285
 30
0.0
 11
5.8404866602
 21
73.2769457285
 31
0.0
  0
LINE
  5
4D
100
AcDbEntity
  8
LAYER0
 62
         3
100
AcDbLine
 10
4.4404866602
 20
38.7769457285
 30
0.0
 11
5.8404866602
 21
38.7769457285
 31
0.0
  0
LINE
  5
4E
100
AcDbEntity
  8
LAYER0
 62
         3
100
AcDbLine
 10
4.2404866602
 20
73.0769457285
 30
0.0
 11
4.2404866602
 21
38.9769457285
 31
0.0
  0
ARC
  5
4F
100
AcDbEntity
  8
LAYER0
 62
         3
100
AcDbCircle
 10
4.4404866602
 20
35.5769457285
 30
0.0
 40
0.2
210
0.0
220
0.0
230
1.0
100
AcDbArc
 50
90.0000015352
 51
180.0000030705
  0
LINE
  5
50
100
AcDbEntity
  8
LAYER0
 62
         3
100
AcDbLine
 10
6.0404866602
 20
35.0769457285
 30
0.0
 11
6.0404866602
 21
21.7769457285
 31
0.0
  0
LINE
  5
51
100
AcDbEntity
  8
LAYER0
 62
         3
100
AcDbLine
 10
6.4404866602
 20
21.7769457285
 30
0.0
 11
6.0404866602
 21
21.7769457285
 31
0.0
  0
LINE
  5
52
100
AcDbEntity
  8
LAYER0
 62
         3
100
AcDbLine
 10
6.4404866602
 20
14.7769457285
 30
0.0
 11
6.0404866602
 21
14.7769457285
 31
0.0
  0
LINE
  5
53
100
AcDbEntity
  8
LAYER0
 62
         3
100
AcDbLine
 10
6.0404870476
 20
15.7769457285
 30
0.0
 11
6.4404866602
 21
15.7769457285
 31
0.0
  0
LINE
  5
54
100
AcDbEntity
  8
LAYER0
 62
         3
100
AcDbLine
 10
6.0404870476
 20
20.7769457285
 30
0.0
 11
6.4404866602
 21
20.7769457285
 31
0.0
  0
LINE
  5
55
100
AcDbEntity
  8
LAYER0
 62
         3
100
AcDbLine
 10
6.4404866602
 20
14.7769457285
 30
0.0
 11
6.4404866602
 21
21.7769457285
 31
0.0
  0
LINE
  5
56
100
AcDbEntity
  8
LAYER0
 62
         3
100
AcDbLine
 10
4.4404866602
 20
35.7769457285
 30
0.0
 11
5.8404866602
 21
35.7769457285
 31
0.0
  0
ARC
  5
57
100
AcDbEntity
  8
LAYER0
 62
         3
100
AcDbCircle
 10
6.7784464438
 20
78.2769457285
 30
0.0
 40
1.0
210
0.0
220
0.0
230
1.0
100
AcDbArc
 50
190.076715363
 51
269.9999984648
  0
LINE
  5
58
100
AcDbEntity
  8
LAYER0
 62
         6
100
AcDbLine
 10
4.4404870476
 20
115.3543709826
 30
0.0
 11
6.2404870476
 21
115.3543709826
 31
0.0
  0
LINE
  5
59
100
AcDbEntity
  8
LAYER0
 62
         6
100
AcDbLine
 10
6.2404870476
 20
115.3543711167
 30
0.0
 11
6.2404870476
 21
115.7543709826
 31
0.0
  0
LINE
  5
5A
100
AcDbEntity
  8
LAYER0
 62
         6
100
AcDbLine
 10
4.4404870476
 20
115.3543711167
 30
0.0
 11
4.4404870476
 21
115.7543709826
 31
0.0
  0
LINE
  5
5B
100
AcDbEntity
  8
LAYER0
 62
         6
100
AcDbLine
 10
4.4404870476
 20
73.2769457285
 30
0.0
 11
4.4404870476
 21
38.7769457285
 31
0.0
  0
LINE
  5
5C
100
AcDbEntity
  8
LAYER0
 62
         3
100
AcDbLine
 10
45.4404866602
 20
-80.7230542715
 30
0.0
 11
52.2404866602
 21
-80.7230542715
 31
0.0
  0
ARC
  5
5D
100
AcDbEntity
  8
LAYER0
 62
         3
100
AcDbCircle
 10
45.2729045706
 20
-76.2230542715
 30
0.0
 40
0.6004179104
210
0.0
220
0.0
230
1.0
100
AcDbArc
 50
179.9999969295
 51
236.3826146389
  0
ARC
  5
5E
100
AcDbEntity
  8
LAYER0
 62
         3
100
AcDbCircle
 10
49.2404866602
 20
-81.2230542715
 30
0.0
 40
0.5
210
0.0
220
-0.0
230
1.0
100
AcDbArc
 50
0.0
 51
90.0000015352
  0
ARC
  5
5F
100
AcDbEntity
  8
LAYER0
 62
         6
100
AcDbCircle
 10
45.0404866602
 20
-75.2230542715
 30
0.0
 40
0.5
210
0.0
220
0.0
230
1.0
100
AcDbArc
 50
180.0000030705
 51
222.6082151861
  0
ARC
  5
60
100
AcDbEntity
  8
LAYER0
 62
         6
100
AcDbCircle
 10
45.0404866602
 20
-43.2230542715
 30
0.0
 40
0.5
210
0.0
220
0.0
230
1.0
100
AcDbArc
 50
137.3917848139
 51
180.0000030705
  0
ARC
  5
61
100
AcDbEntity
  8
LAYER0
 62
         6
100
AcDbCircle
 10
45.0404866602
 20
-38.2230542715
 30
0.0
 40
0.5
210
0.0
220
0.0
230
1.0
100
AcDbArc
 50
180.0000030705
 51
222.6082151861
  0
ARC
  5
62
100
AcDbEntity
  8
LAYER0
 62
         6
100
AcDbCircle
 10
45.0404866602
 20
-6.2230542715
 30
0.0
 40
0.5
210
0.0
220
0.0
230
1.0
100
AcDbArc
 50
137.3917848139
 51
180.0000030705
  0
LINE
  5
63
100
AcDbEntity
  8
LAYER0
 62
         6
100
AcDbLine
 10
44.5404866602
 20
-43.2230542715
 30
0.0
 11
44.5404866602
 21
-75.2230542715
 31
0.0
  0
LINE
  5
64
100
AcDbEntity
  8
LAYER0
 62
         6
100
AcDbLine
 10
44.5404866602
 20
-6.2230542715
 30
0.0
 11
44.5404866602
 21
-38.2230542715
 31
0.0
  0
ARC
  5
65
100
AcDbEntity
  8
LAYER0
 62
         3
100
AcDbCircle
 10
45.4404866602
 20
-80.2230542715
 30
0.0
 40
0.5
210
0.0
220
0.0
230
1.0
100
AcDbArc
 50
180.0000030705
 51
269.9999984648
  0
LINE
  5
66
100
AcDbEntity
  8
LAYER0
 62
         3
100
AcDbLine
 10
8.2404866602
 20
123.0543711167
 30
0.0
 11
8.2404866602
 21
117.5543709826
 31
0.0
  0
ARC
  5
67
100
AcDbEntity
  8
LAYER0
 62
         3
100
AcDbCircle
 10
10.9404870476
 20
75.2769457285
 30
0.0
 40
2.0
210
0.0
220
-0.0
230
1.0
100
AcDbArc
 50
0.0
 51
90.0000015352
  0
LINE
  5
68
100
AcDbEntity
  8
LAYER0
 62
         3
100
AcDbLine
 10
8.2404866602
 20
123.0543711167
 30
0.0
 11
9.2404866602
 21
120.0543711167
 31
0.0
  0
LINE
  5
69
100
AcDbEntity
  8
LAYER0
 62
         3
100
AcDbLine
 10
9.2404866602
 20
120.0543711167
 30
0.0
 11
9.2404866602
 21
119.0543711167
 31
0.0
  0
LINE
  5
6A
100
AcDbEntity
  8
LAYER0
 62
         3
100
AcDbLine
 10
8.2404866602
 20
119.0543711167
 30
0.0
 11
9.2404866602
 21
119.0543711167
 31
0.0
  0
LINE
  5
6B
100
AcDbEntity
  8
LAYER0
 62
         3
100
AcDbLine
 10
4.3633588362
 20
86.1517790568
 30
0.0
 11
5.7938720861
 21
78.1019790629
 31
0.0
  0
ARC
  5
6C
100
AcDbEntity
  8
LAYER0
 62
         3
100
AcDbCircle
 10
5.4404870476
 20
120.5543711167
 30
0.0
 40
0.5
210
-0.0
220
0.0
230
1.0
100
AcDbArc
 50
269.9999984648
 51
0.0
  0
LINE
  5
6D
100
AcDbEntity
  8
LAYER0
 62
         3
100
AcDbLine
 10
5.9404870476
 20
123.0543711167
 30
0.0
 11
5.9404870476
 21
120.5543711167
 31
0.0
  0
ARC
  5
6E
100
AcDbEntity
  8
LAYER0
 62
         3
100
AcDbCircle
 10
8.7404866602
 20
117.5543709826
 30
0.0
 40
0.5
210
0.0
220
0.0
230
1.0
100
AcDbArc
 50
180.0000030705
 51
269.9999984648
  0
LINE
  5
6F
100
AcDbEntity
  8
LAYER0
 62
         3
100
AcDbLine
 10
12.9404870476
 20
117.0543709826
 30
0.0
 11
8.7404866602
 21
117.0543709826
 31
0.0
  0
ARC
  5
70
100
AcDbEntity
  8
LAYER0
 62
         3
100
AcDbCircle
 10
12.4404870476
 20
116.2543709826
 30
0.0
 40
0.5
210
-0.0
220
0.0
230
1.0
100
AcDbArc
 50
269.9999984648
 51
0.0
  0
LINE
  5
71
100
AcDbEntity
  8
LAYER0
 62
         3
100
AcDbLine
 10
12.9404870476
 20
117.0543709826
 30
0.0
 11
12.9404870476
 21
116.2543709826
 31
0.0
  0
ARC
  5
72
100
AcDbEntity
  8
LAYER0
 62
         3
100
AcDbCircle
 10
10.9404870476
 20
72.7769457285
 30
0.0
 40
0.5
210
0.0
220
-0.0
230
1.0
100
AcDbArc
 50
0.0
 51
179.9999969295
  0
ARC
  5
73
100
AcDbEntity
  8
LAYER0
 62
         3
100
AcDbCircle
 10
5.8404866602
 20
73.0769457285
 30
0.0
 40
0.2
210
0.0
220
-0.0
230
1.0
100
AcDbArc
 50
0.0
 51
90.0000015352
  0
ARC
  5
74
100
AcDbEntity
  8
LAYER0
 62
         3
100
AcDbCircle
 10
4.4404866602
 20
73.0769457285
 30
0.0
 40
0.2
210
0.0
220
0.0
230
1.0
100
AcDbArc
 50
90.0000015352
 51
180.0000030705
  0
LINE
  5
75
100
AcDbEntity
  8
LAYER0
 62
         3
100
AcDbLine
 10
6.0404866602
 20
-38.5230542715
 30
0.0
 11
6.0404866602
 21
-25.2230542715
 31
0.0
  0
LINE
  5
76
100
AcDbEntity
  8
LAYER0
 62
         3
100
AcDbLine
 10
6.4404866602
 20
-25.2230542715
 30
0.0
 11
6.0404866602
 21
-25.2230542715
 31
0.0
  0
LINE
  5
77
100
AcDbEntity
  8
LAYER0
 62
         3
100
AcDbLine
 10
6.4404866602
 20
-18.2230542715
 30
0.0
 11
6.0404866602
 21
-18.2230542715
 31
0.0
  0
LINE
  5
78
100
AcDbEntity
  8
LAYER0
 62
         3
100
AcDbLine
 10
6.0404870476
 20
-19.2230542715
 30
0.0
 11
6.4404866602
 21
-19.2230542715
 31
0.0
  0
LINE
  5
79
100
AcDbEntity
  8
LAYER0
 62
         3
100
AcDbLine
 10
6.0404870476
 20
-24.2230542715
 30
0.0
 11
6.4404866602
 21
-24.2230542715
 31
0.0
  0
LINE
  5
7A
100
AcDbEntity
  8
LAYER0
 62
         3
100
AcDbLine
 10
6.4404866602
 20
-18.2230542715
 30
0.0
 11
6.4404866602
 21
-25.2230542715
 31
0.0
  0
LINE
  5
7B
100
AcDbEntity
  8
LAYER0
 62
         3
100
AcDbLine
 10
4.4404866602
 20
-39.2230542715
 30
0.0
 11
5.8404866602
 21
-39.2230542715
 31
0.0
  0
LINE
  5
7C
100
AcDbEntity
  8
LAYER0
 62
         3
100
AcDbLine
 10
4.4404866602
 20
-4.7230542715
 30
0.0
 11
5.8404866602
 21
-4.7230542715
 31
0.0
  0
LINE
  5
7D
100
AcDbEntity
  8
LAYER0
 62
         3
100
AcDbLine
 10
4.2404866602
 20
-39.0230542715
 30
0.0
 11
4.2404866602
 21
-4.9230542715
 31
0.0
  0
LINE
  5
7E
100
AcDbEntity
  8
LAYER0
 62
         6
100
AcDbLine
 10
4.4404870476
 20
-39.2230542715
 30
0.0
 11
4.4404870476
 21
-4.7230542715
 31
0.0
  0
LINE
  5
7F
100
AcDbEntity
  8
LAYER0
 62
         6
100
AcDbLine
 10
4.4404870476
 20
-76.7230542715
 30
0.0
 11
4.4404870476
 21
-42.2230542715
 31
0.0
  0
LINE
  5
80
100
AcDbEntity
  8
LAYER0
 62
         6
100
AcDbLine
 10
6.0404870476
 20
-39.0230542715
 30
0.0
 11
6.0404870476
 21
-4.9230542715
 31
0.0
  0
LINE
  5
81
100
AcDbEntity
  8
LAYER0
 62
         6
100
AcDbLine
 10
6.0404870476
 20
-76.5230542715
 30
0.0
 11
6.0404870476
 21
-42.6730542715
 31
0.0
  0
LINE
  5
82
100
AcDbEntity
  8
LAYER0
 62
         6
100
AcDbLine
 10
6.0404870476
 20
-5.7230542715
 30
0.0
 11
4.4404870476
 21
-5.7230542715
 31
0.0
  0
LINE
  5
83
100
AcDbEntity
  8
LAYER0
 62
         6
100
AcDbLine
 10
6.0404870476
 20
-75.7230542715
 30
0.0
 11
4.4404870476
 21
-75.7230542715
 31
0.0
  0
LINE
  5
84
100
AcDbEntity
  8
LAYER0
 62
         6
100
AcDbLine
 10
6.0404870476
 20
-38.7230542715
 30
0.0
 11
4.4404870476
 21
-38.7230542715
 31
0.0
  0
LINE
  5
85
100
AcDbEntity
  8
LAYER0
 62
         6
100
AcDbLine
 10
4.4404870476
 20
-42.7230542715
 30
0.0
 11
6.0404870476
 21
-42.7230542715
 31
0.0
  0
LINE
  5
87
100
AcDbEntity
  8
LAYER3
 62
         4
100
AcDbLine
 10
12.9404870476
 20
-107.4987333054
 30
0.0
 11
10.0060442454
 21
-108.1224683778
 31
0.0
  0
LINE
  5
88
100
AcDbEntity
  8
LAYER3
 62
         4
100
AcDbLine
 10
12.9404870476
 20
-107.4987333054
 30
0.0
 11
10.0060442454
 21
-106.8749982329
 31
0.0
  0
LINE
  5
89
100
AcDbEntity
  8
LAYER3
 62
         4
100
AcDbLine
 10
12.9404870476
 20
-79.7230542715
 30
0.0
 11
12.9404870476
 21
-108.4987333054
 31
0.0
  0
ARC
  5
8A
100
AcDbEntity
  8
LAYER0
 62
         3
100
AcDbCircle
 10
6.7784464438
 20
-81.7230542715
 30
0.0
 40
1.0
210
0.0
220
0.0
230
1.0
100
AcDbArc
 50
90.0000015352
 51
169.923284637
  0
LINE
  5
8B
100
AcDbEntity
  8
LAYER0
 62
         3
100
AcDbLine
 10
48.2404866602
 20
-3.7230542715
 30
0.0
 11
52.2404866602
 21
-3.7230542715
 31
0.0
  0
ARC
  5
8C
100
AcDbEntity
  8
LAYER0
 62
         3
100
AcDbCircle
 10
50.2404866602
 20
-93.2230542715
 30
0.0
 40
0.5
210
0.0
220
0.0
230
1.0
100
AcDbArc
 50
180.0000030705
 51
269.9999984648
  0
LINE
  5
8D
100
AcDbEntity
  8
LAYER0
 62
         3
100
AcDbLine
 10
49.7404866602
 20
-93.2230542715
 30
0.0
 11
49.7404866602
 21
-81.2230542715
 31
0.0
  0
LINE
  5
8E
100
AcDbEntity
  8
LAYER0
 62
         3
100
AcDbLine
 10
52.2404866602
 20
-93.7230542715
 30
0.0
 11
50.2404866602
 21
-93.7230542715
 31
0.0
  0
MTEXT
  5
8F
100
AcDbEntity
  8
LAYER0
100
AcDbMText
 10
72.5158633528
 20
-126.7970201517
 30
0.0
 40
2.1473683357
 41
10.2585839844
 71
         1
 72
         1
  1
\W0.8;管理図番
  0
MTEXT
  5
90
100
AcDbEntity
  8
LAYER0
100
AcDbMText
 10
32.0542682872
 20
-126.7970201517
 30
0.0
 40
2.1473683357
 41
7.6538653946
 71
         1
 72
         1
  1
\W0.8;品　名
  0
LINE
  5
91
100
AcDbEntity
  8
LAYER0
 62
         3
100
AcDbLine
 10
10.0
 20
-138.5
 30
0.0
 11
10.0
 21
-125.5
 31
0.0
  0
LINE
  5
92
100
AcDbEntity
  8
LAYER0
 62
         3
100
AcDbLine
 10
95.0
 20
-138.5
 30
0.0
 11
95.0
 21
-125.5
 31
0.0
  0
ARC
  5
93
100
AcDbEntity
  8
LAYER0
 62
         3
100
AcDbCircle
 10
10.9404870476
 20
-78.7230542715
 30
0.0
 40
2.0
210
-0.0
220
0.0
230
1.0
100
AcDbArc
 50
269.9999984648
 51
0.0
  0
ARC
  5
94
100
AcDbEntity
  8
LAYER0
 62
         3
100
AcDbCircle
 10
5.8404866602
 20
-76.5230542715
 30
0.0
 40
0.2
210
-0.0
220
0.0
230
1.0
100
AcDbArc
 50
269.9999984648
 51
0.0
  0
ARC
  5
95
100
AcDbEntity
  8
LAYER0
 62
         3
100
AcDbCircle
 10
4.4404866602
 20
-76.5230542715
 30
0.0
 40
0.2
210
0.0
220
0.0
230
1.0
100
AcDbArc
 50
180.0000030705
 51
269.9999984648
  0
ARC
  5
96
100
AcDbEntity
  8
LAYER0
 62
         3
100
AcDbCircle
 10
4.4404866602
 20
-42.4230542715
 30
0.0
 40
0.2
210
0.0
220
0.0
230
1.0
100
AcDbArc
 50
90.0000015352
 51
180.0000030705
  0
ARC
  5
97
100
AcDbEntity
  8
LAYER0
 62
         3
100
AcDbCircle
 10
5.8404866602
 20
-42.4230542715
 30
0.0
 40
0.2
210
0.0
220
-0.0
230
1.0
100
AcDbArc
 50
0.0
 51
90.0000015352
  0
LINE
  5
98
100
AcDbEntity
  8
LAYER0
 62
         3
100
AcDbLine
 10
6.0404866602
 20
-56.2230542715
 30
0.0
 11
6.0404866602
 21
-42.4230542715
 31
0.0
  0
LINE
  5
99
100
AcDbEntity
  8
LAYER0
 62
         3
100
AcDbLine
 10
6.0404866602
 20
-76.5230542715
 30
0.0
 11
6.0404866602
 21
-63.2230542715
 31
0.0
  0
LINE
  5
9A
100
AcDbEntity
  8
LAYER0
 62
         3
100
AcDbLine
 10
6.4404866602
 20
-63.2230542715
 30
0.0
 11
6.0404866602
 21
-63.2230542715
 31
0.0
  0
LINE
  5
9B
100
AcDbEntity
  8
LAYER0
 62
         3
100
AcDbLine
 10
6.4404866602
 20
-56.2230542715
 30
0.0
 11
6.0404866602
 21
-56.2230542715
 31
0.0
  0
LINE
  5
9C
100
AcDbEntity
  8
LAYER0
 62
         3
100
AcDbLine
 10
6.0404870476
 20
-57.2230542715
 30
0.0
 11
6.4404866602
 21
-57.2230542715
 31
0.0
  0
LINE
  5
9D
100
AcDbEntity
  8
LAYER0
 62
         3
100
AcDbLine
 10
6.0404870476
 20
-62.2230542715
 30
0.0
 11
6.4404866602
 21
-62.2230542715
 31
0.0
  0
LINE
  5
9E
100
AcDbEntity
  8
LAYER0
 62
         3
100
AcDbLine
 10
6.4404866602
 20
-56.2230542715
 30
0.0
 11
6.4404866602
 21
-63.2230542715
 31
0.0
  0
LINE
  5
9F
100
AcDbEntity
  8
LAYER0
 62
         3
100
AcDbLine
 10
4.4404866602
 20
-76.7230542715
 30
0.0
 11
5.8404866602
 21
-76.7230542715
 31
0.0
  0
LINE
  5
A0
100
AcDbEntity
  8
LAYER0
 62
         3
100
AcDbLine
 10
4.4404866602
 20
-42.2230542715
 30
0.0
 11
5.8404866602
 21
-42.2230542715
 31
0.0
  0
LINE
  5
A1
100
AcDbEntity
  8
LAYER0
 62
         3
100
AcDbLine
 10
4.2404866602
 20
-76.5230542715
 30
0.0
 11
4.2404866602
 21
-42.4230542715
 31
0.0
  0
ARC
  5
A2
100
AcDbEntity
  8
LAYER0
 62
         3
100
AcDbCircle
 10
10.9404870476
 20
-76.2230542715
 30
0.0
 40
0.5
210
0.0
220
-0.0
230
1.0
100
AcDbArc
 50
179.9999969295
 51
0.0
  0
ARC
  5
A3
100
AcDbEntity
  8
LAYER0
 62
         3
100
AcDbCircle
 10
5.8404866602
 20
-39.0230542715
 30
0.0
 40
0.2
210
-0.0
220
0.0
230
1.0
100
AcDbArc
 50
269.9999984648
 51
0.0
  0
ARC
  5
A4
100
AcDbEntity
  8
LAYER0
 62
         3
100
AcDbCircle
 10
4.4404866602
 20
-39.0230542715
 30
0.0
 40
0.2
210
0.0
220
0.0
230
1.0
100
AcDbArc
 50
180.0000030705
 51
269.9999984648
  0
ARC
  5
A5
100
AcDbEntity
  8
LAYER0
 62
         3
100
AcDbCircle
 10
4.4404866602
 20
-4.9230542715
 30
0.0
 40
0.2
210
0.0
220
0.0
230
1.0
100
AcDbArc
 50
90.0000015352
 51
180.0000030705
  0
ARC
  5
A6
100
AcDbEntity
  8
LAYER0
 62
         3
100
AcDbCircle
 10
5.8404866602
 20
-4.9230542715
 30
0.0
 40
0.2
210
0.0
220
-0.0
230
1.0
100
AcDbArc
 50
0.0
 51
90.0000015352
  0
LINE
  5
A7
100
AcDbEntity
  8
LAYER0
 62
         3
100
AcDbLine
 10
6.0404866602
 20
-18.2230542715
 30
0.0
 11
6.0404866602
 21
-4.9230542715
 31
0.0
  0
LINE
  5
A8
100
AcDbEntity
  8
LAYER0
 62
         6
100
AcDbLine
 10
-5.5595129524
 20
115.3543711167
 30
0.0
 11
-5.5595129524
 21
115.7543709826
 31
0.0
  0
LINE
  5
A9
100
AcDbEntity
  8
LAYER0
 62
         6
100
AcDbLine
 10
-5.5595129524
 20
73.2769457285
 30
0.0
 11
-5.5595129524
 21
38.7769457285
 31
0.0
  0
LINE
  5
AA
100
AcDbEntity
  8
LAYER0
 62
         6
100
AcDbLine
 10
-7.1595129524
 20
73.0769457285
 30
0.0
 11
-7.1595129524
 21
39.2269457285
 31
0.0
  0
LINE
  5
AB
100
AcDbEntity
  8
LAYER0
 62
         6
100
AcDbLine
 10
-7.1595129524
 20
2.2769457285
 30
0.0
 11
-5.5595129524
 21
2.2769457285
 31
0.0
  0
LINE
  5
AC
100
AcDbEntity
  8
LAYER0
 62
         6
100
AcDbLine
 10
-7.1595129524
 20
72.2769457285
 30
0.0
 11
-5.5595129524
 21
72.2769457285
 31
0.0
  0
LINE
  5
AD
100
AcDbEntity
  8
LAYER0
 62
         6
100
AcDbLine
 10
-7.1595129524
 20
35.2769457285
 30
0.0
 11
-5.5595129524
 21
35.2769457285
 31
0.0
  0
LINE
  5
AE
100
AcDbEntity
  8
LAYER0
 62
         6
100
AcDbLine
 10
-5.5595129524
 20
39.2769457285
 30
0.0
 11
-7.1595129524
 21
39.2769457285
 31
0.0
  0
LINE
  5
AF
100
AcDbEntity
  8
LAYER3
 62
         4
100
AcDbLine
 10
-26.5569576021
 20
123.0543711167
 30
0.0
 11
-25.9332225297
 21
120.1199283145
 31
0.0
  0
LINE
  5
B0
100
AcDbEntity
  8
LAYER3
 62
         4
100
AcDbLine
 10
-26.5569576021
 20
123.0543711167
 30
0.0
 11
-27.1806926746
 21
120.1199283145
 31
0.0
  0
LINE
  5
B1
100
AcDbEntity
  8
LAYER3
 62
         4
100
AcDbLine
 10
-26.5569576021
 20
123.0543711167
 30
0.0
 11
-26.5569576021
 21
115.7543709826
 31
0.0
  0
LINE
  5
B2
100
AcDbEntity
  8
LAYER3
 62
         4
100
AcDbLine
 10
-14.5595129524
 20
115.7543709826
 30
0.0
 11
-27.5569576021
 21
115.7543709826
 31
0.0
  0
LINE
  5
B3
100
AcDbEntity
  8
LAYER3
 62
         4
100
AcDbLine
 10
-10.109512565
 20
123.0543711167
 30
0.0
 11
-27.5569576021
 21
123.0543711167
 31
0.0
  0
LINE
  5
B4
100
AcDbEntity
  8
LAYER3
 62
         4
100
AcDbLine
 10
-40.3806607997
 20
90.2769457285
 30
0.0
 11
-39.7569257273
 21
87.3425029263
 31
0.0
  0
LINE
  5
B5
100
AcDbEntity
  8
LAYER3
 62
         4
100
AcDbLine
 10
-40.3806607997
 20
90.2769457285
 30
0.0
 11
-41.0043958722
 21
87.3425029263
 31
0.0
  0
ARC
  5
B6
100
AcDbEntity
  8
LAYER0
 62
         3
100
AcDbCircle
 10
-12.0595129524
 20
116.0860334616
 30
0.0
 40
0.6
210
0.0
220
0.0
230
1.0
100
AcDbArc
 50
213.5573072639
 51
326.4426896656
  0
LINE
  5
B7
100
AcDbEntity
  8
LAYER3
 62
         4
100
AcDbLine
 10
-25.2245192314
 20
77.2769457285
 30
0.0
 11
-24.6007841589
 21
74.3425029263
 31
0.0
  0
LINE
  5
B8
100
AcDbEntity
  8
LAYER3
 62
         4
100
AcDbLine
 10
-25.2245192314
 20
77.2769457285
 30
0.0
 11
-25.8482543038
 21
74.3425029263
 31
0.0
  0
LINE
  5
B9
100
AcDbEntity
  8
LAYER3
 62
         4
100
AcDbLine
 10
-13.0595129524
 20
77.2769457285
 30
0.0
 11
-26.2245192314
 21
77.2769457285
 31
0.0
  0
MTEXT
  5
BA
100
AcDbEntity
  8
LAYER3
100
AcDbMText
 10
-30.3446162935
 20
115.5850635998
 30
0.0
 40
2.1473683357
 41
3.8469689941
 71
         1
 72
         1
  1
\W0.8;7.3
 11
-0.0000000268
 21
1.0
 31
0.0
  0
LINE
  5
BB
100
AcDbEntity
  8
LAYER3
 62
         4
100
AcDbLine
 10
-26.5569576021
 20
115.7543709826
 30
0.0
 11
-27.1806926746
 21
118.6888137848
 31
0.0
  0
LINE
  5
BC
100
AcDbEntity
  8
LAYER3
 62
         4
100
AcDbLine
 10
-26.5569576021
 20
115.7543709826
 30
0.0
 11
-25.9332225297
 21
118.6888137848
 31
0.0
  0
LINE
  5
BD
100
AcDbEntity
  8
LAYER0
 62
         3
100
AcDbLine
 10
4.3633588362
 20
-89.5978875998
 30
0.0
 11
5.7938720861
 21
-81.5480876058
 31
0.0
  0
MTEXT
  5
BE
100
AcDbEntity
  8
LAYER0
100
AcDbMText
 10
24.6160602544
 20
-132.8866032766
 30
0.0
 40
2.4737683892
 41
23.6357781351
 71
         1
 72
         1
  1
\W0.8;ロングマグネット
  0
MTEXT
  5
BF
100
AcDbEntity
  8
LAYER0
100
AcDbMText
 10
70.6744019132
 20
-133.1354167344
 30
0.0
 40
2.4737683892
 41
7.3861806672
 71
         1
 72
         1
  1
\W0.8;55902
  0
LINE
  5
C0
100
AcDbEntity
  8
LAYER0
 62
         3
100
AcDbLine
 10
60.0
 20
-125.5
 30
0.0
 11
60.0
 21
-138.5
 31
0.0
  0
LINE
  5
C1
100
AcDbEntity
  8
LAYER0
 62
         3
100
AcDbLine
 10
-7.559512565
 20
52.7769457285
 30
0.0
 11
-7.559512565
 21
59.7769457285
 31
0.0
  0
LINE
  5
C2
100
AcDbEntity
  8
LAYER0
 62
         3
100
AcDbLine
 10
-5.559512565
 20
73.2769457285
 30
0.0
 11
-6.959512565
 21
73.2769457285
 31
0.0
  0
LINE
  5
C3
100
AcDbEntity
  8
LAYER0
 62
         3
100
AcDbLine
 10
-5.559512565
 20
38.7769457285
 30
0.0
 11
-6.959512565
 21
38.7769457285
 31
0.0
  0
LINE
  5
C4
100
AcDbEntity
  8
LAYER0
 62
         3
100
AcDbLine
 10
-5.359512565
 20
73.0769457285
 30
0.0
 11
-5.359512565
 21
38.9769457285
 31
0.0
  0
ARC
  5
C5
100
AcDbEntity
  8
LAYER0
 62
         3
100
AcDbCircle
 10
-6.959512565
 20
73.0769457285
 30
0.0
 40
0.2
210
0.0
220
0.0
230
1.0
100
AcDbArc
 50
90.0000015352
 51
180.0000030705
  0
ARC
  5
C6
100
AcDbEntity
  8
LAYER0
 62
         3
100
AcDbCircle
 10
-5.559512565
 20
73.0769457285
 30
0.0
 40
0.2
210
0.0
220
-0.0
230
1.0
100
AcDbArc
 50
0.0
 51
90.0000015352
  0
ARC
  5
C7
100
AcDbEntity
  8
LAYER0
 62
         3
100
AcDbCircle
 10
-5.559512565
 20
38.9769457285
 30
0.0
 40
0.2
210
-0.0
220
0.0
230
1.0
100
AcDbArc
 50
269.9999984648
 51
0.0
  0
ARC
  5
C8
100
AcDbEntity
  8
LAYER0
 62
         3
100
AcDbCircle
 10
-6.959512565
 20
38.9769457285
 30
0.0
 40
0.2
210
0.0
220
0.0
230
1.0
100
AcDbArc
 50
180.0000030705
 51
269.9999984648
  0
LINE
  5
C9
100
AcDbEntity
  8
LAYER0
 62
         3
100
AcDbLine
 10
-7.159512565
 20
52.7769457285
 30
0.0
 11
-7.159512565
 21
38.9769457285
 31
0.0
  0
LINE
  5
CA
100
AcDbEntity
  8
LAYER0
 62
         3
100
AcDbLine
 10
-7.159512565
 20
73.0769457285
 30
0.0
 11
-7.159512565
 21
59.7769457285
 31
0.0
  0
LINE
  5
CB
100
AcDbEntity
  8
LAYER0
 62
         3
100
AcDbLine
 10
-7.559512565
 20
59.7769457285
 30
0.0
 11
-7.159512565
 21
59.7769457285
 31
0.0
  0
LINE
  5
CC
100
AcDbEntity
  8
LAYER0
 62
         3
100
AcDbLine
 10
-7.559512565
 20
52.7769457285
 30
0.0
 11
-7.159512565
 21
52.7769457285
 31
0.0
  0
LINE
  5
CD
100
AcDbEntity
  8
LAYER0
 62
         3
100
AcDbLine
 10
-7.1595129524
 20
53.7769457285
 30
0.0
 11
-7.559512565
 21
53.7769457285
 31
0.0
  0
ARC
  5
CE
100
AcDbEntity
  8
LAYER0
 62
         3
100
AcDbCircle
 10
-6.959512565
 20
35.5769457285
 30
0.0
 40
0.2
210
0.0
220
0.0
230
1.0
100
AcDbArc
 50
90.0000015352
 51
180.0000030705
  0
ARC
  5
CF
100
AcDbEntity
  8
LAYER0
 62
         3
100
AcDbCircle
 10
-5.559512565
 20
35.5769457285
 30
0.0
 40
0.2
210
0.0
220
-0.0
230
1.0
100
AcDbArc
 50
0.0
 51
90.0000015352
  0
LINE
  5
D0
100
AcDbEntity
  8
LAYER0
 62
         3
100
AcDbLine
 10
-7.159512565
 20
35.5769457285
 30
0.0
 11
-7.159512565
 21
21.7769457285
 31
0.0
  0
LINE
  5
D1
100
AcDbEntity
  8
LAYER0
 62
         3
100
AcDbLine
 10
-7.559512565
 20
21.7769457285
 30
0.0
 11
-7.159512565
 21
21.7769457285
 31
0.0
  0
LINE
  5
D2
100
AcDbEntity
  8
LAYER0
 62
         3
100
AcDbLine
 10
-7.559512565
 20
14.7769457285
 30
0.0
 11
-7.159512565
 21
14.7769457285
 31
0.0
  0
LINE
  5
D3
100
AcDbEntity
  8
LAYER0
 62
         3
100
AcDbLine
 10
-7.1595129524
 20
15.7769457285
 30
0.0
 11
-7.559512565
 21
15.7769457285
 31
0.0
  0
LINE
  5
D4
100
AcDbEntity
  8
LAYER0
 62
         3
100
AcDbLine
 10
-7.1595129524
 20
20.7769457285
 30
0.0
 11
-7.559512565
 21
20.7769457285
 31
0.0
  0
LINE
  5
D5
100
AcDbEntity
  8
LAYER0
 62
         3
100
AcDbLine
 10
-7.559512565
 20
14.7769457285
 30
0.0
 11
-7.559512565
 21
21.7769457285
 31
0.0
  0
LINE
  5
D6
100
AcDbEntity
  8
LAYER0
 62
         3
100
AcDbLine
 10
-5.559512565
 20
35.7769457285
 30
0.0
 11
-6.959512565
 21
35.7769457285
 31
0.0
  0
ARC
  5
D7
100
AcDbEntity
  8
LAYER0
 62
         3
100
AcDbCircle
 10
-7.8974723487
 20
78.2769457285
 30
0.0
 40
1.0
210
0.0
220
0.0
230
1.0
100
AcDbArc
 50
269.9999984648
 51
349.9232815665
  0
LINE
  5
D8
100
AcDbEntity
  8
LAYER0
 62
         6
100
AcDbLine
 10
-5.5595129524
 20
115.3543709826
 30
0.0
 11
-7.3595129524
 21
115.3543709826
 31
0.0
  0
LINE
  5
D9
100
AcDbEntity
  8
LAYER0
 62
         6
100
AcDbLine
 10
-7.3595129524
 20
115.3543711167
 30
0.0
 11
-7.3595129524
 21
115.7543709826
 31
0.0
  0
LINE
  5
DA
100
AcDbEntity
  8
LAYER3
 62
         4
100
AcDbLine
 10
-14.0595129524
 20
-79.7230542715
 30
0.0
 11
-14.0595129524
 21
-108.4987333054
 31
0.0
  0
MTEXT
  5
DB
100
AcDbEntity
  8
LAYER3
100
AcDbMText
 10
-44.1683194911
 20
-5.3230543462
 30
0.0
 40
2.1473683357
 41
3.8469689941
 71
         1
 72
         1
  1
\W0.8;184
 11
-0.0000000268
 21
1.0
 31
0.0
  0
LINE
  5
DC
100
AcDbEntity
  8
LAYER3
 62
         4
100
AcDbLine
 10
-40.3806607997
 20
-93.7230542715
 30
0.0
 11
-41.0043958722
 21
-90.7886114693
 31
0.0
  0
LINE
  5
DD
100
AcDbEntity
  8
LAYER3
 62
         4
100
AcDbLine
 10
-40.3806607997
 20
-93.7230542715
 30
0.0
 11
-39.7569257273
 21
-90.7886114693
 31
0.0
  0
ARC
  5
DE
100
AcDbEntity
  8
LAYER0
 62
         3
100
AcDbCircle
 10
-7.8974723487
 20
-81.7230542715
 30
0.0
 40
1.0
210
0.0
220
-0.0
230
1.0
100
AcDbArc
 50
10.0767184335
 51
90.0000015352
  0
MTEXT
  5
DF
100
AcDbEntity
  8
LAYER3
100
AcDbMText
 10
-29.0121779228
 20
-5.3230543462
 30
0.0
 40
2.1473683357
 41
3.8469689941
 71
         1
 72
         1
  1
\W0.8;158
 11
-0.0000000268
 21
1.0
 31
0.0
  0
LINE
  5
E0
100
AcDbEntity
  8
LAYER3
 62
         4
100
AcDbLine
 10
-25.2245192314
 20
-80.7230542715
 30
0.0
 11
-25.8482543038
 21
-77.7886114693
 31
0.0
  0
LINE
  5
E1
100
AcDbEntity
  8
LAYER3
 62
         4
100
AcDbLine
 10
-25.2245192314
 20
-80.7230542715
 30
0.0
 11
-24.6007841589
 21
-77.7886114693
 31
0.0
  0
LINE
  5
E2
100
AcDbEntity
  8
LAYER3
 62
         4
100
AcDbLine
 10
-13.0595129524
 20
-80.7230542715
 30
0.0
 11
-26.2245192314
 21
-80.7230542715
 31
0.0
  0
LINE
  5
E3
100
AcDbEntity
  8
LAYER0
 62
         3
100
AcDbLine
 10
-9.359512565
 20
123.0543711167
 30
0.0
 11
-9.359512565
 21
117.5543709826
 31
0.0
  0
ARC
  5
E4
100
AcDbEntity
  8
LAYER0
 62
         3
100
AcDbCircle
 10
-12.0595129524
 20
75.2769457285
 30
0.0
 40
2.0
210
0.0
220
0.0
230
1.0
100
AcDbArc
 50
90.0000015352
 51
180.0000030705
  0
LINE
  5
E5
100
AcDbEntity
  8
LAYER0
 62
         3
100
AcDbLine
 10
-9.359512565
 20
123.0543711167
 30
0.0
 11
-10.359512565
 21
120.0543711167
 31
0.0
  0
LINE
  5
E6
100
AcDbEntity
  8
LAYER0
 62
         3
100
AcDbLine
 10
-10.359512565
 20
120.0543711167
 30
0.0
 11
-10.359512565
 21
119.0543711167
 31
0.0
  0
LINE
  5
E7
100
AcDbEntity
  8
LAYER0
 62
         3
100
AcDbLine
 10
-9.359512565
 20
119.0543711167
 30
0.0
 11
-10.359512565
 21
119.0543711167
 31
0.0
  0
LINE
  5
E8
100
AcDbEntity
  8
LAYER0
 62
         3
100
AcDbLine
 10
-5.4823847411
 20
86.1517790568
 30
0.0
 11
-6.9128979909
 21
78.1019790629
 31
0.0
  0
LINE
  5
E9
100
AcDbEntity
  8
LAYER0
 62
         3
100
AcDbLine
 10
-2.5595129524
 20
85.2769457285
 30
0.0
 11
-2.5595129524
 21
81.2769457285
 31
0.0
  0
ARC
  5
EA
100
AcDbEntity
  8
LAYER0
 62
         3
100
AcDbCircle
 10
-6.5595129524
 20
120.5543711167
 30
0.0
 40
0.5
210
0.0
220
0.0
230
1.0
100
AcDbArc
 50
180.0000030705
 51
269.9999984648
  0
LINE
  5
EB
100
AcDbEntity
  8
LAYER0
 62
         3
100
AcDbLine
 10
-7.0595129524
 20
123.0543711167
 30
0.0
 11
-7.0595129524
 21
120.5543711167
 31
0.0
  0
LINE
  5
EC
100
AcDbEntity
  8
LAYER0
 62
         3
100
AcDbLine
 10
-9.359512565
 20
123.0543711167
 30
0.0
 11
-7.859512565
 21
123.0543711167
 31
0.0
  0
ARC
  5
ED
100
AcDbEntity
  8
LAYER0
 62
         3
100
AcDbCircle
 10
-9.859512565
 20
117.5543709826
 30
0.0
 40
0.5
210
-0.0
220
0.0
230
1.0
100
AcDbArc
 50
269.9999984648
 51
0.0
  0
LINE
  5
EE
100
AcDbEntity
  8
LAYER0
 62
         3
100
AcDbLine
 10
-14.0595129524
 20
117.0543709826
 30
0.0
 11
-9.859512565
 21
117.0543709826
 31
0.0
  0
ARC
  5
EF
100
AcDbEntity
  8
LAYER0
 62
         3
100
AcDbCircle
 10
-13.5595129524
 20
116.2543709826
 30
0.0
 40
0.5
210
0.0
220
0.0
230
1.0
100
AcDbArc
 50
180.0000030705
 51
269.9999984648
  0
LINE
  5
F0
100
AcDbEntity
  8
LAYER0
 62
         3
100
AcDbLine
 10
-14.0595129524
 20
117.0543709826
 30
0.0
 11
-14.0595129524
 21
116.2543709826
 31
0.0
  0
ARC
  5
F1
100
AcDbEntity
  8
LAYER0
 62
         3
100
AcDbCircle
 10
-12.0595129524
 20
72.7769457285
 30
0.0
 40
0.5
210
-0.0
220
0.0
230
1.0
100
AcDbArc
 50
0.0
 51
180.0000030705
  0
LINE
  5
F2
100
AcDbEntity
  8
LAYER0
 62
         3
100
AcDbLine
 10
-7.1595129524
 20
58.7769457285
 30
0.0
 11
-7.559512565
 21
58.7769457285
 31
0.0
  0
LINE
  5
F3
100
AcDbEntity
  8
LAYER0
 62
         3
100
AcDbLine
 10
-7.159512565
 20
-18.2230542715
 30
0.0
 11
-7.159512565
 21
-4.9230542715
 31
0.0
  0
LINE
  5
F4
100
AcDbEntity
  8
LAYER0
 62
         3
100
AcDbLine
 10
-7.159512565
 20
-39.0230542715
 30
0.0
 11
-7.159512565
 21
-25.2230542715
 31
0.0
  0
LINE
  5
F5
100
AcDbEntity
  8
LAYER0
 62
         3
100
AcDbLine
 10
-7.559512565
 20
-25.2230542715
 30
0.0
 11
-7.159512565
 21
-25.2230542715
 31
0.0
  0
LINE
  5
F6
100
AcDbEntity
  8
LAYER0
 62
         3
100
AcDbLine
 10
-7.559512565
 20
-18.2230542715
 30
0.0
 11
-7.159512565
 21
-18.2230542715
 31
0.0
  0
LINE
  5
F7
100
AcDbEntity
  8
LAYER0
 62
         3
100
AcDbLine
 10
-7.1595129524
 20
-19.2230542715
 30
0.0
 11
-7.559512565
 21
-19.2230542715
 31
0.0
  0
LINE
  5
F8
100
AcDbEntity
  8
LAYER0
 62
         3
100
AcDbLine
 10
-7.1595129524
 20
-24.2230542715
 30
0.0
 11
-7.559512565
 21
-24.2230542715
 31
0.0
  0
LINE
  5
F9
100
AcDbEntity
  8
LAYER0
 62
         3
100
AcDbLine
 10
-7.559512565
 20
-18.2230542715
 30
0.0
 11
-7.559512565
 21
-25.2230542715
 31
0.0
  0
LINE
  5
FA
100
AcDbEntity
  8
LAYER0
 62
         3
100
AcDbLine
 10
-5.559512565
 20
-39.2230542715
 30
0.0
 11
-6.959512565
 21
-39.2230542715
 31
0.0
  0
LINE
  5
FB
100
AcDbEntity
  8
LAYER0
 62
         3
100
AcDbLine
 10
-5.559512565
 20
-4.7230542715
 30
0.0
 11
-6.959512565
 21
-4.7230542715
 31
0.0
  0
LINE
  5
FC
100
AcDbEntity
  8
LAYER0
 62
         3
100
AcDbLine
 10
-5.359512565
 20
-39.0230542715
 30
0.0
 11
-5.359512565
 21
-4.9230542715
 31
0.0
  0
ARC
  5
FD
100
AcDbEntity
  8
LAYER0
 62
         3
100
AcDbCircle
 10
-12.0595129524
 20
-76.2230542715
 30
0.0
 40
0.5
210
-0.0
220
0.0
230
1.0
100
AcDbArc
 50
180.0000030705
 51
0.0
  0
ARC
  5
FE
100
AcDbEntity
  8
LAYER0
 62
         3
100
AcDbCircle
 10
-6.959512565
 20
-39.0230542715
 30
0.0
 40
0.2
210
0.0
220
0.0
230
1.0
100
AcDbArc
 50
180.0000030705
 51
269.9999984648
  0
ARC
  5
FF
100
AcDbEntity
  8
LAYER0
 62
         3
100
AcDbCircle
 10
-5.559512565
 20
-39.0230542715
 30
0.0
 40
0.2
210
-0.0
220
0.0
230
1.0
100
AcDbArc
 50
269.9999984648
 51
0.0
  0
ARC
  5
100
100
AcDbEntity
  8
LAYER0
 62
         3
100
AcDbCircle
 10
-5.559512565
 20
-4.9230542715
 30
0.0
 40
0.2
210
0.0
220
-0.0
230
1.0
100
AcDbArc
 50
0.0
 51
90.0000015352
  0
LINE
  5
101
100
AcDbEntity
  8
LAYER0
 62
         6
100
AcDbLine
 10
-5.5595129524
 20
-39.2230542715
 30
0.0
 11
-5.5595129524
 21
-4.7230542715
 31
0.0
  0
LINE
  5
102
100
AcDbEntity
  8
LAYER0
 62
         6
100
AcDbLine
 10
-5.5595129524
 20
-76.7230542715
 30
0.0
 11
-5.5595129524
 21
-42.2230542715
 31
0.0
  0
LINE
  5
103
100
AcDbEntity
  8
LAYER0
 62
         6
100
AcDbLine
 10
-7.1595129524
 20
-39.0230542715
 30
0.0
 11
-7.1595129524
 21
-4.9230542715
 31
0.0
  0
LINE
  5
104
100
AcDbEntity
  8
LAYER0
 62
         6
100
AcDbLine
 10
-7.1595129524
 20
-76.5230542715
 30
0.0
 11
-7.1595129524
 21
-42.6730542715
 31
0.0
  0
LINE
  5
105
100
AcDbEntity
  8
LAYER0
 62
         6
100
AcDbLine
 10
-7.1595129524
 20
-5.7230542715
 30
0.0
 11
-5.5595129524
 21
-5.7230542715
 31
0.0
  0
LINE
  5
106
100
AcDbEntity
  8
LAYER0
 62
         6
100
AcDbLine
 10
-7.1595129524
 20
-75.7230542715
 30
0.0
 11
-5.5595129524
 21
-75.7230542715
 31
0.0
  0
LINE
  5
107
100
AcDbEntity
  8
LAYER0
 62
         6
100
AcDbLine
 10
-7.1595129524
 20
-38.7230542715
 30
0.0
 11
-5.5595129524
 21
-38.7230542715
 31
0.0
  0
LINE
  5
108
100
AcDbEntity
  8
LAYER0
 62
         6
100
AcDbLine
 10
-5.5595129524
 20
-42.7230542715
 30
0.0
 11
-7.1595129524
 21
-42.7230542715
 31
0.0
  0
MTEXT
  5
109
100
AcDbEntity
  8
LAYER3
100
AcDbMText
 10
-2.9595129524
 20
-103.711074614
 30
0.0
 40
2.1473683357
 41
2.5646459961
 71
         1
 72
         1
  1
\W0.8;27
  0
LINE
  5
10A
100
AcDbEntity
  8
LAYER3
 62
         4
100
AcDbLine
 10
-14.0595129524
 20
-107.4987333054
 30
0.0
 11
-11.1250701502
 21
-106.8749982329
 31
0.0
  0
LINE
  5
10B
100
AcDbEntity
  8
LAYER3
 62
         4
100
AcDbLine
 10
-14.0595129524
 20
-107.4987333054
 30
0.0
 11
-11.1250701502
 21
-108.1224683778
 31
0.0
  0
LINE
  5
10C
100
AcDbEntity
  8
LAYER0
 62
         3
100
AcDbLine
 10
44.6724866602
 20
72.7769457285
 30
0.0
 11
44.6724866602
 21
-76.2230542715
 31
0.0
  0
LINE
  5
10D
100
AcDbEntity
  8
LAYER0
 62
         3
100
AcDbLine
 10
44.9404866602
 20
76.7769457285
 30
0.0
 11
44.9404866602
 21
-80.2230542715
 31
0.0
  0
LINE
  5
10E
100
AcDbEntity
  8
LAYER0
 62
         3
100
AcDbLine
 10
-5.4823847411
 20
-89.5978875998
 30
0.0
 11
-6.9128979909
 21
-81.5480876058
 31
0.0
  0
LINE
  5
10F
100
AcDbEntity
  8
LAYER0
 62
         3
100
AcDbLine
 10
-2.5595129524
 20
-88.7230542715
 30
0.0
 11
-2.5595129524
 21
-84.7230542715
 31
0.0
  0
MTEXT
  5
110
100
AcDbEntity
  8
LAYER0
100
AcDbMText
 10
-15.6501737419
 20
-132.5157576176
 30
0.0
 40
3.0922104359
 41
9.2327256828
 71
         1
 72
         1
  1
\W0.8;MR-3L
  0
MTEXT
  5
111
100
AcDbEntity
  8
LAYER0
100
AcDbMText
 10
-35.7051459079
 20
-126.6461242782
 30
0.0
 40
2.1473683357
 41
6.4116149902
 71
         1
 72
         1
  1
\W0.8;Ｎｏ.
  0
LINE
  5
112
100
AcDbEntity
  8
LAYER0
 62
         3
100
AcDbLine
 10
-25.0
 20
-125.5
 30
0.0
 11
-25.0
 21
-138.5
 31
0.0
  0
MTEXT
  5
113
100
AcDbEntity
  8
LAYER0
100
AcDbMText
 10
-10.6564309049
 20
-126.7970201517
 30
0.0
 40
2.1473683357
 41
7.6538653946
 71
         1
 72
         1
  1
\W0.8;品　番
  0
LINE
  5
114
100
AcDbEntity
  8
LAYER0
 62
         3
100
AcDbLine
 10
-40.0
 20
-138.5
 30
0.0
 11
-40.0
 21
-125.5
 31
0.0
  0
ARC
  5
115
100
AcDbEntity
  8
LAYER0
 62
         3
100
AcDbCircle
 10
-6.959512565
 20
-76.5230542715
 30
0.0
 40
0.2
210
0.0
220
0.0
230
1.0
100
AcDbArc
 50
180.0000030705
 51
269.9999984648
  0
ARC
  5
116
100
AcDbEntity
  8
LAYER0
 62
         3
100
AcDbCircle
 10
-5.559512565
 20
-76.5230542715
 30
0.0
 40
0.2
210
-0.0
220
0.0
230
1.0
100
AcDbArc
 50
269.9999984648
 51
0.0
  0
ARC
  5
117
100
AcDbEntity
  8
LAYER0
 62
         3
100
AcDbCircle
 10
-5.559512565
 20
-42.4230542715
 30
0.0
 40
0.2
210
0.0
220
-0.0
230
1.0
100
AcDbArc
 50
0.0
 51
90.0000015352
  0
ARC
  5
118
100
AcDbEntity
  8
LAYER0
 62
         3
100
AcDbCircle
 10
-6.959512565
 20
-42.4230542715
 30
0.0
 40
0.2
210
0.0
220
0.0
230
1.0
100
AcDbArc
 50
90.0000015352
 51
180.0000030705
  0
LINE
  5
119
100
AcDbEntity
  8
LAYER0
 62
         3
100
AcDbLine
 10
-7.159512565
 20
-56.2230542715
 30
0.0
 11
-7.159512565
 21
-42.4230542715
 31
0.0
  0
LINE
  5
11A
100
AcDbEntity
  8
LAYER0
 62
         3
100
AcDbLine
 10
-7.159512565
 20
-76.5230542715
 30
0.0
 11
-7.159512565
 21
-63.2230542715
 31
0.0
  0
LINE
  5
11B
100
AcDbEntity
  8
LAYER0
 62
         3
100
AcDbLine
 10
-7.559512565
 20
-63.2230542715
 30
0.0
 11
-7.159512565
 21
-63.2230542715
 31
0.0
  0
LINE
  5
11C
100
AcDbEntity
  8
LAYER0
 62
         3
100
AcDbLine
 10
-7.559512565
 20
-56.2230542715
 30
0.0
 11
-7.159512565
 21
-56.2230542715
 31
0.0
  0
LINE
  5
11D
100
AcDbEntity
  8
LAYER0
 62
         3
100
AcDbLine
 10
-7.1595129524
 20
-57.2230542715
 30
0.0
 11
-7.559512565
 21
-57.2230542715
 31
0.0
  0
LINE
  5
11E
100
AcDbEntity
  8
LAYER0
 62
         3
100
AcDbLine
 10
-7.1595129524
 20
-62.2230542715
 30
0.0
 11
-7.559512565
 21
-62.2230542715
 31
0.0
  0
LINE
  5
11F
100
AcDbEntity
  8
LAYER0
 62
         3
100
AcDbLine
 10
-7.559512565
 20
-56.2230542715
 30
0.0
 11
-7.559512565
 21
-63.2230542715
 31
0.0
  0
LINE
  5
120
100
AcDbEntity
  8
LAYER0
 62
         3
100
AcDbLine
 10
-5.559512565
 20
-76.7230542715
 30
0.0
 11
-6.959512565
 21
-76.7230542715
 31
0.0
  0
LINE
  5
121
100
AcDbEntity
  8
LAYER0
 62
         3
100
AcDbLine
 10
-5.559512565
 20
-42.2230542715
 30
0.0
 11
-6.959512565
 21
-42.2230542715
 31
0.0
  0
LINE
  5
122
100
AcDbEntity
  8
LAYER0
 62
         3
100
AcDbLine
 10
-5.359512565
 20
-76.5230542715
 30
0.0
 11
-5.359512565
 21
-42.4230542715
 31
0.0
  0
ARC
  5
123
100
AcDbEntity
  8
LAYER0
 62
         3
100
AcDbCircle
 10
-12.0595129524
 20
-78.7230542715
 30
0.0
 40
2.0
210
0.0
220
0.0
230
1.0
100
AcDbArc
 50
180.0000030705
 51
269.9999984648
  0
ARC
  5
124
100
AcDbEntity
  8
LAYER0
 62
         3
100
AcDbCircle
 10
-6.959512565
 20
-4.9230542715
 30
0.0
 40
0.2
210
0.0
220
0.0
230
1.0
100
AcDbArc
 50
90.0000015352
 51
180.0000030705
  0
LINE
  5
125
100
AcDbEntity
  8
LAYER0
 62
         3
100
AcDbLine
 10
-5.359512565
 20
35.5769457285
 30
0.0
 11
-5.359512565
 21
1.4769457285
 31
0.0
  0
ARC
  5
126
100
AcDbEntity
  8
LAYER0
 62
         3
100
AcDbCircle
 10
-5.559512565
 20
1.4769457285
 30
0.0
 40
0.2
210
-0.0
220
0.0
230
1.0
100
AcDbArc
 50
269.9999984648
 51
0.0
  0
ARC
  5
127
100
AcDbEntity
  8
LAYER0
 62
         3
100
AcDbCircle
 10
-6.959512565
 20
1.4769457285
 30
0.0
 40
0.2
210
0.0
220
0.0
230
1.0
100
AcDbArc
 50
180.0000030705
 51
269.9999984648
  0
LINE
  5
128
100
AcDbEntity
  8
LAYER0
 62
         3
100
AcDbLine
 10
-7.159512565
 20
14.7769457285
 30
0.0
 11
-7.159512565
 21
1.4769457285
 31
0.0
  0
LINE
  5
129
100
AcDbEntity
  8
LAYER0
 62
         6
100
AcDbLine
 10
-5.5595129524
 20
35.7769457285
 30
0.0
 11
-5.5595129524
 21
1.2769457285
 31
0.0
  0
LINE
  5
12A
100
AcDbEntity
  8
LAYER0
 62
         6
100
AcDbLine
 10
-7.1595129524
 20
35.5769457285
 30
0.0
 11
-7.1595129524
 21
1.4769457285
 31
0.0
  0
LINE
  5
12B
100
AcDbEntity
  8
LAYER3
 62
         4
100
AcDbLine
 10
-40.3806607997
 20
-93.7230542715
 30
0.0
 11
-40.3806607997
 21
90.2769457285
 31
0.0
  0
LINE
  5
12C
100
AcDbEntity
  8
LAYER3
 62
         4
100
AcDbLine
 10
-25.2245192314
 20
-80.7230542715
 30
0.0
 11
-25.2245192314
 21
77.2769457285
 31
0.0
  0
LINE
  5
12D
100
AcDbEntity
  8
LAYER0
 62
         3
100
AcDbLine
 10
12.9404870476
 20
-78.7230542715
 30
0.0
 11
12.9404870476
 21
75.2769457285
 31
0.0
  0
LINE
  5
12E
100
AcDbEntity
  8
LAYER0
 62
         3
100
AcDbLine
 10
11.4404870476
 20
-1.7230542715
 30
0.0
 11
11.4404870476
 21
-76.2230542715
 31
0.0
  0
LINE
  5
12F
100
AcDbEntity
  8
LAYER0
 62
         3
100
AcDbLine
 10
10.4404870476
 20
72.7769457285
 30
0.0
 11
10.4404870476
 21
-1.7230542715
 31
0.0
  0
LINE
  5
130
100
AcDbEntity
  8
LAYER0
 62
         3
100
AcDbLine
 10
11.4404870476
 20
-1.7230542715
 30
0.0
 11
11.4404870476
 21
72.7769457285
 31
0.0
  0
LINE
  5
131
100
AcDbEntity
  8
LAYER0
 62
         3
100
AcDbLine
 10
10.4404870476
 20
-76.2230542715
 30
0.0
 11
10.4404870476
 21
-1.7230542715
 31
0.0
  0
ARC
  5
132
100
AcDbEntity
  8
LAYER0
 62
         3
100
AcDbCircle
 10
4.4404866602
 20
1.4769457285
 30
0.0
 40
0.2
210
0.0
220
0.0
230
1.0
100
AcDbArc
 50
180.0000030705
 51
269.9999984648
  0
ARC
  5
133
100
AcDbEntity
  8
LAYER0
 62
         3
100
AcDbCircle
 10
5.8404866602
 20
1.4769457285
 30
0.0
 40
0.2
210
-0.0
220
0.0
230
1.0
100
AcDbArc
 50
269.9999984648
 51
0.0
  0
LINE
  5
134
100
AcDbEntity
  8
LAYER0
 62
         3
100
AcDbLine
 10
6.0404866602
 20
14.7769457285
 30
0.0
 11
6.0404866602
 21
1.4769457285
 31
0.0
  0
LINE
  5
135
100
AcDbEntity
  8
LAYER0
 62
         3
100
AcDbLine
 10
4.4404866602
 20
1.2769457285
 30
0.0
 11
5.8404866602
 21
1.2769457285
 31
0.0
  0
LINE
  5
136
100
AcDbEntity
  8
LAYER0
 62
         3
100
AcDbLine
 10
4.2404866602
 20
35.5769457285
 30
0.0
 11
4.2404866602
 21
1.4769457285
 31
0.0
  0
LINE
  5
137
100
AcDbEntity
  8
LAYER0
 62
         6
100
AcDbLine
 10
4.4404870476
 20
35.7769457285
 30
0.0
 11
4.4404870476
 21
1.2769457285
 31
0.0
  0
LINE
  5
138
100
AcDbEntity
  8
LAYER0
 62
         6
100
AcDbLine
 10
6.0404870476
 20
35.5769457285
 30
0.0
 11
6.0404870476
 21
1.4769457285
 31
0.0
  0
LINE
  5
139
100
AcDbEntity
  8
LAYER0
 62
         3
100
AcDbLine
 10
46.2404866602
 20
77.2769457285
 30
0.0
 11
46.2404866602
 21
-80.7230542715
 31
0.0
  0
LINE
  5
13A
100
AcDbEntity
  8
LAYER0
 62
         3
100
AcDbLine
 10
49.2404866602
 20
-3.7230542715
 30
0.0
 11
49.2404866602
 21
0.2769457285
 31
0.0
  0
LINE
  5
13B
100
AcDbEntity
  8
LAYER0
 62
         3
100
AcDbLine
 10
48.2404866602
 20
0.2769457285
 30
0.0
 11
52.2404866602
 21
0.2769457285
 31
0.0
  0
LINE
  5
13C
100
AcDbEntity
  8
LAYER0
 62
         3
100
AcDbLine
 10
48.2404866602
 20
-3.7230542715
 30
0.0
 11
48.2404866602
 21
0.2769457285
 31
0.0
  0
LINE
  5
13D
100
AcDbEntity
  8
LAYER0
 62
         3
100
AcDbLine
 10
52.2404866602
 20
-93.7230542715
 30
0.0
 11
52.2404866602
 21
90.2769457285
 31
0.0
  0
LINE
  5
13E
100
AcDbEntity
  8
LAYER0
 62
         3
100
AcDbLine
 10
10.9404870476
 20
-80.7230542715
 30
0.0
 11
-12.0595129524
 21
-80.7230542715
 31
0.0
  0
ARC
  5
13F
100
AcDbEntity
  8
LAYER0
 62
         3
100
AcDbCircle
 10
-0.5595129524
 20
-88.7230542715
 30
0.0
 40
5.0
210
0.0
220
0.0
230
1.0
100
AcDbArc
 50
190.076715363
 51
349.9232815665
  0
ARC
  5
140
100
AcDbEntity
  8
LAYER0
 62
         3
100
AcDbCircle
 10
-0.5595129524
 20
-84.7230542715
 30
0.0
 40
2.0
210
-0.0
220
0.0
230
1.0
100
AcDbArc
 50
0.0
 51
180.0000030705
  0
ARC
  5
141
100
AcDbEntity
  8
LAYER0
 62
         3
100
AcDbCircle
 10
-0.5595129524
 20
-88.7230542715
 30
0.0
 40
2.0
210
-0.0
220
0.0
230
1.0
100
AcDbArc
 50
180.0000030705
 51
0.0
  0
LINE
  5
142
100
AcDbEntity
  8
LAYER0
 62
         3
100
AcDbLine
 10
1.4404870476
 20
-84.7230542715
 30
0.0
 11
1.4404870476
 21
-88.7230542715
 31
0.0
  0
LINE
  5
143
100
AcDbEntity
  8
LAYER0
 62
         3
100
AcDbLine
 10
95.0
 20
-125.5
 30
0.0
 11
-40.0
 21
-125.5
 31
0.0
  0
LINE
  5
144
100
AcDbEntity
  8
LAYER0
 62
         3
100
AcDbLine
 10
95.0
 20
-130.5
 30
0.0
 11
-40.0
 21
-130.5
 31
0.0
  0
LINE
  5
145
100
AcDbEntity
  8
LAYER0
 62
         3
100
AcDbLine
 10
95.0
 20
-138.5
 30
0.0
 11
-40.0
 21
-138.5
 31
0.0
  0
LINE
  5
146
100
AcDbEntity
  8
LAYER0
 62
         3
100
AcDbLine
 10
10.9404870476
 20
77.2769457285
 30
0.0
 11
-12.0595129524
 21
77.2769457285
 31
0.0
  0
ARC
  5
147
100
AcDbEntity
  8
LAYER0
 62
         3
100
AcDbCircle
 10
-0.5595129524
 20
85.2769457285
 30
0.0
 40
5.0
210
0.0
220
-0.0
230
1.0
100
AcDbArc
 50
10.0767184335
 51
169.923284637
  0
ARC
  5
148
100
AcDbEntity
  8
LAYER0
 62
         3
100
AcDbCircle
 10
-0.5595129524
 20
81.2769457285
 30
0.0
 40
2.0
210
-0.0
220
0.0
230
1.0
100
AcDbArc
 50
180.0000030705
 51
0.0
  0
ARC
  5
149
100
AcDbEntity
  8
LAYER0
 62
         3
100
AcDbCircle
 10
-0.5595129524
 20
85.2769457285
 30
0.0
 40
2.0
210
-0.0
220
0.0
230
1.0
100
AcDbArc
 50
0.0
 51
180.0000030705
  0
LINE
  5
14A
100
AcDbEntity
  8
LAYER0
 62
         3
100
AcDbLine
 10
1.4404870476
 20
81.2769457285
 30
0.0
 11
1.4404870476
 21
85.2769457285
 31
0.0
  0
LINE
  5
14B
100
AcDbEntity
  8
LAYER0
 62
         3
100
AcDbLine
 10
-6.5595129524
 20
120.0543711167
 30
0.0
 11
5.4404870476
 21
120.0543711167
 31
0.0
  0
LINE
  5
14C
100
AcDbEntity
  8
LAYER0
 62
         3
100
AcDbLine
 10
-9.359512565
 20
123.0543711167
 30
0.0
 11
8.2404866602
 21
123.0543711167
 31
0.0
  0
LINE
  5
14D
100
AcDbEntity
  8
LAYER0
 62
         3
100
AcDbLine
 10
12.4404870476
 20
115.7543709826
 30
0.0
 11
-13.5595129524
 21
115.7543709826
 31
0.0
  0
LINE
  5
14E
100
AcDbEntity
  8
LAYER3
 62
         4
100
AcDbLine
 10
-14.0595129524
 20
-107.4987333054
 30
0.0
 11
12.9404870476
 21
-107.4987333054
 31
0.0
  0
LINE
  5
14F
100
AcDbEntity
  8
LAYER3
 62
         4
100
AcDbLine
 10
-1.5595129524
 20
90.2769457285
 30
0.0
 11
-41.3806607997
 21
90.2769457285
 31
0.0
  0
LINE
  5
150
100
AcDbEntity
  8
LAYER3
 62
         4
100
AcDbLine
 10
-1.5595129524
 20
-93.7230542715
 30
0.0
 11
-41.3806607997
 21
-93.7230542715
 31
0.0
  0
LINE
  5
151
100
AcDbEntity
  8
LAYER0
 62
         3
100
AcDbLine
 10
-14.0595129524
 20
75.2769457285
 30
0.0
 11
-14.0595129524
 21
-78.7230542715
 31
0.0
  0
LINE
  5
152
100
AcDbEntity
  8
LAYER0
 62
         3
100
AcDbLine
 10
-11.5595129524
 20
-76.2230542715
 30
0.0
 11
-11.5595129524
 21
-1.7230542715
 31
0.0
  0
LINE
  5
153
100
AcDbEntity
  8
LAYER0
 62
         3
100
AcDbLine
 10
-12.5595129524
 20
-1.7230542715
 30
0.0
 11
-12.5595129524
 21
-76.2230542715
 31
0.0
  0
LINE
  5
154
100
AcDbEntity
  8
LAYER0
 62
         3
100
AcDbLine
 10
-11.5595129524
 20
72.7769457285
 30
0.0
 11
-11.5595129524
 21
-1.7230542715
 31
0.0
  0
LINE
  5
155
100
AcDbEntity
  8
LAYER0
 62
         3
100
AcDbLine
 10
-12.5595129524
 20
-1.7230542715
 30
0.0
 11
-12.5595129524
 21
72.7769457285
 31
0.0
  0
LINE
  5
156
100
AcDbEntity
  8
LAYER0
 62
         3
100
AcDbLine
 10
-5.559512565
 20
1.2769457285
 30
0.0
 11
-6.959512565
 21
1.2769457285
 31
0.0
  0
ENDSEC
  0
SECTION
  2
OBJECTS
  0
DICTIONARY
  5
19
100
AcDbDictionary
280
         0
281
         1
  3
ACAD_GROUP
350
1A
  3
ACAD_MLINESTYLE
350
1B
  3
ACAD_LAYOUT
350
1E
  3
ACAD_PLOTSETTINGS
350
22
  3
ACAD_PLOTSTYLENAME
350
1F
  3
ACAD_WIPEOUT_VARS
350
23
  0
DICTIONARY
  5
1A
102
{ACAD_REACTORS
330
19
102
}
100
AcDbDictionary
280
         0
281
         1
  0
DICTIONARY
  5
1B
102
{ACAD_REACTORS
330
19
102
}
100
AcDbDictionary
280
         0
281
         1
  3
Standard
350
1C
  0
MLINESTYLE
  5
1C
102
{ACAD_REACTORS
330
1B
102
}
100
AcDbMlineStyle
  2
Standard
 70
         0
  3

 62
         0
 51
90.0
 52
90.0
 71
         2
 49
0.5
 62
       256
  6
BYLAYER
 49
-0.5
 62
       256
  6
BYLAYER
  0
ACDBDICTIONARYWDFLT
  5
1F
102
{ACAD_REACTORS
330
19
102
}
100
AcDbDictionary
281
         1
  3
Normal
350
1D
100
AcDbDictionaryWithDefault
340
1D
  0
ACDBPLACEHOLDER
  5
1D
102
{ACAD_REACTORS
330
1F
102
}
  0
LAYOUT
  5
20
102
{ACAD_REACTORS
330
1E
102
}
100
AcDbPlotSettings
  1

  2

  4

  6

 40
0.0
 41
0.0
 42
0.0
 43
0.0
 44
0.0
 45
0.0
 46
0.0
 47
0.0
 48
0.0
 49
0.0
140
0.0
141
0.0
142
1.0
143
1.0
 70
         0
 72
         0
 73
         0
 74
         0
  7

 75
         0
147
1.0
148
0.0
149
0.0
100
AcDbLayout
  1
Model
 70
         0
 71
         0
 10
0.0
 20
0.0
 11
0.0
 21
0.0
 12
0.0
 22
0.0
 32
0.0
 14
0.0
 24
0.0
 34
0.0
 15
0.0
 25
0.0
 35
0.0
146
0.0
 13
0.0
 23
0.0
 33
0.0
 16
0.0
 26
0.0
 36
0.0
 17
0.0
 27
0.0
 37
0.0
 76
         0
330
A
331
0
345
0
346
0
  0
LAYOUT
  5
21
102
{ACAD_REACTORS
330
1E
102
}
100
AcDbPlotSettings
  1

  2

  4

  6

 40
0.0
 41
0.0
 42
0.0
 43
0.0
 44
0.0
 45
0.0
 46
0.0
 47
0.0
 48
0.0
 49
0.0
140
0.0
141
0.0
142
1.0
143
1.0
 70
         0
 72
         0
 73
         0
 74
         0
  7

 75
         0
147
1.0
148
0.0
149
0.0
100
AcDbLayout
  1
Layout1
 70
         0
 71
         0
 10
0.0
 20
0.0
 11
0.0
 21
0.0
 12
0.0
 22
0.0
 32
0.0
 14
0.0
 24
0.0
 34
0.0
 15
0.0
 25
0.0
 35
0.0
146
0.0
 13
0.0
 23
0.0
 33
0.0
 16
0.0
 26
0.0
 36
0.0
 17
0.0
 27
0.0
 37
0.0
 76
         0
330
B
331
0
345
0
346
0
  0
DICTIONARY
  5
1E
102
{ACAD_REACTORS
330
19
102
}
100
AcDbDictionary
280
         0
281
         1
  3
Layout1
350
21
  3
Model
350
20
  0
DICTIONARY
  5
22
102
{ACAD_REACTORS
330
19
102
}
100
AcDbDictionary
280
         0
281
         1
  0
WIPEOUTVARIABLES
  5
23
100
AcDbWipeoutVariables
 70
         1
  0
ENDSEC
  0
EOF
