  0
SECTION
  2
HEADER
  9
$INSBASE
 10
0.0
20
0.0
  9
$REGENMODE
 70
     1
  9
$DRAGMODE
 70
     1
  9
$DIMTAD
 70
     1
  9
$EXTMIN
 10
-594.000000
 20
-841.000000
 30
 0.0
  9
$EXTMAX
 10
594.000000
 20
841.000000
 30
 0.0
  9
$LUPREC
 70
    3
  9
$AUPREC
 70
    3
  9
$LTSCALE
 40
37.125000
  0
ENDSEC
  0
SECTION
  2
TABLES
  0
TABLE
  2
LTYPE
 70
     6
  0
LTYPE
  2
CONTINUOUS
 70
    64
  3
実線
 72
    65
 73
     0
 40
0.0
  0
LTYPE
  2
DOTS
 70
    64
  3
close
 72
    65
 73
     2
 40
0.1
 49
0.05
 49
-0.05
  0
LTYPE
  2
HIDDEN
 70
    64
  3
__ __ __ __ __ __ __ __ __ __ __ __ __ __ __
 72
    65
 73
     2
 40
0.375
 49
0.25
 49
-0.125
  0
LTYPE
  2
DASHED
 70
    64
  3
__ __ __ __ __ __ __ __ __ __ __ __ __ __ __
 72
    65
 73
     2
 40
0.75
 49
0.5
 49
-0.25
  0
LTYPE
  2
DOT
 70
    64
  3
............................................
 72
    65
 73
     2
 40
0.25
 49
0
 49
-0.25
  0
LTYPE
  2
CENTER
 70
    64
  3
____ _ ____ _ ____ _ ____ _ ____ _ ____ _ __
 72
    65
 73
     4
 40
2.0
 49
1.25
 49
-0.25
 49
0.25
 49
-0.25
  0
LTYPE
  2
DASHDOT
 70
    64
  3
__ . __ . __ . __ . __ . __ . __ . __ . __ .
 72
    65
 73
     4
 40
1.0
 49
0.5
 49
-0.25
 49
0.0
 49
-0.25
  0
LTYPE
  2
HIDDENX2
 70
    64
  3
____ ____ ____ ____ ____ ____ ____ ____ ____
 72
    65
 73
     2
 40
0.625
 49
0.5
 49
-0.125
  0
LTYPE
  2
DIVIDE
 70
    64
  3
__ . . __ . . __ . . __ . . __ . . __ . . __
 72
    65
 73
     6
 40
1.25
 49
0.5
 49
-0.25
 49
0.0
 49
-0.25
 49
0.0
 49
-0.25
  0
ENDTAB
  0
TABLE
  2
LAYER
 70
   255
  0
LAYER
  2
0
 70
    64
 62
     7
  6
CONTINUOUS
  0
LAYER
  2
AM_0
 70
    64
 62
     7
  6
CONTINUOUS
  0
LAYER
  2
AM_7
 70
    64
 62
     7
  6
CONTINUOUS
  0
LAYER
  2
AM_9
 70
    64
 62
     7
  6
CONTINUOUS
  0
LAYER
  2
AM_5
 70
    64
 62
     7
  6
CONTINUOUS
  0
LAYER
  2
AM_0N
 70
    64
 62
     7
  6
CONTINUOUS
  0
LAYER
  2
AM_7N
 70
    64
 62
     7
  6
CONTINUOUS
  0
LAYER
  2
AM_4N
 70
    64
 62
     7
  6
CONTINUOUS
  0
LAYER
  2
AM_12
 70
    64
 62
     7
  6
CONTINUOUS
  0
LAYER
  2
AM_PAREF
 70
    64
 62
     7
  6
CONTINUOUS
  0
LAYER
  2
AM_12N
 70
    64
 62
     7
  6
CONTINUOUS
  0
LAYER
  2
AM_BOR
 70
    64
 62
     7
  6
CONTINUOUS
  0
LAYER
  2
RAHM5
 70
    64
 62
     7
  6
CONTINUOUS
  0
LAYER
  2
RAHM3
 70
    64
 62
     7
  6
CONTINUOUS
  0
LAYER
  2
Defpoints
 70
    64
 62
     7
  6
CONTINUOUS
  0
LAYER
  2
AM_3
 70
    64
 62
     7
  6
CONTINUOUS
  0
LAYER
  2
AM_6
 70
    64
 62
     7
  6
CONTINUOUS
  0
LAYER
  2
AM_4
 70
    64
 62
     7
  6
CONTINUOUS
  0
LAYER
  2
AM_CL
 70
    64
 62
     7
  6
CONTINUOUS
  0
LAYER
  2
19
 70
    64
 62
     7
  6
CONTINUOUS
  0
LAYER
  2
20
 70
    64
 62
     7
  6
CONTINUOUS
  0
LAYER
  2
21
 70
    64
 62
     7
  6
CONTINUOUS
  0
LAYER
  2
22
 70
    64
 62
     7
  6
CONTINUOUS
  0
LAYER
  2
23
 70
    64
 62
     7
  6
CONTINUOUS
  0
LAYER
  2
24
 70
    64
 62
     7
  6
CONTINUOUS
  0
LAYER
  2
25
 70
    64
 62
     7
  6
CONTINUOUS
  0
LAYER
  2
26
 70
    64
 62
     7
  6
CONTINUOUS
  0
LAYER
  2
27
 70
    64
 62
     7
  6
CONTINUOUS
  0
LAYER
  2
28
 70
    64
 62
     7
  6
CONTINUOUS
  0
LAYER
  2
29
 70
    64
 62
     7
  6
CONTINUOUS
  0
LAYER
  2
30
 70
    64
 62
     7
  6
CONTINUOUS
  0
LAYER
  2
31
 70
    64
 62
     7
  6
CONTINUOUS
  0
LAYER
  2
32
 70
    64
 62
     7
  6
CONTINUOUS
  0
LAYER
  2
33
 70
    64
 62
     7
  6
CONTINUOUS
  0
LAYER
  2
34
 70
    64
 62
     7
  6
CONTINUOUS
  0
LAYER
  2
35
 70
    64
 62
     7
  6
CONTINUOUS
  0
LAYER
  2
36
 70
    64
 62
     7
  6
CONTINUOUS
  0
LAYER
  2
37
 70
    64
 62
     7
  6
CONTINUOUS
  0
LAYER
  2
38
 70
    64
 62
     7
  6
CONTINUOUS
  0
LAYER
  2
39
 70
    64
 62
     7
  6
CONTINUOUS
  0
LAYER
  2
40
 70
    64
 62
     7
  6
CONTINUOUS
  0
LAYER
  2
41
 70
    64
 62
     7
  6
CONTINUOUS
  0
LAYER
  2
42
 70
    64
 62
     7
  6
CONTINUOUS
  0
LAYER
  2
43
 70
    64
 62
     7
  6
CONTINUOUS
  0
LAYER
  2
44
 70
    64
 62
     7
  6
CONTINUOUS
  0
LAYER
  2
45
 70
    64
 62
     7
  6
CONTINUOUS
  0
LAYER
  2
46
 70
    64
 62
     7
  6
CONTINUOUS
  0
LAYER
  2
47
 70
    64
 62
     7
  6
CONTINUOUS
  0
LAYER
  2
48
 70
    64
 62
     7
  6
CONTINUOUS
  0
LAYER
  2
49
 70
    64
 62
     7
  6
CONTINUOUS
  0
LAYER
  2
50
 70
    64
 62
     7
  6
CONTINUOUS
  0
LAYER
  2
51
 70
    64
 62
     7
  6
CONTINUOUS
  0
LAYER
  2
52
 70
    64
 62
     7
  6
CONTINUOUS
  0
LAYER
  2
53
 70
    64
 62
     7
  6
CONTINUOUS
  0
LAYER
  2
54
 70
    64
 62
     7
  6
CONTINUOUS
  0
LAYER
  2
55
 70
    64
 62
     7
  6
CONTINUOUS
  0
LAYER
  2
56
 70
    64
 62
     7
  6
CONTINUOUS
  0
LAYER
  2
57
 70
    64
 62
     7
  6
CONTINUOUS
  0
LAYER
  2
58
 70
    64
 62
     7
  6
CONTINUOUS
  0
LAYER
  2
59
 70
    64
 62
     7
  6
CONTINUOUS
  0
LAYER
  2
60
 70
    64
 62
     7
  6
CONTINUOUS
  0
LAYER
  2
61
 70
    64
 62
     7
  6
CONTINUOUS
  0
LAYER
  2
62
 70
    64
 62
     7
  6
CONTINUOUS
  0
LAYER
  2
63
 70
    64
 62
     7
  6
CONTINUOUS
  0
LAYER
  2
64
 70
    64
 62
     7
  6
CONTINUOUS
  0
LAYER
  2
65
 70
    64
 62
     7
  6
CONTINUOUS
  0
LAYER
  2
66
 70
    64
 62
     7
  6
CONTINUOUS
  0
LAYER
  2
67
 70
    64
 62
     7
  6
CONTINUOUS
  0
LAYER
  2
68
 70
    64
 62
     7
  6
CONTINUOUS
  0
LAYER
  2
69
 70
    64
 62
     7
  6
CONTINUOUS
  0
LAYER
  2
70
 70
    64
 62
     7
  6
CONTINUOUS
  0
LAYER
  2
71
 70
    64
 62
     7
  6
CONTINUOUS
  0
LAYER
  2
72
 70
    64
 62
     7
  6
CONTINUOUS
  0
LAYER
  2
73
 70
    64
 62
     7
  6
CONTINUOUS
  0
LAYER
  2
74
 70
    64
 62
     7
  6
CONTINUOUS
  0
LAYER
  2
75
 70
    64
 62
     7
  6
CONTINUOUS
  0
LAYER
  2
76
 70
    64
 62
     7
  6
CONTINUOUS
  0
LAYER
  2
77
 70
    64
 62
     7
  6
CONTINUOUS
  0
LAYER
  2
78
 70
    64
 62
     7
  6
CONTINUOUS
  0
LAYER
  2
79
 70
    64
 62
     7
  6
CONTINUOUS
  0
LAYER
  2
80
 70
    64
 62
     7
  6
CONTINUOUS
  0
LAYER
  2
81
 70
    64
 62
     7
  6
CONTINUOUS
  0
LAYER
  2
82
 70
    64
 62
     7
  6
CONTINUOUS
  0
LAYER
  2
83
 70
    64
 62
     7
  6
CONTINUOUS
  0
LAYER
  2
84
 70
    64
 62
     7
  6
CONTINUOUS
  0
LAYER
  2
85
 70
    64
 62
     7
  6
CONTINUOUS
  0
LAYER
  2
86
 70
    64
 62
     7
  6
CONTINUOUS
  0
LAYER
  2
87
 70
    64
 62
     7
  6
CONTINUOUS
  0
LAYER
  2
88
 70
    64
 62
     7
  6
CONTINUOUS
  0
LAYER
  2
89
 70
    64
 62
     7
  6
CONTINUOUS
  0
LAYER
  2
90
 70
    64
 62
     7
  6
CONTINUOUS
  0
LAYER
  2
91
 70
    64
 62
     7
  6
CONTINUOUS
  0
LAYER
  2
92
 70
    64
 62
     7
  6
CONTINUOUS
  0
LAYER
  2
93
 70
    64
 62
     7
  6
CONTINUOUS
  0
LAYER
  2
94
 70
    64
 62
     7
  6
CONTINUOUS
  0
LAYER
  2
95
 70
    64
 62
     7
  6
CONTINUOUS
  0
LAYER
  2
96
 70
    64
 62
     7
  6
CONTINUOUS
  0
LAYER
  2
97
 70
    64
 62
     7
  6
CONTINUOUS
  0
LAYER
  2
98
 70
    64
 62
     7
  6
CONTINUOUS
  0
LAYER
  2
99
 70
    64
 62
     7
  6
CONTINUOUS
  0
LAYER
  2
100
 70
    64
 62
     7
  6
CONTINUOUS
  0
LAYER
  2
101
 70
    64
 62
     7
  6
CONTINUOUS
  0
LAYER
  2
102
 70
    64
 62
     7
  6
CONTINUOUS
  0
LAYER
  2
103
 70
    64
 62
     7
  6
CONTINUOUS
  0
LAYER
  2
104
 70
    64
 62
     7
  6
CONTINUOUS
  0
LAYER
  2
105
 70
    64
 62
     7
  6
CONTINUOUS
  0
LAYER
  2
106
 70
    64
 62
     7
  6
CONTINUOUS
  0
LAYER
  2
107
 70
    64
 62
     7
  6
CONTINUOUS
  0
LAYER
  2
108
 70
    64
 62
     7
  6
CONTINUOUS
  0
LAYER
  2
109
 70
    64
 62
     7
  6
CONTINUOUS
  0
LAYER
  2
110
 70
    64
 62
     7
  6
CONTINUOUS
  0
LAYER
  2
111
 70
    64
 62
     7
  6
CONTINUOUS
  0
LAYER
  2
112
 70
    64
 62
     7
  6
CONTINUOUS
  0
LAYER
  2
113
 70
    64
 62
     7
  6
CONTINUOUS
  0
LAYER
  2
114
 70
    64
 62
     7
  6
CONTINUOUS
  0
LAYER
  2
115
 70
    64
 62
     7
  6
CONTINUOUS
  0
LAYER
  2
116
 70
    64
 62
     7
  6
CONTINUOUS
  0
LAYER
  2
117
 70
    64
 62
     7
  6
CONTINUOUS
  0
LAYER
  2
118
 70
    64
 62
     7
  6
CONTINUOUS
  0
LAYER
  2
119
 70
    64
 62
     7
  6
CONTINUOUS
  0
LAYER
  2
120
 70
    64
 62
     7
  6
CONTINUOUS
  0
LAYER
  2
121
 70
    64
 62
     7
  6
CONTINUOUS
  0
LAYER
  2
122
 70
    64
 62
     7
  6
CONTINUOUS
  0
LAYER
  2
123
 70
    64
 62
     7
  6
CONTINUOUS
  0
LAYER
  2
124
 70
    64
 62
     7
  6
CONTINUOUS
  0
LAYER
  2
125
 70
    64
 62
     7
  6
CONTINUOUS
  0
LAYER
  2
126
 70
    64
 62
     7
  6
CONTINUOUS
  0
LAYER
  2
127
 70
    64
 62
     7
  6
CONTINUOUS
  0
LAYER
  2
128
 70
    64
 62
     7
  6
CONTINUOUS
  0
LAYER
  2
129
 70
    64
 62
     7
  6
CONTINUOUS
  0
LAYER
  2
130
 70
    64
 62
     7
  6
CONTINUOUS
  0
LAYER
  2
131
 70
    64
 62
     7
  6
CONTINUOUS
  0
LAYER
  2
132
 70
    64
 62
     7
  6
CONTINUOUS
  0
LAYER
  2
133
 70
    64
 62
     7
  6
CONTINUOUS
  0
LAYER
  2
134
 70
    64
 62
     7
  6
CONTINUOUS
  0
LAYER
  2
135
 70
    64
 62
     7
  6
CONTINUOUS
  0
LAYER
  2
136
 70
    64
 62
     7
  6
CONTINUOUS
  0
LAYER
  2
137
 70
    64
 62
     7
  6
CONTINUOUS
  0
LAYER
  2
138
 70
    64
 62
     7
  6
CONTINUOUS
  0
LAYER
  2
139
 70
    64
 62
     7
  6
CONTINUOUS
  0
LAYER
  2
140
 70
    64
 62
     7
  6
CONTINUOUS
  0
LAYER
  2
141
 70
    64
 62
     7
  6
CONTINUOUS
  0
LAYER
  2
142
 70
    64
 62
     7
  6
CONTINUOUS
  0
LAYER
  2
143
 70
    64
 62
     7
  6
CONTINUOUS
  0
LAYER
  2
144
 70
    64
 62
     7
  6
CONTINUOUS
  0
LAYER
  2
145
 70
    64
 62
     7
  6
CONTINUOUS
  0
LAYER
  2
146
 70
    64
 62
     7
  6
CONTINUOUS
  0
LAYER
  2
147
 70
    64
 62
     7
  6
CONTINUOUS
  0
LAYER
  2
148
 70
    64
 62
     7
  6
CONTINUOUS
  0
LAYER
  2
149
 70
    64
 62
     7
  6
CONTINUOUS
  0
LAYER
  2
150
 70
    64
 62
     7
  6
CONTINUOUS
  0
LAYER
  2
151
 70
    64
 62
     7
  6
CONTINUOUS
  0
LAYER
  2
152
 70
    64
 62
     7
  6
CONTINUOUS
  0
LAYER
  2
153
 70
    64
 62
     7
  6
CONTINUOUS
  0
LAYER
  2
154
 70
    64
 62
     7
  6
CONTINUOUS
  0
LAYER
  2
155
 70
    64
 62
     7
  6
CONTINUOUS
  0
LAYER
  2
156
 70
    64
 62
     7
  6
CONTINUOUS
  0
LAYER
  2
157
 70
    64
 62
     7
  6
CONTINUOUS
  0
LAYER
  2
158
 70
    64
 62
     7
  6
CONTINUOUS
  0
LAYER
  2
159
 70
    64
 62
     7
  6
CONTINUOUS
  0
LAYER
  2
160
 70
    64
 62
     7
  6
CONTINUOUS
  0
LAYER
  2
161
 70
    64
 62
     7
  6
CONTINUOUS
  0
LAYER
  2
162
 70
    64
 62
     7
  6
CONTINUOUS
  0
LAYER
  2
163
 70
    64
 62
     7
  6
CONTINUOUS
  0
LAYER
  2
164
 70
    64
 62
     7
  6
CONTINUOUS
  0
LAYER
  2
165
 70
    64
 62
     7
  6
CONTINUOUS
  0
LAYER
  2
166
 70
    64
 62
     7
  6
CONTINUOUS
  0
LAYER
  2
167
 70
    64
 62
     7
  6
CONTINUOUS
  0
LAYER
  2
168
 70
    64
 62
     7
  6
CONTINUOUS
  0
LAYER
  2
169
 70
    64
 62
     7
  6
CONTINUOUS
  0
LAYER
  2
170
 70
    64
 62
     7
  6
CONTINUOUS
  0
LAYER
  2
171
 70
    64
 62
     7
  6
CONTINUOUS
  0
LAYER
  2
172
 70
    64
 62
     7
  6
CONTINUOUS
  0
LAYER
  2
173
 70
    64
 62
     7
  6
CONTINUOUS
  0
LAYER
  2
174
 70
    64
 62
     7
  6
CONTINUOUS
  0
LAYER
  2
175
 70
    64
 62
     7
  6
CONTINUOUS
  0
LAYER
  2
176
 70
    64
 62
     7
  6
CONTINUOUS
  0
LAYER
  2
177
 70
    64
 62
     7
  6
CONTINUOUS
  0
LAYER
  2
178
 70
    64
 62
     7
  6
CONTINUOUS
  0
LAYER
  2
179
 70
    64
 62
     7
  6
CONTINUOUS
  0
LAYER
  2
180
 70
    64
 62
     7
  6
CONTINUOUS
  0
LAYER
  2
181
 70
    64
 62
     7
  6
CONTINUOUS
  0
LAYER
  2
182
 70
    64
 62
     7
  6
CONTINUOUS
  0
LAYER
  2
183
 70
    64
 62
     7
  6
CONTINUOUS
  0
LAYER
  2
184
 70
    64
 62
     7
  6
CONTINUOUS
  0
LAYER
  2
185
 70
    64
 62
     7
  6
CONTINUOUS
  0
LAYER
  2
186
 70
    64
 62
     7
  6
CONTINUOUS
  0
LAYER
  2
187
 70
    64
 62
     7
  6
CONTINUOUS
  0
LAYER
  2
188
 70
    64
 62
     7
  6
CONTINUOUS
  0
LAYER
  2
189
 70
    64
 62
     7
  6
CONTINUOUS
  0
LAYER
  2
190
 70
    64
 62
     7
  6
CONTINUOUS
  0
LAYER
  2
191
 70
    64
 62
     7
  6
CONTINUOUS
  0
LAYER
  2
192
 70
    64
 62
     7
  6
CONTINUOUS
  0
LAYER
  2
193
 70
    64
 62
     7
  6
CONTINUOUS
  0
LAYER
  2
194
 70
    64
 62
     7
  6
CONTINUOUS
  0
LAYER
  2
195
 70
    64
 62
     7
  6
CONTINUOUS
  0
LAYER
  2
196
 70
    64
 62
     7
  6
CONTINUOUS
  0
LAYER
  2
197
 70
    64
 62
     7
  6
CONTINUOUS
  0
LAYER
  2
198
 70
    64
 62
     7
  6
CONTINUOUS
  0
LAYER
  2
199
 70
    64
 62
     7
  6
CONTINUOUS
  0
LAYER
  2
200
 70
    64
 62
     7
  6
CONTINUOUS
  0
LAYER
  2
201
 70
    64
 62
     7
  6
CONTINUOUS
  0
LAYER
  2
202
 70
    64
 62
     7
  6
CONTINUOUS
  0
LAYER
  2
203
 70
    64
 62
     7
  6
CONTINUOUS
  0
LAYER
  2
204
 70
    64
 62
     7
  6
CONTINUOUS
  0
LAYER
  2
205
 70
    64
 62
     7
  6
CONTINUOUS
  0
LAYER
  2
206
 70
    64
 62
     7
  6
CONTINUOUS
  0
LAYER
  2
207
 70
    64
 62
     7
  6
CONTINUOUS
  0
LAYER
  2
208
 70
    64
 62
     7
  6
CONTINUOUS
  0
LAYER
  2
209
 70
    64
 62
     7
  6
CONTINUOUS
  0
LAYER
  2
210
 70
    64
 62
     7
  6
CONTINUOUS
  0
LAYER
  2
211
 70
    64
 62
     7
  6
CONTINUOUS
  0
LAYER
  2
212
 70
    64
 62
     7
  6
CONTINUOUS
  0
LAYER
  2
213
 70
    64
 62
     7
  6
CONTINUOUS
  0
LAYER
  2
214
 70
    64
 62
     7
  6
CONTINUOUS
  0
LAYER
  2
215
 70
    64
 62
     7
  6
CONTINUOUS
  0
LAYER
  2
216
 70
    64
 62
     7
  6
CONTINUOUS
  0
LAYER
  2
217
 70
    64
 62
     7
  6
CONTINUOUS
  0
LAYER
  2
218
 70
    64
 62
     7
  6
CONTINUOUS
  0
LAYER
  2
219
 70
    64
 62
     7
  6
CONTINUOUS
  0
LAYER
  2
220
 70
    64
 62
     7
  6
CONTINUOUS
  0
LAYER
  2
221
 70
    64
 62
     7
  6
CONTINUOUS
  0
LAYER
  2
222
 70
    64
 62
     7
  6
CONTINUOUS
  0
LAYER
  2
223
 70
    64
 62
     7
  6
CONTINUOUS
  0
LAYER
  2
224
 70
    64
 62
     7
  6
CONTINUOUS
  0
LAYER
  2
225
 70
    64
 62
     7
  6
CONTINUOUS
  0
LAYER
  2
226
 70
    64
 62
     7
  6
CONTINUOUS
  0
LAYER
  2
227
 70
    64
 62
     7
  6
CONTINUOUS
  0
LAYER
  2
228
 70
    64
 62
     7
  6
CONTINUOUS
  0
LAYER
  2
229
 70
    64
 62
     7
  6
CONTINUOUS
  0
LAYER
  2
230
 70
    64
 62
     7
  6
CONTINUOUS
  0
LAYER
  2
231
 70
    64
 62
     7
  6
CONTINUOUS
  0
LAYER
  2
232
 70
    64
 62
     7
  6
CONTINUOUS
  0
LAYER
  2
233
 70
    64
 62
     7
  6
CONTINUOUS
  0
LAYER
  2
234
 70
    64
 62
     7
  6
CONTINUOUS
  0
LAYER
  2
235
 70
    64
 62
     7
  6
CONTINUOUS
  0
LAYER
  2
236
 70
    64
 62
     7
  6
CONTINUOUS
  0
LAYER
  2
237
 70
    64
 62
     7
  6
CONTINUOUS
  0
LAYER
  2
238
 70
    64
 62
     7
  6
CONTINUOUS
  0
LAYER
  2
239
 70
    64
 62
     7
  6
CONTINUOUS
  0
LAYER
  2
240
 70
    64
 62
     7
  6
CONTINUOUS
  0
LAYER
  2
241
 70
    64
 62
     7
  6
CONTINUOUS
  0
LAYER
  2
242
 70
    64
 62
     7
  6
CONTINUOUS
  0
LAYER
  2
243
 70
    64
 62
     7
  6
CONTINUOUS
  0
LAYER
  2
244
 70
    64
 62
     7
  6
CONTINUOUS
  0
LAYER
  2
245
 70
    64
 62
     7
  6
CONTINUOUS
  0
LAYER
  2
246
 70
    64
 62
     7
  6
CONTINUOUS
  0
LAYER
  2
247
 70
    64
 62
     7
  6
CONTINUOUS
  0
LAYER
  2
248
 70
    64
 62
     7
  6
CONTINUOUS
  0
LAYER
  2
249
 70
    64
 62
     7
  6
CONTINUOUS
  0
LAYER
  2
250
 70
    64
 62
     7
  6
CONTINUOUS
  0
LAYER
  2
251
 70
    64
 62
     7
  6
CONTINUOUS
  0
LAYER
  2
252
 70
    64
 62
     7
  6
CONTINUOUS
  0
LAYER
  2
253
 70
    64
 62
     7
  6
CONTINUOUS
  0
LAYER
  2
254
 70
    64
 62
     7
  6
CONTINUOUS
  0
LAYER
  2
255
 70
    64
 62
     7
  6
CONTINUOUS
  0
ENDTAB
  0
TABLE
  2
STYLE
 70
     2
  0
STYLE
  2
STANDARD
 70
    64
 40
0.0
 41
1.0
 50
0.0
 71
     0
 42
3.000000
  3
TXT
  4
BIGFONT
  0
ENDTAB
  0
ENDSEC
  0
SECTION
  2
BLOCKS
  0
BLOCK
  8
0
  2
CADWIN-G0
 70
    0
 10
0.0
 20
0.0
  0
LINE
  8
0
  6
CONTINUOUS
 62
     7
 10
-524.99999974843649
 20
 742.50000203029799
 11
 525.00000025156351
 21
 742.50000203029799
  0
LINE
  8
0
  6
CONTINUOUS
 62
     7
 10
 525.00000025156351
 20
 742.50000203029799
 11
 525.00000025156351
 21
-742.49999796970133
  0
LINE
  8
0
  6
CONTINUOUS
 62
     7
 10
 525.00000025156351
 20
-742.49999796970133
 11
-524.99999974843649
 21
-742.49999796970121
  0
LINE
  8
0
  6
CONTINUOUS
 62
     7
 10
-524.99999974843649
 20
-742.49999796970121
 11
-524.99999974843649
 21
 742.50000203029799
  0
ENDBLK
  8
0
  0
BLOCK
  8
0
  2
CADWIN-G1
 70
    0
 10
0.0
 20
0.0
  0
LINE
  8
AM_5
  6
CONTINUOUS
 62
     4
 10
-50.944571444333803
 20
 527.52134557153909
 11
-184.94457144433352
 21
 527.52134557153909
  0
LINE
  8
AM_5
  6
CONTINUOUS
 62
     4
 10
-56.94457144433369
 20
-440.47865442846091
 11
-184.94457144433369
 21
-440.47865442846091
  0
LINE
  8
AM_5
  6
CONTINUOUS
 62
     4
 10
-179.94457144433341
 20
 515.02134557153909
 11
-179.94457144433369
 21
-427.97865442846091
  0
LINE
  8
0
  6
CONTINUOUS
 62
     4
 10
-183.29393631933334
 20
 515.02134557153909
 11
-179.94457144433341
 21
 527.52134557153909
  0
LINE
  8
0
  6
CONTINUOUS
 62
     4
 10
-179.94457144433341
 20
 527.52134557153909
 11
-176.59520656933336
 21
 515.02134557153909
  0
LINE
  8
0
  6
CONTINUOUS
 62
     4
 10
-179.94457144433341
 20
 527.52134557153909
 11
-179.94457144433335
 21
 515.02134557153909
  0
ENDBLK
  8
0
  0
BLOCK
  8
0
  2
CADWIN-G2
 70
    0
 10
0.0
 20
0.0
  0
LINE
  8
0
  6
CONTINUOUS
 62
     4
 10
-176.59520656933381
 20
-427.97865442846086
 11
-179.94457144433369
 21
-440.47865442846091
  0
LINE
  8
0
  6
CONTINUOUS
 62
     4
 10
-179.94457144433369
 20
-440.47865442846091
 11
-183.2939363193338
 21
-427.97865442846097
  0
LINE
  8
0
  6
CONTINUOUS
 62
     4
 10
-179.94457144433369
 20
-440.47865442846091
 11
-179.9445714443338
 21
-427.97865442846091
  0
ENDBLK
  8
0
  0
BLOCK
  8
0
  2
CADWIN-G3
 70
    0
 10
0.0
 20
0.0
  0
LINE
  8
AM_5
  6
CONTINUOUS
 62
     4
 10
-56.94457144433369
 20
-440.47865442846091
 11
-134.94457144433369
 21
-440.47865442846091
  0
LINE
  8
AM_5
  6
CONTINUOUS
 62
     4
 10
-74.44457144433369
 20
-385.47865442846091
 11
-134.94457144433369
 21
-385.47865442846091
  0
LINE
  8
AM_5
  6
CONTINUOUS
 62
     4
 10
-129.94457144433369
 20
-427.97865442846091
 11
-129.94457144433369
 21
-397.97865442846091
  0
LINE
  8
0
  6
CONTINUOUS
 62
     4
 10
-126.59520656933381
 20
-427.97865442846086
 11
-129.94457144433369
 21
-440.47865442846091
  0
LINE
  8
0
  6
CONTINUOUS
 62
     4
 10
-129.94457144433369
 20
-440.47865442846091
 11
-133.2939363193338
 21
-427.97865442846097
  0
LINE
  8
0
  6
CONTINUOUS
 62
     4
 10
-129.94457144433369
 20
-440.47865442846091
 11
-129.9445714443338
 21
-427.97865442846091
  0
ENDBLK
  8
0
  0
BLOCK
  8
0
  2
CADWIN-G4
 70
    0
 10
0.0
 20
0.0
  0
LINE
  8
0
  6
CONTINUOUS
 62
     4
 10
-133.29393631933362
 20
-397.97865442846091
 11
-129.94457144433369
 21
-385.47865442846091
  0
LINE
  8
0
  6
CONTINUOUS
 62
     4
 10
-129.94457144433369
 20
-385.47865442846091
 11
-126.59520656933364
 21
-397.97865442846091
  0
LINE
  8
0
  6
CONTINUOUS
 62
     4
 10
-129.94457144433369
 20
-385.47865442846091
 11
-129.94457144433363
 21
-397.97865442846091
  0
ENDBLK
  8
0
  0
BLOCK
  8
0
  2
CADWIN-G5
 70
    0
 10
0.0
 20
0.0
  0
LINE
  8
AM_5
  6
CONTINUOUS
 62
     4
 10
-74.44457144433369
 20
-385.47865442846091
 11
-134.94457144433369
 21
-385.47865442846091
  0
LINE
  8
AM_5
  6
CONTINUOUS
 62
     4
 10
-74.44457144433369
 20
-355.47865442846091
 11
-134.94457144433369
 21
-355.47865442846091
  0
LINE
  8
AM_5
  6
CONTINUOUS
 62
     4
 10
-129.94457144433369
 20
-397.97865442846091
 11
-129.94457144433369
 21
-410.47865442846091
  0
LINE
  8
AM_5
  6
CONTINUOUS
 62
     4
 10
-129.94457144433369
 20
-342.97865442846091
 11
-129.94457144433369
 21
-330.47865442846091
  0
LINE
  8
AM_5
  6
CONTINUOUS
 62
     4
 10
-129.94457144433369
 20
-385.47865442846091
 11
-129.94457144433369
 21
-355.47865442846091
  0
LINE
  8
0
  6
CONTINUOUS
 62
     4
 10
-133.29393631933362
 20
-397.97865442846091
 11
-129.94457144433369
 21
-385.47865442846091
  0
LINE
  8
0
  6
CONTINUOUS
 62
     4
 10
-129.94457144433369
 20
-385.47865442846091
 11
-126.59520656933364
 21
-397.97865442846091
  0
LINE
  8
0
  6
CONTINUOUS
 62
     4
 10
-129.94457144433369
 20
-385.47865442846091
 11
-129.94457144433363
 21
-397.97865442846091
  0
ENDBLK
  8
0
  0
BLOCK
  8
0
  2
CADWIN-G6
 70
    0
 10
0.0
 20
0.0
  0
LINE
  8
0
  6
CONTINUOUS
 62
     4
 10
-126.59520656933381
 20
-342.97865442846086
 11
-129.94457144433369
 21
-355.47865442846091
  0
LINE
  8
0
  6
CONTINUOUS
 62
     4
 10
-129.94457144433369
 20
-355.47865442846091
 11
-133.2939363193338
 21
-342.97865442846097
  0
LINE
  8
0
  6
CONTINUOUS
 62
     4
 10
-129.94457144433369
 20
-355.47865442846091
 11
-129.9445714443338
 21
-342.97865442846091
  0
ENDBLK
  8
0
  0
BLOCK
  8
0
  2
CADWIN-G7
 70
    0
 10
0.0
 20
0.0
  0
LINE
  8
AM_5
  6
CONTINUOUS
 62
     4
 10
-74.44457144433369
 20
-355.47865442846091
 11
-134.94457144433369
 21
-355.47865442846091
  0
LINE
  8
AM_5
  6
CONTINUOUS
 62
     4
 10
-74.94457144433369
 20
 134.52134557153909
 11
-134.94457144433369
 21
 134.52134557153909
  0
LINE
  8
AM_5
  6
CONTINUOUS
 62
     4
 10
-129.94457144433369
 20
-342.97865442846091
 11
-129.94457144433369
 21
 122.02134557153909
  0
LINE
  8
0
  6
CONTINUOUS
 62
     4
 10
-126.59520656933381
 20
-342.97865442846086
 11
-129.94457144433369
 21
-355.47865442846091
  0
LINE
  8
0
  6
CONTINUOUS
 62
     4
 10
-129.94457144433369
 20
-355.47865442846091
 11
-133.2939363193338
 21
-342.97865442846097
  0
LINE
  8
0
  6
CONTINUOUS
 62
     4
 10
-129.94457144433369
 20
-355.47865442846091
 11
-129.9445714443338
 21
-342.97865442846091
  0
ENDBLK
  8
0
  0
BLOCK
  8
0
  2
CADWIN-G8
 70
    0
 10
0.0
 20
0.0
  0
LINE
  8
0
  6
CONTINUOUS
 62
     4
 10
-133.29393631933362
 20
 122.02134557153909
 11
-129.94457144433369
 21
 134.52134557153909
  0
LINE
  8
0
  6
CONTINUOUS
 62
     4
 10
-129.94457144433369
 20
 134.52134557153909
 11
-126.59520656933364
 21
 122.02134557153909
  0
LINE
  8
0
  6
CONTINUOUS
 62
     4
 10
-129.94457144433369
 20
 134.52134557153909
 11
-129.94457144433363
 21
 122.02134557153909
  0
ENDBLK
  8
0
  0
BLOCK
  8
0
  2
CADWIN-G9
 70
    0
 10
0.0
 20
0.0
  0
LINE
  8
AM_5
  6
CONTINUOUS
 62
     4
 10
-74.94457144433369
 20
 134.52134557153909
 11
-134.94457144433369
 21
 134.52134557153909
  0
LINE
  8
AM_5
  6
CONTINUOUS
 62
     4
 10
-74.94457144433369
 20
 164.52134557153897
 11
-134.94457144433369
 21
 164.52134557153897
  0
LINE
  8
AM_5
  6
CONTINUOUS
 62
     4
 10
-129.94457144433369
 20
 122.02134557153909
 11
-129.94457144433369
 21
 109.52134557153909
  0
LINE
  8
AM_5
  6
CONTINUOUS
 62
     4
 10
-129.94457144433369
 20
 177.02134557153897
 11
-129.94457144433369
 21
 189.52134557153897
  0
LINE
  8
AM_5
  6
CONTINUOUS
 62
     4
 10
-129.94457144433369
 20
 134.52134557153909
 11
-129.94457144433369
 21
 164.52134557153897
  0
LINE
  8
0
  6
CONTINUOUS
 62
     4
 10
-133.29393631933362
 20
 122.02134557153909
 11
-129.94457144433369
 21
 134.52134557153909
  0
LINE
  8
0
  6
CONTINUOUS
 62
     4
 10
-129.94457144433369
 20
 134.52134557153909
 11
-126.59520656933364
 21
 122.02134557153909
  0
LINE
  8
0
  6
CONTINUOUS
 62
     4
 10
-129.94457144433369
 20
 134.52134557153909
 11
-129.94457144433363
 21
 122.02134557153909
  0
ENDBLK
  8
0
  0
BLOCK
  8
0
  2
CADWIN-G10
 70
    0
 10
0.0
 20
0.0
  0
LINE
  8
0
  6
CONTINUOUS
 62
     4
 10
-126.59520656933381
 20
 177.02134557153897
 11
-129.94457144433369
 21
 164.52134557153897
  0
LINE
  8
0
  6
CONTINUOUS
 62
     4
 10
-129.94457144433369
 20
 164.52134557153897
 11
-133.2939363193338
 21
 177.02134557153897
  0
LINE
  8
0
  6
CONTINUOUS
 62
     4
 10
-129.94457144433369
 20
 164.52134557153897
 11
-129.9445714443338
 21
 177.02134557153897
  0
ENDBLK
  8
0
  0
BLOCK
  8
0
  2
CADWIN-G11
 70
    0
 10
0.0
 20
0.0
  0
LINE
  8
AM_5
  6
CONTINUOUS
 62
     4
 10
-74.94457144433369
 20
 164.52134557153897
 11
-134.94457144433369
 21
 164.52134557153897
  0
LINE
  8
AM_5
  6
CONTINUOUS
 62
     4
 10
-64.94457144433369
 20
 188.52134557153897
 11
-134.94457144433369
 21
 188.52134557153897
  0
LINE
  8
AM_5
  6
CONTINUOUS
 62
     4
 10
-129.94457144433369
 20
 152.02134557153897
 11
-129.94457144433369
 21
 139.52134557153897
  0
LINE
  8
AM_5
  6
CONTINUOUS
 62
     4
 10
-129.94457144433369
 20
 201.02134557153897
 11
-129.94457144433369
 21
 249.96573533531875
  0
LINE
  8
AM_5
  6
CONTINUOUS
 62
     4
 10
-129.94457144433369
 20
 164.52134557153897
 11
-129.94457144433369
 21
 188.52134557153897
  0
LINE
  8
0
  6
CONTINUOUS
 62
     4
 10
-133.29393631933362
 20
 152.02134557153897
 11
-129.94457144433369
 21
 164.52134557153897
  0
LINE
  8
0
  6
CONTINUOUS
 62
     4
 10
-129.94457144433369
 20
 164.52134557153897
 11
-126.59520656933364
 21
 152.02134557153897
  0
LINE
  8
0
  6
CONTINUOUS
 62
     4
 10
-129.94457144433369
 20
 164.52134557153897
 11
-129.94457144433363
 21
 152.02134557153897
  0
ENDBLK
  8
0
  0
BLOCK
  8
0
  2
CADWIN-G12
 70
    0
 10
0.0
 20
0.0
  0
LINE
  8
0
  6
CONTINUOUS
 62
     4
 10
-126.59520656933381
 20
 201.02134557153897
 11
-129.94457144433369
 21
 188.52134557153897
  0
LINE
  8
0
  6
CONTINUOUS
 62
     4
 10
-129.94457144433369
 20
 188.52134557153897
 11
-133.2939363193338
 21
 201.02134557153897
  0
LINE
  8
0
  6
CONTINUOUS
 62
     4
 10
-129.94457144433369
 20
 188.52134557153897
 11
-129.9445714443338
 21
 201.02134557153897
  0
ENDBLK
  8
0
  0
BLOCK
  8
0
  2
CADWIN-G13
 70
    0
 10
0.0
 20
0.0
  0
LINE
  8
AM_5
  6
CONTINUOUS
 62
     4
 10
-66.444571444334031
 20
-406.47865442846091
 11
-66.444571444334031
 21
-505.47865442846091
  0
LINE
  8
AM_5
  6
CONTINUOUS
 62
     4
 10
-31.44457144433369
 20
-413.47865442846091
 11
-31.44457144433369
 21
-505.47865442846091
  0
LINE
  8
AM_5
  6
CONTINUOUS
 62
     4
 10
-78.944571444334031
 20
-500.47865442846091
 11
-91.444571444334031
 21
-500.47865442846091
  0
LINE
  8
AM_5
  6
CONTINUOUS
 62
     4
 10
-18.94457144433369
 20
-500.47865442846091
 11
-6.4445714443336328
 21
-500.47865442846091
  0
LINE
  8
AM_5
  6
CONTINUOUS
 62
     4
 10
-66.444571444334031
 20
-500.47865442846091
 11
-31.44457144433369
 21
-500.47865442846091
  0
LINE
  8
0
  6
CONTINUOUS
 62
     4
 10
-78.944571444334031
 20
-497.12928955346092
 11
-66.444571444334031
 21
-500.47865442846091
  0
LINE
  8
0
  6
CONTINUOUS
 62
     4
 10
-66.444571444334031
 20
-500.47865442846091
 11
-78.944571444334031
 21
-503.82801930346091
  0
LINE
  8
0
  6
CONTINUOUS
 62
     4
 10
-66.444571444334031
 20
-500.47865442846091
 11
-78.944571444334031
 21
-500.47865442846091
  0
ENDBLK
  8
0
  0
BLOCK
  8
0
  2
CADWIN-G14
 70
    0
 10
0.0
 20
0.0
  0
LINE
  8
0
  6
CONTINUOUS
 62
     4
 10
-18.94457144433369
 20
-503.82801930346079
 11
-31.44457144433369
 21
-500.47865442846091
  0
LINE
  8
0
  6
CONTINUOUS
 62
     4
 10
-31.44457144433369
 20
-500.47865442846091
 11
-18.94457144433369
 21
-497.12928955346081
  0
LINE
  8
0
  6
CONTINUOUS
 62
     4
 10
-31.44457144433369
 20
-500.47865442846091
 11
-18.94457144433369
 21
-500.4786544284608
  0
ENDBLK
  8
0
  0
BLOCK
  8
0
  2
CADWIN-G15
 70
    0
 10
0.0
 20
0.0
  0
LINE
  8
AM_5
  6
CONTINUOUS
 62
     4
 10
 155.92142093366647
 20
-413.47865442846091
 11
 155.92142093366647
 21
-505.47865442846091
  0
LINE
  8
AM_5
  6
CONTINUOUS
 62
     4
 10
 184.92142093366601
 20
-413.47865442846091
 11
 184.92142093366601
 21
-505.47865442846091
  0
LINE
  8
AM_5
  6
CONTINUOUS
 62
     4
 10
 143.42142093366647
 20
-500.47865442846091
 11
 130.92142093366647
 21
-500.47865442846091
  0
LINE
  8
AM_5
  6
CONTINUOUS
 62
     4
 10
 197.42142093366601
 20
-500.47865442846091
 11
 245.86869657997624
 21
-500.47865442846091
  0
LINE
  8
AM_5
  6
CONTINUOUS
 62
     4
 10
 155.92142093366647
 20
-500.47865442846091
 11
 184.92142093366601
 21
-500.47865442846091
  0
LINE
  8
0
  6
CONTINUOUS
 62
     4
 10
 143.42142093366647
 20
-497.12928955346092
 11
 155.92142093366647
 21
-500.47865442846091
  0
LINE
  8
0
  6
CONTINUOUS
 62
     4
 10
 155.92142093366647
 20
-500.47865442846091
 11
 143.42142093366647
 21
-503.82801930346091
  0
LINE
  8
0
  6
CONTINUOUS
 62
     4
 10
 155.92142093366647
 20
-500.47865442846091
 11
 143.42142093366647
 21
-500.47865442846091
  0
ENDBLK
  8
0
  0
BLOCK
  8
0
  2
CADWIN-G16
 70
    0
 10
0.0
 20
0.0
  0
LINE
  8
0
  6
CONTINUOUS
 62
     4
 10
 197.42142093366601
 20
-503.82801930346079
 11
 184.92142093366601
 21
-500.47865442846091
  0
LINE
  8
0
  6
CONTINUOUS
 62
     4
 10
 184.92142093366601
 20
-500.47865442846091
 11
 197.42142093366601
 21
-497.12928955346081
  0
LINE
  8
0
  6
CONTINUOUS
 62
     4
 10
 184.92142093366601
 20
-500.47865442846091
 11
 197.42142093366601
 21
-500.4786544284608
  0
ENDBLK
  8
0
  0
BLOCK
  8
0
  2
CADWIN-G17
 70
    0
 10
0.0
 20
0.0
  0
LINE
  8
AM_5
  6
CONTINUOUS
 62
     4
 10
 162.42142093366601
 20
 321.39632026483105
 11
 162.42142093366601
 21
 259.14699586683105
  0
LINE
  8
AM_5
  6
CONTINUOUS
 62
     4
 10
 178.42142093366635
 20
 321.39632026483105
 11
 178.42142093366635
 21
 259.14699586683105
  0
LINE
  8
AM_5
  6
CONTINUOUS
 62
     4
 10
 149.92142093366601
 20
 264.14699586683105
 11
 137.42142093366601
 21
 264.14699586683105
  0
LINE
  8
AM_5
  6
CONTINUOUS
 62
     4
 10
 190.92142093366635
 20
 264.14699586683105
 11
 273.54676492671683
 21
 264.14699586683105
  0
LINE
  8
AM_5
  6
CONTINUOUS
 62
     4
 10
 162.42142093366601
 20
 264.14699586683105
 11
 178.42142093366635
 21
 264.14699586683105
  0
LINE
  8
0
  6
CONTINUOUS
 62
     4
 10
 149.92142093366601
 20
 267.49636074183104
 11
 162.42142093366601
 21
 264.14699586683105
  0
LINE
  8
0
  6
CONTINUOUS
 62
     4
 10
 162.42142093366601
 20
 264.14699586683105
 11
 149.92142093366601
 21
 260.79763099183106
  0
LINE
  8
0
  6
CONTINUOUS
 62
     4
 10
 162.42142093366601
 20
 264.14699586683105
 11
 149.92142093366601
 21
 264.14699586683105
  0
ENDBLK
  8
0
  0
BLOCK
  8
0
  2
CADWIN-G18
 70
    0
 10
0.0
 20
0.0
  0
LINE
  8
0
  6
CONTINUOUS
 62
     4
 10
 190.92142093366635
 20
 260.79763099183117
 11
 178.42142093366635
 21
 264.14699586683105
  0
LINE
  8
0
  6
CONTINUOUS
 62
     4
 10
 178.42142093366635
 20
 264.14699586683105
 11
 190.92142093366635
 21
 267.49636074183115
  0
LINE
  8
0
  6
CONTINUOUS
 62
     4
 10
 178.42142093366635
 20
 264.14699586683105
 11
 190.92142093366635
 21
 264.14699586683116
  0
ENDBLK
  8
0
  0
BLOCK
  8
0
  2
CADWIN-G19
 70
    0
 10
0.0
 20
0.0
  0
LINE
  8
0
  6
CONTINUOUS
 62
     7
 10
 162.42142093366601
 20
 172.62134557153931
 11
 162.42142093366601
 21
 162.42134557153932
  0
LINE
  8
0
  6
CONTINUOUS
 62
     7
 10
 162.42142093366601
 20
 172.62134557153931
 11
 161.1626989918783
 21
 172.55537874983534
  0
LINE
  8
0
  6
CONTINUOUS
 62
     7
 10
 159.121420933666
 20
 167.52134557153931
 11
 160.77142093366601
 21
 167.52134557153931
  0
LINE
  8
0
  6
DOTS
 62
     7
 10
 162.42142093366601
 20
 169.7213455715393
 11
 172.42142093366601
 21
 169.7213455715393
  0
LINE
  8
0
  6
DOTS
 62
     7
 10
 162.42142093366601
 20
 165.32134557153933
 11
 172.42142093366601
 21
 165.32134557153933
  0
LINE
  8
0
  6
DOTS
 62
     7
 10
 162.42142093366601
 20
 170.02134557153931
 11
 172.42142093366601
 21
 170.02134557153931
  0
LINE
  8
0
  6
DOTS
 62
     7
 10
 162.42142093366601
 20
 165.02134557153931
 11
 172.42142093366601
 21
 165.02134557153931
  0
LINE
  8
0
  6
DOTS
 62
     7
 10
 172.42142093366601
 20
 170.02134557153931
 11
 172.42142093366601
 21
 165.02134557153931
  0
ARC
  8
0
  6
CONTINUOUS
 62
     7
 10
 171.32142093366602
 20
 167.52134557153931
 40
 12
 50
 159.19703724105747
 51
-159.19703724105747
  0
ARC
  8
0
  6
CONTINUOUS
 62
     7
 10
 161.22550213936984
 20
 171.35702330812984
 40
 1.2
 50
 93.000001586409127
 51
 159.1970372410639
  0
ARC
  8
0
  6
CONTINUOUS
 62
     7
 10
 161.22550213936984
 20
 163.68566783494879
 40
 1.2
 50
-159.19703724106392
 51
-93.000001586409127
  0
LINE
  8
0
  6
CONTINUOUS
 62
     7
 10
 162.42142093366601
 20
 162.42134557153932
 11
 161.1626989918783
 21
 162.48731239324329
  0
ENDBLK
  8
0
  0
ENDSEC
  0
SECTION
  2
ENTITIES
  0
INSERT
  8
0
  2
CADWIN-G0
 10
0.0
 20
0.0
  0
LINE
  8
0
  6
CONTINUOUS
 62
     7
 10
-168.83523169493679
 20
-628.08122651720134
 11
-168.83523169493679
 21
-692.49999796970133
  0
LINE
  8
0
  6
CONTINUOUS
 62
     7
 10
-168.83523169493679
 20
-692.49999796970133
 11
 475.00000025156351
 21
-692.49999796970133
  0
LINE
  8
0
  6
CONTINUOUS
 62
     7
 10
 475.00000025156351
 20
-692.49999796970133
 11
 475.00000025156351
 21
-628.08122651720134
  0
LINE
  8
0
  6
CONTINUOUS
 62
     7
 10
 475.00000025156351
 20
-628.08122651720134
 11
-168.83523169493679
 21
-628.08122651720134
  0
LINE
  8
0
  6
CONTINUOUS
 62
     7
 10
-94.424984811936213
 20
-628.08122651720134
 11
-94.424984811936213
 21
-692.49999796970133
  0
LINE
  8
0
  6
CONTINUOUS
 62
     7
 10
 12.247736714563757
 20
-628.08122651720134
 11
 12.247736714563757
 21
-692.49999796970133
  0
LINE
  8
0
  6
CONTINUOUS
 62
     7
 10
 360.79778635856394
 20
-628.08122651720134
 11
 360.79778635856394
 21
-692.49999796970133
  0
LINE
  8
0
  6
CONTINUOUS
 62
     7
 10
-168.83523169493679
 20
-654.10273819420149
 11
 475.00000025156351
 21
-654.10273819420149
  0
TEXT
  8
0
  6
CONTINUOUS
 62
     7
 10
-156.40716033226036
 20
-650.45343763535561
 11
-103.90716033226036
 21
-650.45343763535561
 40
 17.5
 41
 1
  1
NO.
 50
 0
 72
  5
  0
TEXT
  8
0
  6
CONTINUOUS
 62
     7
 10
-53.457689289259662
 20
-650.45343763535561
 11
-18.457689289259662
 21
-650.45343763535561
 40
 17.5
 41
 1
  1
品番
 50
 0
 72
  5
  0
TEXT
  8
0
  6
CONTINUOUS
 62
     7
 10
 156.65369629623964
 20
-650.45343763535561
 11
 191.65369629623964
 21
-650.45343763535561
 40
 17.5
 41
 1
  1
品名
 50
 0
 72
  5
  0
TEXT
  8
0
  6
CONTINUOUS
 62
     7
 10
 367.66177309024124
 20
-650.45343763535561
 11
 437.66177309024124
 21
-650.45343763535561
 40
 17.5
 41
 1
  1
管理番号
 50
 0
 72
  5
  0
TEXT
  8
0
  6
CONTINUOUS
 62
     7
 10
-86.413993831201921
 20
-682.99412030690041
 11
 1.0860061687980789
 21
-682.99412030690041
 40
 17.5
 41
 1
  1
MR-29
 50
 0
 72
  5
  0
TEXT
  8
0
  6
CONTINUOUS
 62
     7
 10
 40.678861131246272
 20
-682.38014516215424
 11
 145.67886113124626
 21
-682.38014516215424
 40
 17.5
 41
 1
  1
丸落しロング
 50
 0
 72
  5
  0
TEXT
  8
0
  6
CONTINUOUS
 62
     7
 10
 377.66553668429879
 20
-682.99412030690041
 11
 465.16553668429879
 21
-682.99412030690041
 40
 17.5
 41
 1
  1
56592
 50
 0
 72
  5
  0
LINE
  8
0
  6
CONTINUOUS
 62
     7
 10
-53.94457144433369
 20
 519.52134557153909
 11
-53.94457144433369
 21
 499.52134557153909
  0
LINE
  8
0
  6
CONTINUOUS
 62
     7
 10
-37.944571444333803
 20
 499.52134557153909
 11
-37.944571444333803
 21
 519.52134557153909
  0
LINE
  8
0
  6
CONTINUOUS
 62
     7
 10
-53.94457144433369
 20
-438.47865442846091
 11
-51.94457144433369
 21
-440.47865442846091
  0
LINE
  8
0
  6
CONTINUOUS
 62
     7
 10
-39.94457144433369
 20
-440.47865442846091
 11
-37.944571444333803
 21
-438.47865442846091
  0
LINE
  8
0
  6
CONTINUOUS
 62
     7
 10
-37.944571444333803
 20
-438.47865442846091
 11
-37.944571444333803
 21
-408.47865442846091
  0
LINE
  8
0
  6
CONTINUOUS
 62
     7
 10
-37.944571444333803
 20
-403.47865442846091
 11
-37.944571444333803
 21
 183.52134557153931
  0
LINE
  8
0
  6
CONTINUOUS
 62
     7
 10
-37.944571444333803
 20
 188.52134557153897
 11
-37.944571444333803
 21
 499.52134557153909
  0
LINE
  8
0
  6
CONTINUOUS
 62
     7
 10
-53.94457144433369
 20
 499.52134557153909
 11
-53.94457144433369
 21
 188.52134557153897
  0
LINE
  8
0
  6
CONTINUOUS
 62
     7
 10
-53.94457144433369
 20
 183.52134557153931
 11
-53.94457144433369
 21
-403.47865442846091
  0
LINE
  8
0
  6
CONTINUOUS
 62
     7
 10
-53.94457144433369
 20
-408.47865442846091
 11
-53.94457144433369
 21
-438.47865442846091
  0
LINE
  8
0
  6
CONTINUOUS
 62
     7
 10
-31.44457144433369
 20
-403.47865442846091
 11
-31.44457144433369
 21
-408.47865442846091
  0
LINE
  8
0
  6
CONTINUOUS
 62
     7
 10
-31.44457144433369
 20
-408.47865442846091
 11
-36.44457144433369
 21
-408.47865442846091
  0
LINE
  8
0
  6
CONTINUOUS
 62
     7
 10
-31.44457144433369
 20
-403.47865442846091
 11
-36.44457144433369
 21
-403.47865442846091
  0
LINE
  8
0
  6
CONTINUOUS
 62
     7
 10
-57.918616875333726
 20
-403.47865442846091
 11
-57.918616875333726
 21
-408.47865442846091
  0
LINE
  8
0
  6
CONTINUOUS
 62
     7
 10
-56.035133052333492
 20
-408.47865442846091
 11
-57.918616875333726
 21
-408.47865442846091
  0
LINE
  8
0
  6
CONTINUOUS
 62
     7
 10
-56.035133052333492
 20
-403.47865442846091
 11
-57.918616875333726
 21
-403.47865442846091
  0
LINE
  8
0
  6
CONTINUOUS
 62
     7
 10
-36.44457144433369
 20
-408.47865442846091
 11
-56.035133052333492
 21
-408.47865442846091
  0
LINE
  8
0
  6
CONTINUOUS
 62
     7
 10
-36.44457144433369
 20
-403.47865442846091
 11
-56.035133052333492
 21
-403.47865442846091
  0
LINE
  8
0
  6
CONTINUOUS
 62
     7
 10
-57.918616875333726
 20
-408.47865442846091
 11
-59.328055267334207
 21
-408.47865442846091
  0
LINE
  8
0
  6
CONTINUOUS
 62
     7
 10
-57.918616875333726
 20
-403.47865442846091
 11
-59.328055267334207
 21
-403.47865442846091
  0
LINE
  8
0
  6
CONTINUOUS
 62
     7
 10
-59.328055267334207
 20
-408.47865442846091
 11
-59.414339955334128
 21
-408.47865442846091
  0
LINE
  8
0
  6
CONTINUOUS
 62
     7
 10
-59.328055267334207
 20
-403.47865442846091
 11
-59.414339955334128
 21
-403.47865442846091
  0
LINE
  8
0
  6
CONTINUOUS
 62
     7
 10
-66.44457144433369
 20
-346.47865442846091
 11
-66.44457144433369
 21
-342.47865442846097
  0
LINE
  8
0
  6
CONTINUOUS
 62
     7
 10
-66.44457144433369
 20
-342.47865442846097
 11
-61.44457144433369
 21
-342.47865442846097
  0
LINE
  8
0
  6
CONTINUOUS
 62
     7
 10
-61.44457144433369
 20
-342.47865442846097
 11
-61.44457144433369
 21
-346.47865442846091
  0
ARC
  8
0
  6
CONTINUOUS
 62
     7
 10
-59.444571444333803
 20
-401.47865442846091
 40
 7.0000000000001696
 50
-180.00000307046864
 51
-90.00000153523392
  0
ARC
  8
0
  6
CONTINUOUS
 62
     7
 10
-59.444571444333803
 20
-401.47865442846091
 40
 2.0000000000001701
 50
-180.00000307046864
 51
-90.00000153523392
  0
LINE
  8
0
  6
CONTINUOUS
 62
     7
 10
-66.44457144433369
 20
-346.47865442846091
 11
-66.44457144433369
 21
-401.47865442846091
  0
LINE
  8
0
  6
CONTINUOUS
 62
     7
 10
-61.44457144433369
 20
-401.47865442846091
 11
-61.44457144433369
 21
-346.47865442846091
  0
LINE
  8
0
  6
CONTINUOUS
 62
     7
 10
-59.444571444333803
 20
-408.47865442846091
 11
-59.414339955334128
 21
-408.47865442846091
  0
LINE
  8
0
  6
CONTINUOUS
 62
     7
 10
-59.414339955334128
 20
-403.47865442846091
 11
-59.444571444333803
 21
-403.47865442846091
  0
LINE
  8
0
  6
CONTINUOUS
 62
     7
 10
-56.535133052334231
 20
 188.52134557153897
 11
-47.94457144433369
 21
 188.52134557153897
  0
LINE
  8
0
  6
CONTINUOUS
 62
     7
 10
-43.94457144433369
 20
 188.52134557153897
 11
-36.94457144433369
 21
 188.52134557153897
  0
LINE
  8
0
  6
CONTINUOUS
 62
     7
 10
-56.535133052334231
 20
 183.52134557153931
 11
-47.94457144433369
 21
 183.52134557153931
  0
LINE
  8
0
  6
CONTINUOUS
 62
     7
 10
-43.94457144433369
 20
 183.52134557153931
 11
-36.94457144433369
 21
 183.52134557153931
  0
LINE
  8
0
  6
CONTINUOUS
 62
     7
 10
-58.41861687533418
 20
 183.52134557153931
 11
-58.41861687533418
 21
 188.52134557153897
  0
LINE
  8
0
  6
CONTINUOUS
 62
     7
 10
-58.41861687533418
 20
 188.52134557153897
 11
-56.535133052334231
 21
 188.52134557153897
  0
LINE
  8
0
  6
CONTINUOUS
 62
     7
 10
-58.41861687533418
 20
 183.52134557153931
 11
-56.535133052334231
 21
 183.52134557153931
  0
LINE
  8
0
  6
CONTINUOUS
 62
     7
 10
-31.94457144433369
 20
 183.52134557153931
 11
-31.94457144433369
 21
 188.52134557153897
  0
LINE
  8
0
  6
CONTINUOUS
 62
     7
 10
-36.94457144433369
 20
 188.52134557153897
 11
-31.94457144433369
 21
 188.52134557153897
  0
LINE
  8
0
  6
CONTINUOUS
 62
     7
 10
-36.94457144433369
 20
 183.52134557153931
 11
-31.94457144433369
 21
 183.52134557153931
  0
LINE
  8
0
  6
CONTINUOUS
 62
     7
 10
-59.914339955333219
 20
 188.52134557153897
 11
-58.41861687533418
 21
 188.52134557153897
  0
LINE
  8
0
  6
CONTINUOUS
 62
     7
 10
-59.914339955333219
 20
 183.52134557153931
 11
-58.41861687533418
 21
 183.52134557153931
  0
ARC
  8
0
  6
CONTINUOUS
 62
     7
 10
-59.94457144433369
 20
 181.52134557153897
 40
 7.0000000000001696
 50
 90.000001535234716
 51
-180.00000307046864
  0
ARC
  8
0
  6
CONTINUOUS
 62
     7
 10
-59.94457144433369
 20
 181.52134557153897
 40
 2.0000000000001701
 50
 90.000001535234716
 51
-180.00000307046864
  0
LINE
  8
0
  6
CONTINUOUS
 62
     7
 10
-59.94457144433369
 20
 188.52134557153897
 11
-59.914339955333219
 21
 188.52134557153897
  0
LINE
  8
0
  6
CONTINUOUS
 62
     7
 10
-59.914339955333219
 20
 183.52134557153931
 11
-59.94457144433369
 21
 183.52134557153931
  0
LINE
  8
0
  6
CONTINUOUS
 62
     7
 10
-61.94457144433369
 20
 122.52134557153897
 11
-66.94457144433369
 21
 122.52134557153897
  0
LINE
  8
0
  6
CONTINUOUS
 62
     7
 10
-66.94457144433369
 20
 122.52134557153897
 11
-66.94457144433369
 21
 181.52134557153897
  0
LINE
  8
0
  6
CONTINUOUS
 62
     7
 10
-61.94457144433369
 20
 181.52134557153897
 11
-61.94457144433369
 21
 122.52134557153897
  0
CIRCLE
  8
0
  6
CONTINUOUS
 62
     7
 10
-45.94457144433369
 20
 519.52134557153909
 40
 6.9999999999998863
  0
CIRCLE
  8
0
  6
CONTINUOUS
 62
     7
 10
-45.94457144433369
 20
 519.52134557153909
 40
 8.0000000000001101
  0
LINE
  8
0
  6
CONTINUOUS
 62
     7
 10
-47.94457144433369
 20
 200.52134557153931
 11
-43.94457144433369
 21
 200.52134557153931
  0
LINE
  8
0
  6
CONTINUOUS
 62
     7
 10
-47.94457144433369
 20
 200.52134557153931
 11
-47.94457144433369
 21
 194.5213455715392
  0
LINE
  8
0
  6
CONTINUOUS
 62
     7
 10
-43.94457144433369
 20
 200.52134557153931
 11
-43.94457144433369
 21
 194.5213455715392
  0
LINE
  8
0
  6
CONTINUOUS
 62
     7
 10
-47.94457144433369
 20
 194.5213455715392
 11
-47.94457144433369
 21
 181.52134557153897
  0
LINE
  8
0
  6
CONTINUOUS
 62
     7
 10
-43.94457144433369
 20
 194.5213455715392
 11
-43.94457144433369
 21
 181.52134557153897
  0
LINE
  8
0
  6
CONTINUOUS
 62
     7
 10
-47.94457144433369
 20
 178.52134557153886
 11
-43.94457144433369
 21
 178.52134557153886
  0
LINE
  8
0
  6
CONTINUOUS
 62
     7
 10
-47.94457144433369
 20
 181.52134557153897
 11
-47.94457144433369
 21
 178.52134557153886
  0
LINE
  8
0
  6
CONTINUOUS
 62
     7
 10
-43.94457144433369
 20
 181.52134557153897
 11
-43.94457144433369
 21
 178.52134557153886
  0
LINE
  8
0
  6
CONTINUOUS
 62
     7
 10
-45.94457144433369
 20
-438.47865442846091
 11
-37.944571444333803
 21
-438.47865442846091
  0
LINE
  8
0
  6
CONTINUOUS
 62
     7
 10
-53.94457144433369
 20
-438.47865442846091
 11
-45.94457144433369
 21
-438.47865442846091
  0
LINE
  8
0
  6
CONTINUOUS
 62
     7
 10
-45.94457144433369
 20
-440.47865442846091
 11
-51.94457144433369
 21
-440.47865442846091
  0
LINE
  8
0
  6
CONTINUOUS
 62
     7
 10
-39.94457144433369
 20
-440.47865442846091
 11
-45.94457144433369
 21
-440.47865442846091
  0
LINE
  8
0
  6
CONTINUOUS
 62
     7
 10
 178.42142093366635
 20
-438.47865442846091
 11
 178.42142093366635
 21
-408.47865442846091
  0
LINE
  8
0
  6
CONTINUOUS
 62
     7
 10
 178.42142093366635
 20
-403.47865442846091
 11
 178.42142093366635
 21
 186.52134557153886
  0
LINE
  8
0
  6
CONTINUOUS
 62
     7
 10
 178.42142093366635
 20
 191.52134557153931
 11
 178.42142093366635
 21
 499.52134557153909
  0
LINE
  8
0
  6
CONTINUOUS
 62
     7
 10
 162.42142093366601
 20
 167.52134557153931
 11
 162.42142093366601
 21
-403.47865442846091
  0
LINE
  8
0
  6
CONTINUOUS
 62
     7
 10
 162.42142093366601
 20
-408.47865442846091
 11
 162.42142093366601
 21
-438.47865442846091
  0
LINE
  8
0
  6
CONTINUOUS
 62
     7
 10
 162.42142093366601
 20
 186.52134557153886
 11
 162.42142093366601
 21
 170.02134557153931
  0
LINE
  8
0
  6
CONTINUOUS
 62
     7
 10
 162.42142093366601
 20
 499.52134557153909
 11
 162.42142093366601
 21
 203.52134557153886
  0
ARC
  8
0
  6
CONTINUOUS
 62
     7
 10
 150.42142093366579
 20
 499.52134557153909
 40
 12.000000000000171
 50
 0
 51
 90.000001535234716
  0
ARC
  8
0
  6
CONTINUOUS
 62
     7
 10
 150.42142093366579
 20
 499.52134557153909
 40
 28.00000000000011
 50
 0
 51
 90.000001535234716
  0
LINE
  8
0
  6
CONTINUOUS
 62
     7
 10
 162.42142093366601
 20
-438.47865442846091
 11
 164.42142093366601
 21
-440.47865442846091
  0
LINE
  8
0
  6
CONTINUOUS
 62
     7
 10
 176.42142093366647
 20
-440.47865442846091
 11
 178.42142093366635
 21
-438.47865442846091
  0
LINE
  8
0
  6
CONTINUOUS
 62
     7
 10
 111.42142093366624
 20
 511.52134557153909
 11
 150.42142093366579
 21
 511.52134557153909
  0
LINE
  8
0
  6
CONTINUOUS
 62
     7
 10
 150.42142093366579
 20
 527.52134557153909
 11
 111.42142093366624
 21
 527.52134557153909
  0
LINE
  8
0
  6
CONTINUOUS
 62
     7
 10
 111.42142093366624
 20
 527.52134557153909
 11
 110.42142093366601
 21
 526.52134557153909
  0
LINE
  8
0
  6
CONTINUOUS
 62
     7
 10
 110.42142093366601
 20
 512.52134557153909
 11
 111.42142093366624
 21
 511.52134557153909
  0
LINE
  8
0
  6
CONTINUOUS
 62
     7
 10
 184.92142093366601
 20
-403.47865442846091
 11
 184.92142093366601
 21
-408.47865442846091
  0
LINE
  8
0
  6
CONTINUOUS
 62
     7
 10
 184.92142093366601
 20
-408.47865442846091
 11
 179.92142093366579
 21
-408.47865442846091
  0
LINE
  8
0
  6
CONTINUOUS
 62
     7
 10
 184.92142093366601
 20
-403.47865442846091
 11
 179.92142093366579
 21
-403.47865442846091
  0
LINE
  8
0
  6
CONTINUOUS
 62
     7
 10
 160.92142093366624
 20
-408.47865442846091
 11
 179.92142093366579
 21
-408.47865442846091
  0
LINE
  8
0
  6
CONTINUOUS
 62
     7
 10
 160.92142093366624
 20
-403.47865442846091
 11
 179.92142093366579
 21
-403.47865442846091
  0
LINE
  8
0
  6
CONTINUOUS
 62
     7
 10
 155.92142093366647
 20
-403.47865442846091
 11
 155.92142093366647
 21
-408.47865442846091
  0
LINE
  8
0
  6
CONTINUOUS
 62
     7
 10
 160.92142093366624
 20
-408.47865442846091
 11
 155.92142093366647
 21
-408.47865442846091
  0
LINE
  8
0
  6
CONTINUOUS
 62
     7
 10
 160.92142093366624
 20
-403.47865442846091
 11
 155.92142093366647
 21
-403.47865442846091
  0
LINE
  8
0
  6
CONTINUOUS
 62
     7
 10
 161.52142093366638
 20
-403.47865442846091
 11
 161.52142093366638
 21
-401.47865442846091
  0
LINE
  8
0
  6
CONTINUOUS
 62
     7
 10
 179.3214209336661
 20
-403.47865442846091
 11
 179.3214209336661
 21
-401.47865442846091
  0
ARC
  8
0
  6
CONTINUOUS
 62
     7
 10
 175.32142093366645
 20
-346.47865442846091
 40
 4.0000000000000551
 50
 0
 51
 39.194968094593158
  0
ARC
  8
0
  6
CONTINUOUS
 62
     7
 10
 165.52142093366649
 20
-346.47865442846091
 40
 4.0000000000000551
 50
 140.80503497587623
 51
-180.00000307046864
  0
LINE
  8
0
  6
CONTINUOUS
 62
     7
 10
 161.52142093366638
 20
-401.47865442846091
 11
 161.52142093366638
 21
-346.47865442846091
  0
LINE
  8
0
  6
CONTINUOUS
 62
     7
 10
 179.3214209336661
 20
-401.47865442846091
 11
 179.3214209336661
 21
-346.47865442846091
  0
LINE
  8
0
  6
CONTINUOUS
 62
     7
 10
 184.92142093366601
 20
 186.52134557153886
 11
 184.92142093366601
 21
 191.52134557153931
  0
LINE
  8
0
  6
CONTINUOUS
 62
     7
 10
 179.92142093366579
 20
 191.52134557153931
 11
 184.92142093366601
 21
 191.52134557153931
  0
LINE
  8
0
  6
CONTINUOUS
 62
     7
 10
 179.92142093366579
 20
 186.52134557153886
 11
 184.92142093366601
 21
 186.52134557153886
  0
LINE
  8
0
  6
CONTINUOUS
 62
     7
 10
 173.42142093366635
 20
 186.52134557153886
 11
 173.42142093366635
 21
 191.52134557153931
  0
LINE
  8
0
  6
CONTINUOUS
 62
     7
 10
 179.92142093366579
 20
 191.52134557153931
 11
 173.42142093366635
 21
 191.52134557153931
  0
LINE
  8
0
  6
CONTINUOUS
 62
     7
 10
 179.92142093366579
 20
 186.52134557153886
 11
 173.42142093366635
 21
 186.52134557153886
  0
LINE
  8
0
  6
CONTINUOUS
 62
     7
 10
 167.42142093366579
 20
 186.52134557153886
 11
 167.42142093366579
 21
 191.52134557153931
  0
LINE
  8
0
  6
CONTINUOUS
 62
     7
 10
 167.42142093366579
 20
 191.52134557153931
 11
 160.92142093366624
 21
 191.52134557153931
  0
LINE
  8
0
  6
CONTINUOUS
 62
     7
 10
 167.42142093366579
 20
 186.52134557153886
 11
 160.92142093366624
 21
 186.52134557153886
  0
LINE
  8
0
  6
CONTINUOUS
 62
     7
 10
 155.92142093366647
 20
 186.52134557153886
 11
 155.92142093366647
 21
 191.52134557153931
  0
LINE
  8
0
  6
CONTINUOUS
 62
     7
 10
 155.92142093366647
 20
 191.52134557153931
 11
 160.92142093366624
 21
 191.52134557153931
  0
LINE
  8
0
  6
CONTINUOUS
 62
     7
 10
 155.92142093366647
 20
 186.52134557153886
 11
 160.92142093366624
 21
 186.52134557153886
  0
LINE
  8
0
  6
CONTINUOUS
 62
     7
 10
 161.52142093366638
 20
 186.52134557153886
 11
 161.52142093366638
 21
 184.52134557153931
  0
LINE
  8
0
  6
CONTINUOUS
 62
     7
 10
 179.3214209336661
 20
 186.52134557153886
 11
 179.3214209336661
 21
 184.52134557153931
  0
ARC
  8
0
  6
CONTINUOUS
 62
     7
 10
 165.52142093366649
 20
 129.52134557153897
 40
 4.0000000000001981
 50
-180.00000307046864
 51
-140.80503497587549
  0
ARC
  8
0
  6
CONTINUOUS
 62
     7
 10
 175.32142093366645
 20
 129.52134557153897
 40
 4.0000000000000551
 50
-39.194968094592362
 51
 0
  0
LINE
  8
0
  6
CONTINUOUS
 62
     7
 10
 179.3214209336661
 20
 184.52134557153931
 11
 179.3214209336661
 21
 129.52134557153897
  0
LINE
  8
0
  6
CONTINUOUS
 62
     7
 10
 162.42142093366601
 20
-438.47865442846091
 11
 178.42142093366635
 21
-438.47865442846091
  0
LINE
  8
0
  6
CONTINUOUS
 62
     7
 10
 162.67545424166656
 20
 203.52134557153886
 11
 162.67545424166656
 21
 191.52134557153931
  0
LINE
  8
0
  6
CONTINUOUS
 62
     7
 10
 176.42142093366647
 20
-440.47865442846091
 11
 164.42142093366601
 21
-440.47865442846091
  0
LINE
  8
0
  6
CONTINUOUS
 62
     7
 10
 111.42142093366624
 20
 519.52134557153909
 11
 111.42142093366624
 21
 511.52134557153909
  0
LINE
  8
0
  6
CONTINUOUS
 62
     7
 10
 111.42142093366624
 20
 527.52134557153909
 11
 111.42142093366624
 21
 519.52134557153909
  0
LINE
  8
0
  6
CONTINUOUS
 62
     7
 10
 110.42142093366601
 20
 512.52134557153909
 11
 110.42142093366601
 21
 526.52134557153909
  0
LINE
  8
0
  6
CONTINUOUS
 62
     7
 10
 153.42142093366624
 20
 181.52134557153897
 11
 155.42142093366601
 21
 191.52134557153931
  0
LINE
  8
0
  6
CONTINUOUS
 62
     7
 10
 150.42142093366579
 20
 181.52134557153897
 11
 153.42142093366624
 21
 181.52134557153897
  0
ARC
  8
0
  6
CONTINUOUS
 62
     7
 10
 150.42142093366579
 20
 184.52134557153931
 40
 2.9999999999999711
 50
-180.00000307046864
 51
-90.00000153523392
  0
LINE
  8
0
  6
CONTINUOUS
 62
     7
 10
 147.42142093366601
 20
 197.52134557153897
 11
 147.42142093366601
 21
 184.52134557153931
  0
ARC
  8
0
  6
CONTINUOUS
 62
     7
 10
 153.42142093366624
 20
 197.52134557153897
 40
 5.9999999999999432
 50
 90.000001535234716
 51
-180.00000307046864
  0
LINE
  8
0
  6
CONTINUOUS
 62
     7
 10
 162.67545424166656
 20
 203.52134557153886
 11
 153.42142093366624
 21
 203.52134557153886
  0
LINE
  8
0
  6
CONTINUOUS
 62
     7
 10
 155.42142093366601
 20
 191.52134557153931
 11
 155.92142093366647
 21
 191.52134557153931
  0
INSERT
  8
0
  2
CADWIN-G1
 10
0.0
 20
0.0
  0
INSERT
  8
0
  2
CADWIN-G2
 10
0.0
 20
0.0
  0
TEXT
  8
AM_5
  6
CONTINUOUS
 62
     2
 10
-204.94457144433369
 20
 34.7713455715392
 11
-152.44457144433369
 21
 34.7713455715392
 40
 17.5
 41
 1
  1
968
 50
 0
 72
  5
  0
LINE
  8
AM_7
  6
CONTINUOUS
 62
     4
 10
-69.94457144433369
 20
 164.52134557153897
 11
-58.944571444333803
 21
 164.52134557153897
  0
LINE
  8
AM_7
  6
CONTINUOUS
 62
     4
 10
-69.44457144433369
 20
-355.47865442846091
 11
-58.44457144433369
 21
-355.47865442846091
  0
LINE
  8
AM_7
  6
CONTINUOUS
 62
     4
 10
-69.44457144433369
 20
-385.47865442846091
 11
-58.44457144433369
 21
-385.47865442846091
  0
LINE
  8
AM_7
  6
CONTINUOUS
 62
     4
 10
-69.94457144433369
 20
 134.52134557153909
 11
-58.944571444333803
 21
 134.52134557153909
  0
LINE
  8
AM_3
  6
CONTINUOUS
 62
     6
 10
-66.94457144433369
 20
 167.27134557153897
 11
-61.94457144433369
 21
 167.27134557153897
  0
LINE
  8
AM_3
  6
CONTINUOUS
 62
     6
 10
-66.94456576681398
 20
 161.77133660221057
 11
-61.94456576681398
 21
 161.77133660221057
  0
LINE
  8
AM_3
  6
CONTINUOUS
 62
     6
 10
-66.94456576681398
 20
 137.27135565574258
 11
-61.94456576681398
 21
 137.27135565574258
  0
LINE
  8
AM_3
  6
CONTINUOUS
 62
     6
 10
-66.944560089294214
 20
 131.77134668641327
 11
-61.944560089294214
 21
 131.77134668641327
  0
LINE
  8
AM_3
  6
CONTINUOUS
 62
     6
 10
-66.44456576681398
 20
-352.7286443442577
 11
-61.444565766813923
 21
-352.7286443442577
  0
LINE
  8
AM_3
  6
CONTINUOUS
 62
     6
 10
-66.444560089294214
 20
-358.22865331358628
 11
-61.444560089294214
 21
-358.22865331358628
  0
LINE
  8
AM_3
  6
CONTINUOUS
 62
     6
 10
-66.44456576681398
 20
-382.72864434425759
 11
-61.444565766813923
 21
-382.72864434425759
  0
LINE
  8
AM_3
  6
CONTINUOUS
 62
     6
 10
-66.444560089294214
 20
-388.22865331358639
 11
-61.444560089294214
 21
-388.22865331358639
  0
INSERT
  8
0
  2
CADWIN-G3
 10
0.0
 20
0.0
  0
INSERT
  8
0
  2
CADWIN-G4
 10
0.0
 20
0.0
  0
TEXT
  8
AM_5
  6
CONTINUOUS
 62
     2
 10
-154.94457144433369
 20
-421.7286544284608
 11
-119.94457144433369
 21
-421.7286544284608
 40
 17.5
 41
 1
  1
55
 50
 0
 72
  5
  0
INSERT
  8
0
  2
CADWIN-G5
 10
0.0
 20
0.0
  0
INSERT
  8
0
  2
CADWIN-G6
 10
0.0
 20
0.0
  0
TEXT
  8
AM_5
  6
CONTINUOUS
 62
     2
 10
-154.94457144433369
 20
-379.2286544284608
 11
-119.94457144433369
 21
-379.2286544284608
 40
 17.5
 41
 1
  1
30
 50
 0
 72
  5
  0
INSERT
  8
0
  2
CADWIN-G7
 10
0.0
 20
0.0
  0
INSERT
  8
0
  2
CADWIN-G8
 10
0.0
 20
0.0
  0
TEXT
  8
AM_5
  6
CONTINUOUS
 62
     2
 10
-154.94457144433369
 20
-119.2286544284608
 11
-102.44457144433369
 21
-119.2286544284608
 40
 17.5
 41
 1
  1
490
 50
 0
 72
  5
  0
INSERT
  8
0
  2
CADWIN-G9
 10
0.0
 20
0.0
  0
INSERT
  8
0
  2
CADWIN-G10
 10
0.0
 20
0.0
  0
TEXT
  8
AM_5
  6
CONTINUOUS
 62
     2
 10
-154.9445714443338
 20
 140.77134557153909
 11
-119.9445714443338
 21
 140.77134557153909
 40
 17.5
 41
 1
  1
30
 50
 0
 72
  5
  0
INSERT
  8
0
  2
CADWIN-G11
 10
0.0
 20
0.0
  0
INSERT
  8
0
  2
CADWIN-G12
 10
0.0
 20
0.0
  0
TEXT
  8
AM_5
  6
CONTINUOUS
 62
     2
 10
-154.94629388527869
 20
 222.99354045342875
 11
-119.94629388527869
 21
 222.99354045342875
 40
 17.5
 41
 1
  1
24
 50
 0
 72
  5
  0
INSERT
  8
0
  2
CADWIN-G13
 10
0.0
 20
0.0
  0
INSERT
  8
0
  2
CADWIN-G14
 10
0.0
 20
0.0
  0
TEXT
  8
AM_5
  6
CONTINUOUS
 62
     2
 10
-57.69457144433369
 20
-492.97865442846091
 11
-22.69457144433369
 21
-492.97865442846091
 40
 17.5
 41
 1
  1
35
 50
 0
 72
  5
  0
INSERT
  8
0
  2
CADWIN-G15
 10
0.0
 20
0.0
  0
INSERT
  8
0
  2
CADWIN-G16
 10
0.0
 20
0.0
  0
TEXT
  8
AM_5
  6
CONTINUOUS
 62
     2
 10
 219.14505875682096
 20
-492.97693198751597
 11
 254.14505875682096
 21
-492.97693198751597
 40
 17.5
 41
 1
  1
29
 50
 0
 72
  5
  0
INSERT
  8
0
  2
CADWIN-G17
 10
0.0
 20
0.0
  0
INSERT
  8
0
  2
CADWIN-G18
 10
0.0
 20
0.0
  0
TEXT
  8
AM_5
  6
CONTINUOUS
 62
     2
 10
 218.3554760517768
 20
 271.64699586683105
 11
 270.8554760517768
 21
 271.64699586683105
 40
 17.5
 41
 1
  1
φ16
 50
 0
 72
  5
  0
ARC
  8
0
  6
CONTINUOUS
 62
     4
 10
 162.42142093366601
 20
 165.12286486458498
 40
 0.1015192930456797
 50
-90.000001535234517
 51
-14.218445316968577
  0
ARC
  8
0
  6
CONTINUOUS
 62
     4
 10
 152.95553252872611
 20
 167.52134557153931
 40
 9.8665463281545982
 50
-14.21844531696855
 51
 14.21844531696855
  0
ARC
  8
0
  6
CONTINUOUS
 62
     4
 10
 162.42142093366601
 20
 169.91982627849364
 40
 0.1015192930456797
 50
 14.218445316968577
 51
 90.000001535234347
  0
INSERT
  8
0
  2
CADWIN-G19
 10
0.0
 20
0.0
  0
LINE
  8
0
  6
CONTINUOUS
 62
     7
 10
 161.52142093366638
 20
 184.52134557153931
 11
 161.52142093366638
 21
 172.57417857018456
  0
LINE
  8
0
  6
CONTINUOUS
 62
     7
 10
 161.52142093366638
 20
 162.46851257289407
 11
 161.52142093366638
 21
 129.52134557153897
  0
ARC
  8
AM_0
  6
CONTINUOUS
 62
     7
 10
-46.944571444333768
 20
 166.52134557153931
 40
 0.5
 50
 0
 51
 90.00000307043473
  0
LINE
  8
AM_0
  6
CONTINUOUS
 62
     7
 10
-43.495081701533756
 20
 167.02134557153931
 11
-44.944571444333768
 21
 167.02134557153931
  0
ARC
  8
AM_0
  6
CONTINUOUS
 62
     7
 10
-46.944571444333768
 20
 168.52134557153931
 40
 0.5
 50
-90.000003070433934
 51
 0
  0
ARC
  8
AM_0
  6
CONTINUOUS
 62
     7
 10
-44.944571444333768
 20
 168.52134557153931
 40
 0.5
 50
 179.99999999996939
 51
-90.000003070433934
  0
ARC
  8
AM_0
  6
CONTINUOUS
 62
     7
 10
-44.944571444333768
 20
 166.52134557153931
 40
 0.5
 50
 90.00000307043473
 51
 179.99999999996939
  0
ARC
  8
AM_0
  6
CONTINUOUS
 62
     7
 10
-45.944571444333768
 20
 167.52134557153931
 40
 2.5
 50
 78.463043644035395
 51
 101.53696249683406
  0
ARC
  8
AM_0
  6
CONTINUOUS
 62
     7
 10
-45.944571444333768
 20
 167.52134557153931
 40
 2.5
 50
-11.536959426398534
 51
 11.536959426399337
  0
ARC
  8
AM_0
  6
CONTINUOUS
 62
     7
 10
-45.944571444333768
 20
 167.52134557153931
 40
 2.5
 50
 168.46304671457017
 51
-168.4630467145694
  0
ARC
  8
AM_0
  6
CONTINUOUS
 62
     7
 10
-45.944571444333768
 20
 167.52134557153931
 40
 2.5
 50
-101.53696249693333
 51
-78.46304364403467
  0
LINE
  8
AM_0
  6
CONTINUOUS
 62
     7
 10
-46.444571444333768
 20
 166.52134557153931
 11
-46.444571444333768
 21
 165.0718558287393
  0
LINE
  8
AM_0
  6
CONTINUOUS
 62
     7
 10
-46.444571444333768
 20
 169.9708353143393
 11
-46.444571444333768
 21
 168.52134557153931
  0
LINE
  8
AM_0
  6
CONTINUOUS
 62
     7
 10
-45.444571444333768
 20
 168.52134557153931
 11
-45.444571444333768
 21
 169.9708353143393
  0
LINE
  8
AM_0
  6
CONTINUOUS
 62
     7
 10
-45.444571444333768
 20
 165.0718558287393
 11
-45.444571444333768
 21
 166.52134557153931
  0
LINE
  8
AM_0
  6
CONTINUOUS
 62
     7
 10
-44.944571444333768
 20
 168.02134557153931
 11
-43.495081701533756
 21
 168.02134557153931
  0
LINE
  8
AM_0
  6
CONTINUOUS
 62
     7
 10
-48.394061187133751
 20
 168.02134557153931
 11
-46.944571444333768
 21
 168.02134557153931
  0
LINE
  8
AM_0
  6
CONTINUOUS
 62
     7
 10
-46.944571444333768
 20
 167.02134557153931
 11
-48.394061187133751
 21
 167.02134557153931
  0
LINE
  8
AM_0
  6
CENTER
 62
     4
 10
-39.361544262545628
 20
 167.52134557153931
 11
-52.527598626121907
 21
 167.52134557153931
  0
LINE
  8
AM_0
  6
CENTER
 62
     4
 10
-45.944571444333775
 20
 174.10437275332745
 11
-45.944571444333775
 21
 160.93831838975117
  0
CIRCLE
  8
0
  6
CONTINUOUS
 62
     7
 10
-45.944571444333768
 20
 167.52134557153931
 40
 5.1000000000000227
  0
ENDSEC
  0
EOF
