  0
SECTION
  2
HEADER
  9
$ACADVER
  1
AC1015
  9
$ACADMAINTVER
 70
         6
  9
$DWGCODEPAGE
  3
ANSI_932
  9
$INSBASE
 10
0.0
 20
0.0
 30
0.0
  9
$EXTMIN
 10
1.0000000000E+20
 20
1.0000000000E+20
 30
1.0000000000E+20
  9
$EXTMAX
 10
-1.0000000000E+20
 20
-1.0000000000E+20
 30
-1.0000000000E+20
  9
$LIMMIN
 10
0.0
 20
0.0
  9
$LIMMAX
 10
0.0
 20
0.0
  9
$ORTHOMODE
 70
         0
  9
$REGENMODE
 70
         1
  9
$FILLMODE
 70
         1
  9
$QTEXTMODE
 70
         0
  9
$MIRRTEXT
 70
         1
  9
$LTSCALE
 40
1.0
  9
$ATTMODE
 70
         1
  9
$TEXTSIZE
 40
0.2
  9
$TRACEWID
 40
0.05
  9
$TEXTSTYLE
  7
Standard
  9
$CLAYER
  8
0
  9
$CELTYPE
  6
Continuous
  9
$CECOLOR
 62
       256
  9
$CELTSCALE
 40
1.0
  9
$DISPSILH
 70
         0
  9
$DIMSCALE
 40
1.0
  9
$DIMASZ
 40
0.18
  9
$DIMEXO
 40
0.0625
  9
$DIMDLI
 40
0.38
  9
$DIMRND
 40
0.0
  9
$DIMDLE
 40
0.0
  9
$DIMEXE
 40
0.18
  9
$DIMTP
 40
0.0
  9
$DIMTM
 40
0.0
  9
$DIMTXT
 40
0.18
  9
$DIMCEN
 40
0.09
  9
$DIMTSZ
 40
0.0
  9
$DIMTOL
 70
         0
  9
$DIMLIM
 70
         0
  9
$DIMTIH
 70
         1
  9
$DIMTOH
 70
         1
  9
$DIMSE1
 70
         0
  9
$DIMSE2
 70
         0
  9
$DIMTAD
 70
         0
  9
$DIMZIN
 70
         0
  9
$DIMBLK
  1

  9
$DIMASO
 70
         1
  9
$DIMSHO
 70
         1
  9
$DIMPOST
  1

  9
$DIMAPOST
  1

  9
$DIMALT
 70
         0
  9
$DIMALTD
 70
         2
  9
$DIMALTF
 40
25.4
  9
$DIMLFAC
 40
1.0
  9
$DIMTOFL
 70
         0
  9
$DIMTVP
 40
0.0
  9
$DIMTIX
 70
         0
  9
$DIMSOXD
 70
         0
  9
$DIMSAH
 70
         0
  9
$DIMBLK1
  1

  9
$DIMBLK2
  1

  9
$DIMSTYLE
  2
Standard
  9
$DIMCLRD
 70
         0
  9
$DIMCLRE
 70
         0
  9
$DIMCLRT
 70
         0
  9
$DIMTFAC
 40
1.0
  9
$DIMGAP
 40
0.09
  9
$DIMJUST
 70
         0
  9
$DIMSD1
 70
         0
  9
$DIMSD2
 70
         0
  9
$DIMTOLJ
 70
         1
  9
$DIMTZIN
 70
         0
  9
$DIMALTZ
 70
         0
  9
$DIMALTTZ
 70
         0
  9
$DIMUPT
 70
         0
  9
$DIMDEC
 70
         4
  9
$DIMTDEC
 70
         4
  9
$DIMALTU
 70
         2
  9
$DIMALTTD
 70
         2
  9
$DIMTXSTY
  7
Standard
  9
$DIMAUNIT
 70
         0
  9
$DIMADEC
 70
         0
  9
$DIMALTRND
 40
0.0
  9
$DIMAZIN
 70
         0
  9
$DIMDSEP
 70
         0
  9
$DIMATFIT
 70
         3
  9
$DIMFRAC
 70
         0
  9
$DIMLDRBLK
  1

  9
$DIMLUNIT
 70
         2
  9
$DIMLWD
 70
         0
  9
$DIMLWE
 70
         0
  9
$DIMTMOVE
 70
         0
  9
$LUNITS
 70
         2
  9
$LUPREC
 70
         4
  9
$SKETCHINC
 40
0.1
  9
$FILLETRAD
 40
0.0
  9
$AUNITS
 70
         0
  9
$AUPREC
 70
         0
  9
$MENU
  1
acad
  9
$ELEVATION
 40
0.0
  9
$PELEVATION
 40
0.0
  9
$THICKNESS
 40
0.0
  9
$LIMCHECK
 70
         0
  9
$CHAMFERA
 40
0.0
  9
$CHAMFERB
 40
0.0
  9
$CHAMFERC
 40
0.0
  9
$CHAMFERD
 40
0.0
  9
$SKPOLY
 70
         0
  9
$TDCREATE
 40
0.000000000
  9
$TDUCREATE
 40
0.000000000
  9
$TDUPDATE
 40
0.000000000
  9
$TDUUPDATE
 40
0.000000000
  9
$TDINDWG
 40
0.0000000000
  9
$TDUSRTIMER
 40
0.0000000000
  9
$USRTIMER
 70
         1
  9
$ANGBASE
 50
0.0
  9
$ANGDIR
 70
         0
  9
$PDMODE
 70
         3
  9
$PDSIZE
 40
-1.0
  9
$PLINEWID
 40
0.0
  9
$SPLFRAME
 70
         0
  9
$SPLINETYPE
 70
         6
  9
$SPLINESEGS
 70
         8
  9
$HANDSEED
  5
28D
  9
$SURFTAB1
 70
         6
  9
$SURFTAB2
 70
         6
  9
$SURFTYPE
 70
         6
  9
$SURFU
 70
         6
  9
$SURFV
 70
         6
  9
$UCSBASE
  2

  9
$UCSNAME
  2

  9
$UCSORG
 10
0.0
 20
0.0
 30
0.0
  9
$UCSXDIR
 10
1.0
 20
0.0
 30
0.0
  9
$UCSYDIR
 10
0.0
 20
1.0
 30
0.0
  9
$UCSORTHOREF
  2

  9
$UCSORTHOVIEW
 70
         0
  9
$UCSORGTOP
 10
0.0
 20
0.0
 30
0.0
  9
$UCSORGBOTTOM
 10
0.0
 20
0.0
 30
0.0
  9
$UCSORGLEFT
 10
0.0
 20
0.0
 30
0.0
  9
$UCSORGRIGHT
 10
0.0
 20
0.0
 30
0.0
  9
$UCSORGFRONT
 10
0.0
 20
0.0
 30
0.0
  9
$UCSORGBACK
 10
0.0
 20
0.0
 30
0.0
  9
$PUCSBASE
  2

  9
$PUCSNAME
  2

  9
$PUCSORG
 10
0.0
 20
0.0
 30
0.0
  9
$PUCSXDIR
 10
1.0
 20
0.0
 30
0.0
  9
$PUCSYDIR
 10
0.0
 20
1.0
 30
0.0
  9
$PUCSORTHOREF
  2

  9
$PUCSORTHOVIEW
 70
         0
  9
$PUCSORGTOP
 10
0.0
 20
0.0
 30
0.0
  9
$PUCSORGBOTTOM
 10
0.0
 20
0.0
 30
0.0
  9
$PUCSORGLEFT
 10
0.0
 20
0.0
 30
0.0
  9
$PUCSORGRIGHT
 10
0.0
 20
0.0
 30
0.0
  9
$PUCSORGFRONT
 10
0.0
 20
0.0
 30
0.0
  9
$PUCSORGBACK
 10
0.0
 20
0.0
 30
0.0
  9
$USERI1
 70
         0
  9
$USERI2
 70
         0
  9
$USERI3
 70
         0
  9
$USERI4
 70
         0
  9
$USERI5
 70
         0
  9
$USERR1
 40
0.0
  9
$USERR2
 40
0.0
  9
$USERR3
 40
0.0
  9
$USERR4
 40
0.0
  9
$USERR5
 40
0.0
  9
$WORLDVIEW
 70
         1
  9
$SHADEDGE
 70
         3
  9
$SHADEDIF
 70
        70
  9
$TILEMODE
 70
         1
  9
$MAXACTVP
 70
        16
  9
$PINSBASE
 10
0.0
 20
0.0
 30
0.0
  9
$PLIMCHECK
 70
         0
  9
$PEXTMIN
 10
1.0000000000E+20
 20
1.0000000000E+20
 30
1.0000000000E+20
  9
$PEXTMAX
 10
-1.0000000000E+20
 20
-1.0000000000E+20
 30
-1.0000000000E+20
  9
$PLIMMIN
 10
0.0
 20
0.0
  9
$PLIMMAX
 10
12.0
 20
9.0
  9
$UNITMODE
 70
         0
  9
$VISRETAIN
 70
         0
  9
$PLINEGEN
 70
         1
  9
$PSLTSCALE
 70
         0
  9
$TREEDEPTH
 70
      3020
  9
$CMLSTYLE
  2
Standard
  9
$CMLJUST
 70
         0
  9
$CMLSCALE
 40
1.0
  9
$PROXYGRAPHICS
 70
         0
  9
$MEASUREMENT
 70
         0
  9
$CELWEIGHT
370
         0
  9
$ENDCAPS
280
         0
  9
$JOINSTYLE
280
         0
  9
$LWDISPLAY
290
         0
  9
$INSUNITS
 70
         0
  9
$HYPERLINKBASE
  1

  9
$XEDIT
290
         1
  9
$CEPSNTYPE
380
         0
  9
$PSTYLEMODE
290
         0
  9
$FINGERPRINTGUID
  2

  9
$VERSIONGUID
  2

  9
$EXTNAMES
290
         1
  9
$PSVPSCALE
 40
0.0
  0
ENDSEC
  0
SECTION
  2
CLASSES
  0
CLASS
  1
LWPOLYLINE
  2
AcDbPolyline
  3
"AutoCAD"
 90
        0
280
         0
281
         1
  0
CLASS
  1
IMAGE
  2
AcDbRasterImage
  3
ISM
 90
      127
280
         0
281
         1
  0
CLASS
  1
OLE2FRAME
  2
AcDbOle2Frame
  3
""
 90
        0
280
         0
281
         1
  0
CLASS
  1
HATCH
  2
AcDbHatch
  3
"ACAD_SEDONA"
 90
        0
280
         0
281
         1
  0
CLASS
  1
DICTIONARYVAR
  2
AcDbDictionaryVar
  3
"AutoCAD"
 90
        0
280
         0
281
         0
  0
CLASS
  1
RASTERVARIABLES
  2
AcDbRasterVariables
  3
ISM
 90
        0
280
         0
281
         0
  0
CLASS
  1
IMAGEDEF
  2
AcDbRasterImageDef
  3
ISM
 90
        0
280
         0
281
         0
  0
CLASS
  1
IMAGEDEF_REACTOR
  2
AcDbRasterImageDefReactor
  3
ISM
 90
        1
280
         0
281
         0
  0
CLASS
  1
IDBUFFER
  2
AcDbIdBuffer
  3
"Acad"
 90
        0
280
         0
281
         0
  0
CLASS
  1
SPATIAL_FILTER
  2
AcDbSpatialFilter
  3
"Acad"
 90
        0
280
         0
281
         0
  0
CLASS
  1
XRECORD
  2
AcDbXrecord
  3
"<Built In>"
 90
        0
280
         0
281
         0
  0
CLASS
  1
SORTENTSTABLE
  2
AcDbSortentsTable
  3
"AutoCAD"
 90
        0
280
         0
281
         0
  0
CLASS
  1
LAYER_INDEX
  2
AcDbLayerIndex
  3
"Acad"
 90
        0
280
         0
281
         0
  0
CLASS
  1
SPATIAL_INDEX
  2
AcDbSpatialIndex
  3
"Acad"
 90
        0
280
         0
281
         0
  0
CLASS
  1
OBJECT_PTR
  2
CAseDLPNTableRecord
  3
"ASE-LPNTableRecord"
 90
        1
280
         0
281
         0
  0
CLASS
  1
LAYOUT
  2
AcDbLayout
  3
"AutoCAD 2000"
 90
        1
280
         0
281
         0
  0
CLASS
  1
PLOTSETTINGS
  2
AcDbPlotSettings
  3
"AutoCAD 2000"
 90
        1
280
         0
281
         0
  0
CLASS
  1
ACDBDICTIONARYWDFLT
  2
AcDbDictionaryWithDefault
  3
"AutoCAD 2000"
 90
        1
280
         0
281
         0
  0
CLASS
  1
ACDBPLACEHOLDER
  2
AcDbPlaceHolder
  3
"AutoCAD 2000"
 90
        1
280
         0
281
         0
  0
CLASS
  1
VBA_PROJECT
  2
AcDbVbaProject
  3
"acadvba"
 90
        1
280
         0
281
         0
  0
CLASS
  1
WIPEOUT
  2
AcDbWipeout
  3
WipeOut|AutoCAD Express Tool|expresstools@autodesk.com
 90
      127
280
         0
281
         1
  0
CLASS
  1
WIPEOUTVARIABLES
  2
AcDbWipeoutVariables
  3
WipeOut|AutoCAD Express Tool|expresstools@autodesk.com
 90
        0
280
         0
281
         0
  0
CLASS
  1
RTEXT
  2
RText
  3
RText|AutoCAD Express Tool|expresstools@autodesk.com
 90
        0
280
         0
281
         1
  0
CLASS
  1
ARCALIGNEDTEXT
  2
AcDbArcAlignedText
  3
ATEXT|AutoCAD Express Tool|expresstools@autodesk.com
 90
        0
280
         0
281
         1
  0
ENDSEC
  0
SECTION
  2
TABLES
  0
TABLE
  2
VPORT
  5
7
100
AcDbSymbolTable
 70
         1
  0
VPORT
  5
15
100
AcDbSymbolTableRecord
100
AcDbViewportTableRecord
  2
*ACTIVE
 70
         0
 10
0.0
 20
0.0
 11
1.0
 21
1.0
 12
6.591288
 22
4.579184
 13
0.0
 23
0.0
 14
1.0
 24
1.0
 15
0.0
 25
0.0
 16
0.0
 26
0.0
 36
1.0
 17
0.0
 27
0.0
 37
0.0
 40
9.158369
 41
0.688564
 42
50.0
 43
0.0
 44
0.0
 50
0.0
 51
0.0
 71
         0
 72
       100
 73
         1
 74
         1
 75
         0
 76
         0
 77
         0
 78
         0
281
         0
 65
         0
110
0.0
120
0.0
130
0.0
111
1.0
121
0.0
131
0.0
112
0.0
122
1.0
132
0.0
345
0
346
0
 79
         0
146
0.0
  0
ENDTAB
  0
TABLE
  2
LTYPE
  5
4
100
AcDbSymbolTable
 70
        13
  0
LTYPE
  5
11
100
AcDbSymbolTableRecord
100
AcDbLinetypeTableRecord
  2
ByBlock
 70
        64
  3

 72
        65
 73
         0
 40
0.0
  0
LTYPE
  5
12
100
AcDbSymbolTableRecord
100
AcDbLinetypeTableRecord
  2
ByLayer
 70
        64
  3

 72
        65
 73
         0
 40
0.0
  0
LTYPE
  5
13
100
AcDbSymbolTableRecord
100
AcDbLinetypeTableRecord
  2
Continuous
 70
        64
  3
Solid line
 72
        65
 73
         0
 40
0.0
  0
LTYPE
  5
24
100
AcDbSymbolTableRecord
100
AcDbLinetypeTableRecord
  2
DOT
 70
        64
  3
. . . . . . . . 
 72
        65
 73
         2
 40
1.0
 49
0.0
 74
         0
 49
-1.0
 74
         0
  0
LTYPE
  5
25
100
AcDbSymbolTableRecord
100
AcDbLinetypeTableRecord
  2
DASHED
 70
        64
  3
___  ___  ___  ___  
 72
        65
 73
         2
 40
4.0
 49
3.0
 74
         0
 49
-1.0
 74
         0
  0
LTYPE
  5
26
100
AcDbSymbolTableRecord
100
AcDbLinetypeTableRecord
  2
HIDDEN
 70
        64
  3
__ __ __ __ 
 72
        65
 73
         2
 40
3.0
 49
2.0
 74
         0
 49
-1.0
 74
         0
  0
LTYPE
  5
27
100
AcDbSymbolTableRecord
100
AcDbLinetypeTableRecord
  2
STITCH
 70
        64
  3
_ _ _ _ 
 72
        65
 73
         2
 40
2.0
 49
1.0
 74
         0
 49
-1.0
 74
         0
  0
LTYPE
  5
28
100
AcDbSymbolTableRecord
100
AcDbLinetypeTableRecord
  2
CENTER
 70
        64
  3
______  __  ______  __  
 72
        65
 73
         4
 40
43.0
 49
40.0
 74
         0
 49
-1.0
 74
         0
 49
1.0
 74
         0
 49
-1.0
 74
         0
  0
LTYPE
  5
29
100
AcDbSymbolTableRecord
100
AcDbLinetypeTableRecord
  2
DASHDOT
 70
        64
  3
____ . ____ . 
 72
        65
 73
         4
 40
32.0
 49
30.0
 74
         0
 49
-1.0
 74
         0
 49
0.0
 74
         0
 49
-1.0
 74
         0
  0
LTYPE
  5
2A
100
AcDbSymbolTableRecord
100
AcDbLinetypeTableRecord
  2
BORDER
 70
        64
  3
__ . __ . 
 72
        65
 73
         4
 40
22.0
 49
20.0
 74
         0
 49
-1.0
 74
         0
 49
0.0
 74
         0
 49
-1.0
 74
         0
  0
LTYPE
  5
2B
100
AcDbSymbolTableRecord
100
AcDbLinetypeTableRecord
  2
CUTTING
 70
        64
  3
________   ___   ___   
 72
        65
 73
         6
 40
45.0
 49
40.0
 74
         0
 49
-1.0
 74
         0
 49
1.0
 74
         0
 49
-1.0
 74
         0
 49
1.0
 74
         0
 49
-1.0
 74
         0
  0
LTYPE
  5
2C
100
AcDbSymbolTableRecord
100
AcDbLinetypeTableRecord
  2
PHANTOM
 70
        64
  3
______  __  __  
 72
        65
 73
         6
 40
35.0
 49
30.0
 74
         0
 49
-1.0
 74
         0
 49
1.0
 74
         0
 49
-1.0
 74
         0
 49
1.0
 74
         0
 49
-1.0
 74
         0
  0
LTYPE
  5
2D
100
AcDbSymbolTableRecord
100
AcDbLinetypeTableRecord
  2
DIVIDE
 70
        64
  3
____ . . ____ . . 
 72
        65
 73
         6
 40
23.0
 49
20.0
 74
         0
 49
-1.0
 74
         0
 49
0.0
 74
         0
 49
-1.0
 74
         0
 49
0.0
 74
         0
 49
-1.0
 74
         0
  0
ENDTAB
  0
TABLE
  2
LAYER
  5
2
100
AcDbSymbolTable
 70
         3
  0
LAYER
  5
14
100
AcDbSymbolTableRecord
100
AcDbLayerTableRecord
  2
0
 70
         0
 62
         7
  6
Continuous
290
         1
370
        -3
390
1D
  0
LAYER
  5
2E
100
AcDbSymbolTableRecord
100
AcDbLayerTableRecord
  2
LAYER3
 70
         0
 62
         7
  6
Continuous
290
         1
370
        -3
390
1F
  0
LAYER
  5
3A
100
AcDbSymbolTableRecord
100
AcDbLayerTableRecord
  2
LAYER0
 70
         0
 62
         7
  6
Continuous
290
         1
370
        -3
390
1F
  0
ENDTAB
  0
TABLE
  2
STYLE
  5
3
100
AcDbSymbolTable
 70
         1
  0
STYLE
  5
17
100
AcDbSymbolTableRecord
100
AcDbTextStyleTableRecord
  2
Standard
 70
         0
 40
0.0
 41
1.0
 50
0.0
 71
         0
 42
0.0
  3
txt
  4
extfont
  0
ENDTAB
  0
TABLE
  2
VIEW
  5
5
100
AcDbSymbolTable
 70
         0
  0
ENDTAB
  0
TABLE
  2
UCS
  5
6
100
AcDbSymbolTable
 70
         0
  0
ENDTAB
  0
TABLE
  2
APPID
  5
8
100
AcDbSymbolTable
 70
         1
  0
APPID
  5
16
100
AcDbSymbolTableRecord
100
AcDbRegAppTableRecord
  2
ACAD
 70
         0
  0
ENDTAB
  0
TABLE
  2
DIMSTYLE
  5
9
100
AcDbSymbolTable
 70
         1
100
AcDbDimStyleTable
 71
         0
  0
DIMSTYLE
105
18
100
AcDbSymbolTableRecord
100
AcDbDimStyleTableRecord
  2
Standard
 70
         0
  3

  4

 40
1.0
 41
0.18
 42
0.0625
 43
0.38
 44
0.18
 45
0.0
 46
0.0
 47
0.0
 48
0.0
 71
         0
 72
         0
 73
         1
 74
         1
 75
         0
 76
         0
 77
         0
 78
         0
 79
         0
140
0.18
141
0.09
142
0.0
143
25.4
144
1.0
145
0.0
146
1.0
147
0.09
148
0.0
170
         0
171
         2
172
         0
173
         0
174
         0
175
         0
176
         0
177
         0
178
         0
179
         0
271
         4
272
         4
273
         2
274
         2
275
         0
276
         0
277
         2
278
        46
279
         0
280
         0
281
         0
282
         0
283
         1
284
         0
285
         0
286
         0
288
         0
340
17
341
0
342
0
343
0
344
0
371
        -2
372
        -2
  0
ENDTAB
  0
TABLE
  2
BLOCK_RECORD
  5
1
100
AcDbSymbolTable
 70
        18
  0
BLOCK_RECORD
  5
A
100
AcDbSymbolTableRecord
100
AcDbBlockTableRecord
  2
*MODEL_SPACE
340
20
  0
BLOCK_RECORD
  5
B
100
AcDbSymbolTableRecord
100
AcDbBlockTableRecord
  2
*PAPER_SPACE
340
21
  0
BLOCK_RECORD
  5
34
100
AcDbSymbolTableRecord
100
AcDbBlockTableRecord
  2
CLUMP0
340
0
  0
BLOCK_RECORD
  5
37
100
AcDbSymbolTableRecord
100
AcDbBlockTableRecord
  2
CLUMP1
340
0
  0
BLOCK_RECORD
  5
4F
100
AcDbSymbolTableRecord
100
AcDbBlockTableRecord
  2
CLUMP2
340
0
  0
BLOCK_RECORD
  5
52
100
AcDbSymbolTableRecord
100
AcDbBlockTableRecord
  2
CLUMP3
340
0
  0
BLOCK_RECORD
  5
C1
100
AcDbSymbolTableRecord
100
AcDbBlockTableRecord
  2
CLUMP4
340
0
  0
BLOCK_RECORD
  5
C4
100
AcDbSymbolTableRecord
100
AcDbBlockTableRecord
  2
CLUMP5
340
0
  0
BLOCK_RECORD
  5
107
100
AcDbSymbolTableRecord
100
AcDbBlockTableRecord
  2
CLUMP6
340
0
  0
BLOCK_RECORD
  5
10A
100
AcDbSymbolTableRecord
100
AcDbBlockTableRecord
  2
CLUMP7
340
0
  0
BLOCK_RECORD
  5
131
100
AcDbSymbolTableRecord
100
AcDbBlockTableRecord
  2
CLUMP8
340
0
  0
BLOCK_RECORD
  5
134
100
AcDbSymbolTableRecord
100
AcDbBlockTableRecord
  2
CLUMP9
340
0
  0
BLOCK_RECORD
  5
142
100
AcDbSymbolTableRecord
100
AcDbBlockTableRecord
  2
CLUMP10
340
0
  0
BLOCK_RECORD
  5
145
100
AcDbSymbolTableRecord
100
AcDbBlockTableRecord
  2
CLUMP11
340
0
  0
BLOCK_RECORD
  5
1C4
100
AcDbSymbolTableRecord
100
AcDbBlockTableRecord
  2
CLUMP12
340
0
  0
BLOCK_RECORD
  5
1C7
100
AcDbSymbolTableRecord
100
AcDbBlockTableRecord
  2
CLUMP13
340
0
  0
BLOCK_RECORD
  5
1E2
100
AcDbSymbolTableRecord
100
AcDbBlockTableRecord
  2
CLUMP14
340
0
  0
BLOCK_RECORD
  5
1E5
100
AcDbSymbolTableRecord
100
AcDbBlockTableRecord
  2
CLUMP15
340
0
  0
BLOCK_RECORD
  5
20C
100
AcDbSymbolTableRecord
100
AcDbBlockTableRecord
  2
CLUMP16
340
0
  0
BLOCK_RECORD
  5
20F
100
AcDbSymbolTableRecord
100
AcDbBlockTableRecord
  2
CLUMP17
340
0
  0
ENDTAB
  0
ENDSEC
  0
SECTION
  2
BLOCKS
  0
BLOCK
  5
D
100
AcDbEntity
  8
0
100
AcDbBlockBegin
  2
*MODEL_SPACE
 70
         0
 10
0.0
 20
0.0
 30
0.0
  3
*MODEL_SPACE
  1

  0
ENDBLK
  5
E
100
AcDbEntity
  8
0
100
AcDbBlockEnd
  0
BLOCK
  5
F
100
AcDbEntity
 67
         1
  8
0
100
AcDbBlockBegin
  2
*PAPER_SPACE
 70
         0
 10
0.0
 20
0.0
 30
0.0
  3
*PAPER_SPACE
  1

  0
ENDBLK
  5
10
100
AcDbEntity
 67
         1
  8
0
100
AcDbBlockEnd
  0
BLOCK
  5
36
100
AcDbEntity
  8
0
100
AcDbBlockBegin
  2
CLUMP0
 70
         0
 10
0.0
 20
0.0
 30
0.0
  3

  1

  0
INSERT
  5
38
100
AcDbEntity
  8
0
100
AcDbBlockReference
  2
CLUMP1
 10
0.0
 20
0.0
 30
0.0
  0
ENDBLK
  5
4E
100
AcDbEntity
  8
0
100
AcDbBlockEnd
  0
BLOCK
  5
39
100
AcDbEntity
  8
0
100
AcDbBlockBegin
  2
CLUMP1
 70
         0
 10
0.0
 20
0.0
 30
0.0
  3

  1

  0
LINE
  5
3B
100
AcDbEntity
  8
LAYER0
 62
         2
100
AcDbLine
 10
-3.5864652394
 20
90.1905882133
 30
0.0
 11
-3.5864652394
 21
75.5905889881
 31
0.0
  0
LINE
  5
3C
100
AcDbEntity
  8
LAYER0
 62
         2
100
AcDbLine
 10
3.4135348947
 20
74.0905889881
 30
0.0
 11
-2.0864652394
 21
74.0905889881
 31
0.0
  0
LINE
  5
3D
100
AcDbEntity
  8
LAYER0
 62
         2
100
AcDbLine
 10
3.4135348947
 20
91.6905882133
 30
0.0
 11
-2.0864652394
 21
91.6905882133
 31
0.0
  0
LINE
  5
3E
100
AcDbEntity
  8
LAYER0
 62
         2
100
AcDbLine
 10
3.4135348947
 20
74.0905889881
 30
0.0
 11
3.4135348947
 21
75.5905889881
 31
0.0
  0
LINE
  5
3F
100
AcDbEntity
  8
LAYER0
 62
         2
100
AcDbLine
 10
3.4135348947
 20
74.0905889881
 30
0.0
 11
3.4135348947
 21
91.6905882133
 31
0.0
  0
LINE
  5
40
100
AcDbEntity
  8
LAYER0
 62
         2
100
AcDbLine
 10
3.4135348947
 20
89.3905886007
 30
0.0
 11
1.4135348947
 21
89.3905886007
 31
0.0
  0
LINE
  5
41
100
AcDbEntity
  8
LAYER0
 62
         2
100
AcDbLine
 10
3.4135348947
 20
76.3905886007
 30
0.0
 11
1.4135348947
 21
76.3905886007
 31
0.0
  0
LINE
  5
42
100
AcDbEntity
  8
LAYER0
 62
         2
100
AcDbLine
 10
0.9135348947
 20
76.8905886007
 30
0.0
 11
0.9135348947
 21
88.8905886007
 31
0.0
  0
ARC
  5
43
100
AcDbEntity
  8
LAYER0
 62
         2
100
AcDbCircle
 10
1.4135348947
 20
76.8905886007
 30
0.0
 40
0.5
210
0.0
220
0.0
230
1.0
100
AcDbArc
 50
179.9999969295
 51
269.9999984648
  0
ARC
  5
44
100
AcDbEntity
  8
LAYER0
 62
         2
100
AcDbCircle
 10
1.4135348947
 20
88.8905886007
 30
0.0
 40
0.5
210
0.0
220
0.0
230
1.0
100
AcDbArc
 50
90.0000015352
 51
179.9999969295
  0
ARC
  5
45
100
AcDbEntity
  8
LAYER0
 62
         2
100
AcDbCircle
 10
-2.0864652394
 20
75.5905889881
 30
0.0
 40
1.5
210
0.0
220
0.0
230
1.0
100
AcDbArc
 50
179.9999969295
 51
269.9999984648
  0
ARC
  5
46
100
AcDbEntity
  8
LAYER0
 62
         2
100
AcDbCircle
 10
-2.0864652394
 20
90.1905882133
 30
0.0
 40
1.5
210
0.0
220
0.0
230
1.0
100
AcDbArc
 50
90.0000015352
 51
179.9999969295
  0
LINE
  5
47
100
AcDbEntity
  8
LAYER0
 62
         2
100
AcDbLine
 10
-4.0864652394
 20
87.8905886007
 30
0.0
 11
-3.5864652394
 21
87.8905886007
 31
0.0
  0
LINE
  5
48
100
AcDbEntity
  8
LAYER0
 62
         2
100
AcDbLine
 10
-4.0864652394
 20
89.6905886007
 30
0.0
 11
-3.5864652394
 21
89.6905886007
 31
0.0
  0
LINE
  5
49
100
AcDbEntity
  8
LAYER0
 62
         2
100
AcDbLine
 10
-4.0864652394
 20
87.8905886007
 30
0.0
 11
-4.0864652394
 21
89.6905886007
 31
0.0
  0
LINE
  5
4A
100
AcDbEntity
  8
LAYER0
 62
         2
100
AcDbLine
 10
-4.0864652394
 20
77.8905886007
 30
0.0
 11
-3.5864652394
 21
77.8905886007
 31
0.0
  0
LINE
  5
4B
100
AcDbEntity
  8
LAYER0
 62
         2
100
AcDbLine
 10
-4.0864652394
 20
76.0905886007
 30
0.0
 11
-3.5864652394
 21
76.0905886007
 31
0.0
  0
LINE
  5
4C
100
AcDbEntity
  8
LAYER0
 62
         2
100
AcDbLine
 10
-4.0864652394
 20
77.8905886007
 30
0.0
 11
-4.0864652394
 21
76.0905886007
 31
0.0
  0
ENDBLK
  5
4D
100
AcDbEntity
  8
0
100
AcDbBlockEnd
  0
BLOCK
  5
51
100
AcDbEntity
  8
0
100
AcDbBlockBegin
  2
CLUMP2
 70
         0
 10
0.0
 20
0.0
 30
0.0
  3

  1

  0
INSERT
  5
53
100
AcDbEntity
  8
0
100
AcDbBlockReference
  2
CLUMP3
 10
0.0
 20
0.0
 30
0.0
  0
ENDBLK
  5
68
100
AcDbEntity
  8
0
100
AcDbBlockEnd
  0
BLOCK
  5
54
100
AcDbEntity
  8
0
100
AcDbBlockBegin
  2
CLUMP3
 70
         0
 10
0.0
 20
0.0
 30
0.0
  3

  1

  0
LINE
  5
55
100
AcDbEntity
  8
LAYER0
 62
         2
100
AcDbLine
 10
-4.5864651909
 20
90.1905882133
 30
0.0
 11
-4.5864651909
 21
75.5905889881
 31
0.0
  0
LINE
  5
56
100
AcDbEntity
  8
LAYER0
 62
         2
100
AcDbLine
 10
-11.586465325
 20
74.0905889881
 30
0.0
 11
-6.0864651909
 21
74.0905889881
 31
0.0
  0
LINE
  5
57
100
AcDbEntity
  8
LAYER0
 62
         2
100
AcDbLine
 10
-11.586465325
 20
91.6905882133
 30
0.0
 11
-6.0864651909
 21
91.6905882133
 31
0.0
  0
LINE
  5
58
100
AcDbEntity
  8
LAYER0
 62
         2
100
AcDbLine
 10
-11.586465325
 20
74.0905889881
 30
0.0
 11
-11.586465325
 21
75.5905889881
 31
0.0
  0
LINE
  5
59
100
AcDbEntity
  8
LAYER0
 62
         2
100
AcDbLine
 10
-11.586465325
 20
74.0905889881
 30
0.0
 11
-11.586465325
 21
91.6905882133
 31
0.0
  0
LINE
  5
5A
100
AcDbEntity
  8
LAYER0
 62
         2
100
AcDbLine
 10
-11.586465325
 20
89.3905886007
 30
0.0
 11
-9.586465325
 21
89.3905886007
 31
0.0
  0
LINE
  5
5B
100
AcDbEntity
  8
LAYER0
 62
         2
100
AcDbLine
 10
-11.586465325
 20
76.3905886007
 30
0.0
 11
-9.586465325
 21
76.3905886007
 31
0.0
  0
LINE
  5
5C
100
AcDbEntity
  8
LAYER0
 62
         2
100
AcDbLine
 10
-9.086465325
 20
76.8905886007
 30
0.0
 11
-9.086465325
 21
88.8905886007
 31
0.0
  0
ARC
  5
5D
100
AcDbEntity
  8
LAYER0
 62
         2
100
AcDbCircle
 10
-9.586465325
 20
76.8905886007
 30
0.0
 40
0.5
210
-0.0
220
0.0
230
1.0
100
AcDbArc
 50
269.9999984648
 51
0.0
  0
ARC
  5
5E
100
AcDbEntity
  8
LAYER0
 62
         2
100
AcDbCircle
 10
-9.586465325
 20
88.8905886007
 30
0.0
 40
0.5
210
0.0
220
-0.0
230
1.0
100
AcDbArc
 50
0.0
 51
90.0000015352
  0
ARC
  5
5F
100
AcDbEntity
  8
LAYER0
 62
         2
100
AcDbCircle
 10
-6.0864651909
 20
75.5905889881
 30
0.0
 40
1.5
210
-0.0
220
0.0
230
1.0
100
AcDbArc
 50
269.9999984648
 51
0.0
  0
ARC
  5
60
100
AcDbEntity
  8
LAYER0
 62
         2
100
AcDbCircle
 10
-6.0864651909
 20
90.1905882133
 30
0.0
 40
1.5
210
0.0
220
-0.0
230
1.0
100
AcDbArc
 50
0.0
 51
90.0000015352
  0
LINE
  5
61
100
AcDbEntity
  8
LAYER0
 62
         2
100
AcDbLine
 10
-4.0864651909
 20
87.8905886007
 30
0.0
 11
-4.5864651909
 21
87.8905886007
 31
0.0
  0
LINE
  5
62
100
AcDbEntity
  8
LAYER0
 62
         2
100
AcDbLine
 10
-4.0864651909
 20
89.6905886007
 30
0.0
 11
-4.5864651909
 21
89.6905886007
 31
0.0
  0
LINE
  5
63
100
AcDbEntity
  8
LAYER0
 62
         2
100
AcDbLine
 10
-4.0864651909
 20
87.8905886007
 30
0.0
 11
-4.0864651909
 21
89.6905886007
 31
0.0
  0
LINE
  5
64
100
AcDbEntity
  8
LAYER0
 62
         2
100
AcDbLine
 10
-4.0864651909
 20
77.8905886007
 30
0.0
 11
-4.5864651909
 21
77.8905886007
 31
0.0
  0
LINE
  5
65
100
AcDbEntity
  8
LAYER0
 62
         2
100
AcDbLine
 10
-4.0864651909
 20
76.0905886007
 30
0.0
 11
-4.5864651909
 21
76.0905886007
 31
0.0
  0
LINE
  5
66
100
AcDbEntity
  8
LAYER0
 62
         2
100
AcDbLine
 10
-4.0864651909
 20
77.8905886007
 30
0.0
 11
-4.0864651909
 21
76.0905886007
 31
0.0
  0
ENDBLK
  5
67
100
AcDbEntity
  8
0
100
AcDbBlockEnd
  0
BLOCK
  5
C3
100
AcDbEntity
  8
0
100
AcDbBlockBegin
  2
CLUMP4
 70
         0
 10
0.0
 20
0.0
 30
0.0
  3

  1

  0
INSERT
  5
C5
100
AcDbEntity
  8
0
100
AcDbBlockReference
  2
CLUMP5
 10
0.0
 20
0.0
 30
0.0
  0
ENDBLK
  5
DD
100
AcDbEntity
  8
0
100
AcDbBlockEnd
  0
BLOCK
  5
C6
100
AcDbEntity
  8
0
100
AcDbBlockBegin
  2
CLUMP5
 70
         0
 10
0.0
 20
0.0
 30
0.0
  3

  1

  0
LINE
  5
C7
100
AcDbEntity
  8
LAYER0
 62
         3
100
AcDbLine
 10
-33.0864652896
 20
69.8905886603
 30
0.0
 11
-33.0864652896
 21
71.3905886603
 31
0.0
  0
LINE
  5
C8
100
AcDbEntity
  8
LAYER0
 62
         3
100
AcDbLine
 10
-7.0864652896
 20
41.9905886603
 30
0.0
 11
-7.0864652896
 21
47.7295246302
 31
0.0
  0
LINE
  5
C9
100
AcDbEntity
  8
LAYER0
 62
         3
100
AcDbLine
 10
-8.5864652896
 20
41.9905886603
 30
0.0
 11
-7.0864652896
 21
41.9905886603
 31
0.0
  0
LINE
  5
CA
100
AcDbEntity
  8
LAYER0
 62
         3
100
AcDbLine
 10
-33.0864652896
 20
71.3905886603
 30
0.0
 11
-19.0864652896
 21
71.3905886603
 31
0.0
  0
ARC
  5
CB
100
AcDbEntity
  8
LAYER0
 62
         3
100
AcDbCircle
 10
-32.5864652896
 20
69.8905886603
 30
0.0
 40
0.5
210
0.0
220
0.0
230
1.0
100
AcDbArc
 50
180.0000030705
 51
269.9999984648
  0
ARC
  5
CC
100
AcDbEntity
  8
LAYER0
 62
         3
100
AcDbCircle
 10
-8.5864652896
 20
42.4905886603
 30
0.0
 40
0.5
210
0.0
220
0.0
230
1.0
100
AcDbArc
 50
180.0000030705
 51
269.9999984648
  0
LINE
  5
CD
100
AcDbEntity
  8
LAYER0
 62
         3
100
AcDbLine
 10
-32.5864652896
 20
69.3905886603
 30
0.0
 11
-19.0864652896
 21
69.3905886603
 31
0.0
  0
LINE
  5
CE
100
AcDbEntity
  8
LAYER0
 62
         5
100
AcDbLine
 10
-25.3864652896
 20
71.3905886603
 30
0.0
 11
-25.3864652896
 21
69.3905886603
 31
0.0
  0
LINE
  5
CF
100
AcDbEntity
  8
LAYER0
 62
         5
100
AcDbLine
 10
-25.5864652896
 20
71.3905886603
 30
0.0
 11
-25.5864652896
 21
69.3905886603
 31
0.0
  0
LINE
  5
D0
100
AcDbEntity
  8
LAYER0
 62
         5
100
AcDbLine
 10
-20.5864652896
 20
69.3905886603
 30
0.0
 11
-20.5864652896
 21
71.3905886603
 31
0.0
  0
LINE
  5
D1
100
AcDbEntity
  8
LAYER0
 62
         5
100
AcDbLine
 10
-20.7864652896
 20
69.3905886603
 30
0.0
 11
-20.7864652896
 21
71.3905886603
 31
0.0
  0
ARC
  5
D2
100
AcDbEntity
  8
LAYER0
 62
         3
100
AcDbCircle
 10
-31.0864652896
 20
47.7295246302
 30
0.0
 40
22.0
210
0.0
220
0.0
230
1.0
100
AcDbArc
 50
0.0
 51
33.6900681007
  0
LINE
  5
D3
100
AcDbEntity
  8
LAYER0
 62
         3
100
AcDbLine
 10
-17.422364701
 20
70.4999890528
 30
0.0
 11
-11.1172582255
 21
61.0423293396
 31
0.0
  0
ARC
  5
D4
100
AcDbEntity
  8
LAYER0
 62
         3
100
AcDbCircle
 10
-31.0864652896
 20
47.7295246302
 30
0.0
 40
24.0
210
0.0
220
0.0
230
1.0
100
AcDbArc
 50
0.0
 51
33.6900681007
  0
LINE
  5
D5
100
AcDbEntity
  8
LAYER0
 62
         3
100
AcDbLine
 10
-9.0864652896
 20
42.4905886603
 30
0.0
 11
-9.0864652896
 21
47.7295246302
 31
0.0
  0
LINE
  5
D6
100
AcDbEntity
  8
LAYER0
 62
         3
100
AcDbLine
 10
-19.0864652896
 20
69.3905886603
 30
0.0
 11
-12.7813588142
 21
59.9329289472
 31
0.0
  0
LINE
  5
D7
100
AcDbEntity
  8
LAYER0
 62
         5
100
AcDbLine
 10
-11.314561323
 20
61.3382839858
 30
0.0
 11
-12.5626367645
 21
60.5062336915
 31
0.0
  0
LINE
  5
D8
100
AcDbEntity
  8
LAYER0
 62
         5
100
AcDbLine
 10
-7.1257968835
 20
49.1029763149
 30
0.0
 11
-8.6288857948
 21
49.0168176168
 31
0.0
  0
ARC
  5
D9
100
AcDbEntity
  8
LAYER0
 62
         3
100
AcDbCircle
 10
-19.0864652896
 20
69.3905886603
 30
0.0
 40
2.0
210
0.0
220
-0.0
230
1.0
100
AcDbArc
 50
33.6900681007
 51
90.0000015352
  0
ARC
  5
DA
100
AcDbEntity
  8
LAYER0
 62
         5
100
AcDbCircle
 10
-8.600272218
 20
48.517637025
 30
0.0
 40
0.5
210
0.0
220
0.0
230
1.0
100
AcDbArc
 50
93.2806682947
 51
182.0073193059
  0
ARC
  5
DB
100
AcDbEntity
  8
LAYER0
 62
         5
100
AcDbCircle
 10
-12.8399868626
 20
60.9222588386
 30
0.0
 40
0.5
210
0.0
220
0.0
230
1.0
100
AcDbArc
 50
213.6900650302
 51
303.6900665654
  0
ENDBLK
  5
DC
100
AcDbEntity
  8
0
100
AcDbBlockEnd
  0
BLOCK
  5
109
100
AcDbEntity
  8
0
100
AcDbBlockBegin
  2
CLUMP6
 70
         0
 10
0.0
 20
0.0
 30
0.0
  3

  1

  0
INSERT
  5
10B
100
AcDbEntity
  8
0
100
AcDbBlockReference
  2
CLUMP7
 10
0.0
 20
0.0
 30
0.0
  0
ENDBLK
  5
130
100
AcDbEntity
  8
0
100
AcDbBlockEnd
  0
BLOCK
  5
10C
100
AcDbEntity
  8
0
100
AcDbBlockBegin
  2
CLUMP7
 70
         0
 10
0.0
 20
0.0
 30
0.0
  3

  1

  0
LINE
  5
10D
100
AcDbEntity
  8
LAYER0
 62
         4
100
AcDbLine
 10
17.2037635798
 20
65.3905886007
 30
0.0
 11
12.6233061389
 21
65.3905886007
 31
0.0
  0
LINE
  5
10E
100
AcDbEntity
  8
LAYER0
 62
         4
100
AcDbLine
 10
10.9135348594
 20
66.5452891391
 30
0.0
 11
10.9135348594
 21
68.2358881219
 31
0.0
  0
LINE
  5
10F
100
AcDbEntity
  8
LAYER0
 62
         4
100
AcDbLine
 10
12.6233056721
 20
69.3905886007
 30
0.0
 11
17.2037640466
 21
69.3905886007
 31
0.0
  0
LINE
  5
110
100
AcDbEntity
  8
LAYER0
 62
         4
100
AcDbLine
 10
18.9135348594
 20
68.2358881219
 30
0.0
 11
18.9135348594
 21
66.5452891391
 31
0.0
  0
LINE
  5
111
100
AcDbEntity
  8
LAYER0
 62
         4
100
AcDbLine
 10
14.9135348594
 20
69.3905886007
 30
0.0
 11
14.9135348594
 21
66.5452891391
 31
0.0
  0
ARC
  5
112
100
AcDbEntity
  8
LAYER0
 62
         4
100
AcDbCircle
 10
12.9135348594
 20
67.6635158441
 30
0.0
 40
2.2913818895
210
0.0
220
0.0
230
1.0
100
AcDbArc
 50
209.2101359122
 51
330.7898610173
  0
ARC
  5
113
100
AcDbEntity
  8
LAYER0
 62
         4
100
AcDbCircle
 10
16.9135348594
 20
67.6635158441
 30
0.0
 40
2.2913818895
210
0.0
220
0.0
230
1.0
100
AcDbArc
 50
209.2101359122
 51
330.7898610173
  0
ARC
  5
114
100
AcDbEntity
  8
LAYER0
 62
         4
100
AcDbCircle
 10
16.9135348594
 20
67.6635158441
 30
0.0
 40
2.2913818895
210
0.0
220
0.0
230
1.0
100
AcDbArc
 50
209.2101359122
 51
330.7898610173
  0
ARC
  5
115
100
AcDbEntity
  8
LAYER0
 62
         4
100
AcDbCircle
 10
16.9135348594
 20
67.6635158441
 30
0.0
 40
2.2913818895
210
0.0
220
0.0
230
1.0
100
AcDbArc
 50
209.2101359122
 51
330.7898610173
  0
ARC
  5
116
100
AcDbEntity
  8
LAYER0
 62
         4
100
AcDbCircle
 10
16.9135348594
 20
67.117661417
 30
0.0
 40
2.2913818895
210
0.0
220
-0.0
230
1.0
100
AcDbArc
 50
29.2101389827
 51
150.7898640878
  0
ARC
  5
117
100
AcDbEntity
  8
LAYER0
 62
         4
100
AcDbCircle
 10
12.9135348594
 20
67.117661417
 30
0.0
 40
2.2913818895
210
0.0
220
-0.0
230
1.0
100
AcDbArc
 50
29.2101389827
 51
150.7898640878
  0
LINE
  5
118
100
AcDbEntity
  8
LAYER0
 62
         2
100
AcDbLine
 10
10.4135348594
 20
95.3905886007
 30
0.0
 11
19.4135348594
 21
95.3905886007
 31
0.0
  0
LINE
  5
119
100
AcDbEntity
  8
LAYER0
 62
         2
100
AcDbLine
 10
10.4135348594
 20
95.3905886007
 30
0.0
 11
10.4998891872
 21
97.0383273331
 31
0.0
  0
LINE
  5
11A
100
AcDbEntity
  8
LAYER0
 62
         2
100
AcDbLine
 10
19.4135348594
 20
95.3905886007
 30
0.0
 11
19.3271805316
 21
97.0383273331
 31
0.0
  0
ARC
  5
11B
100
AcDbEntity
  8
LAYER0
 62
         2
100
AcDbCircle
 10
11.7372529408
 20
96.9734798466
 30
0.0
 40
1.2390618448
210
0.0
220
0.0
230
1.0
100
AcDbArc
 50
104.3518866729
 51
177.0000030193
  0
ARC
  5
11C
100
AcDbEntity
  8
LAYER0
 62
         2
100
AcDbCircle
 10
18.0898167779
 20
96.9734798466
 30
0.0
 40
1.2390618448
210
0.0
220
0.0
230
1.0
100
AcDbArc
 50
3.0000000512
 51
75.6481163975
  0
ARC
  5
11D
100
AcDbEntity
  8
LAYER0
 62
         2
100
AcDbCircle
 10
14.9135348594
 20
86.6905886007
 30
0.0
 40
12.0
210
0.0
220
-0.0
230
1.0
100
AcDbArc
 50
73.1250012474
 51
106.8750018231
  0
LINE
  5
11E
100
AcDbEntity
  8
LAYER0
 62
         2
100
AcDbLine
 10
14.9135348594
 20
98.6905886007
 30
0.0
 11
14.9135348594
 21
97.0405886007
 31
0.0
  0
LINE
  5
11F
100
AcDbEntity
  8
LAYER0
 62
         2
100
AcDbLine
 10
20.4135348594
 20
94.3905886007
 30
0.0
 11
9.4135348594
 21
94.3905886007
 31
0.0
  0
LINE
  5
120
100
AcDbEntity
  8
LAYER0
 62
         2
100
AcDbLine
 10
20.4135348594
 20
94.3905886007
 30
0.0
 11
20.4135348594
 21
95.3905886007
 31
0.0
  0
LINE
  5
121
100
AcDbEntity
  8
LAYER0
 62
         2
100
AcDbLine
 10
9.4135348594
 20
94.3905886007
 30
0.0
 11
9.4135348594
 21
95.3905886007
 31
0.0
  0
ARC
  5
122
100
AcDbEntity
  8
LAYER0
 62
         4
100
AcDbCircle
 10
14.9135348594
 20
65.3905886007
 30
0.0
 40
3.0
210
0.0
220
-0.0
230
1.0
100
AcDbArc
 50
176.0283118059
 51
3.9716912646
  0
LINE
  5
123
100
AcDbEntity
  8
LAYER0
 62
         2
100
AcDbLine
 10
20.4135348594
 20
95.3905886007
 30
0.0
 11
9.4135348594
 21
95.3905886007
 31
0.0
  0
LINE
  5
124
100
AcDbEntity
  8
LAYER0
 62
         2
100
AcDbLine
 10
12.4135348594
 20
95.1905886007
 30
0.0
 11
12.4135348594
 21
66.2905886007
 31
0.0
  0
LINE
  5
125
100
AcDbEntity
  8
LAYER0
 62
         5
100
AcDbLine
 10
12.8135348594
 20
95.3905886007
 30
0.0
 11
12.8135348594
 21
65.8905886007
 31
0.0
  0
LINE
  5
126
100
AcDbEntity
  8
LAYER0
 62
         2
100
AcDbLine
 10
12.4135348594
 20
66.2905886007
 30
0.0
 11
17.4135348594
 21
66.2905886007
 31
0.0
  0
LINE
  5
127
100
AcDbEntity
  8
LAYER0
 62
         2
100
AcDbLine
 10
17.4135348594
 20
95.1905886007
 30
0.0
 11
17.4135348594
 21
66.2905886007
 31
0.0
  0
LINE
  5
128
100
AcDbEntity
  8
LAYER0
 62
         5
100
AcDbLine
 10
17.0135348594
 20
95.3905886007
 30
0.0
 11
17.0135348594
 21
65.8905886007
 31
0.0
  0
ARC
  5
129
100
AcDbEntity
  8
LAYER0
 62
         2
100
AcDbCircle
 10
12.2135348594
 20
95.1905886007
 30
0.0
 40
0.2
210
0.0
220
-0.0
230
1.0
100
AcDbArc
 50
0.0
 51
90.0000015352
  0
ARC
  5
12A
100
AcDbEntity
  8
LAYER0
 62
         2
100
AcDbCircle
 10
17.6135348594
 20
95.1905886007
 30
0.0
 40
0.2
210
0.0
220
0.0
230
1.0
100
AcDbArc
 50
90.0000015352
 51
179.9999969295
  0
LINE
  5
12B
100
AcDbEntity
  8
LAYER0
 62
         2
100
AcDbLine
 10
13.3135348594
 20
65.3905886007
 30
0.0
 11
16.5135348594
 21
65.3905886007
 31
0.0
  0
LINE
  5
12C
100
AcDbEntity
  8
LAYER0
 62
         2
100
AcDbLine
 10
12.4135348594
 20
66.2905886007
 30
0.0
 11
13.3135348594
 21
65.3905886007
 31
0.0
  0
LINE
  5
12D
100
AcDbEntity
  8
LAYER0
 62
         2
100
AcDbLine
 10
17.4135348594
 20
66.2905886007
 30
0.0
 11
16.5135348594
 21
65.3905886007
 31
0.0
  0
LINE
  5
12E
100
AcDbEntity
  8
LAYER0
 62
         5
100
AcDbLine
 10
17.4135348594
 20
82.9905886007
 30
0.0
 11
17.3885348594
 21
82.8905886007
 31
0.0
  0
ENDBLK
  5
12F
100
AcDbEntity
  8
0
100
AcDbBlockEnd
  0
BLOCK
  5
133
100
AcDbEntity
  8
0
100
AcDbBlockBegin
  2
CLUMP8
 70
         0
 10
0.0
 20
0.0
 30
0.0
  3

  1

  0
INSERT
  5
135
100
AcDbEntity
  8
0
100
AcDbBlockReference
  2
CLUMP9
 10
0.0
 20
0.0
 30
0.0
  0
ENDBLK
  5
141
100
AcDbEntity
  8
0
100
AcDbBlockEnd
  0
BLOCK
  5
136
100
AcDbEntity
  8
0
100
AcDbBlockBegin
  2
CLUMP9
 70
         0
 10
0.0
 20
0.0
 30
0.0
  3

  1

  0
LINE
  5
137
100
AcDbEntity
  8
LAYER0
 62
         2
100
AcDbLine
 10
12.4135347849
 20
49.9905886603
 30
0.0
 11
12.4135347849
 21
59.9905886603
 31
0.0
  0
LINE
  5
138
100
AcDbEntity
  8
LAYER0
 62
         2
100
AcDbLine
 10
-20.5864652151
 20
49.9905886603
 30
0.0
 11
-20.5864652151
 21
59.9905886603
 31
0.0
  0
ARC
  5
139
100
AcDbEntity
  8
LAYER0
 62
         2
100
AcDbCircle
 10
-4.0864652151
 20
-7.0719113397
 30
0.0
 40
69.0625
210
0.0
220
-0.0
230
1.0
100
AcDbArc
 50
76.1775470614
 51
103.8224560091
  0
ARC
  5
13A
100
AcDbEntity
  8
LAYER0
 62
         2
100
AcDbCircle
 10
-4.0864652151
 20
117.0530886603
 30
0.0
 40
69.0625
210
0.0
220
0.0
230
1.0
100
AcDbArc
 50
256.1775439909
 51
283.8224529386
  0
LINE
  5
13B
100
AcDbEntity
  8
LAYER0
 62
         2
100
AcDbLine
 10
7.7135347849
 20
57.3905886603
 30
0.0
 11
-15.8864652151
 21
57.3905886603
 31
0.0
  0
LINE
  5
13C
100
AcDbEntity
  8
LAYER0
 62
         2
100
AcDbLine
 10
7.7135347849
 20
52.5905886603
 30
0.0
 11
-15.8864652151
 21
52.5905886603
 31
0.0
  0
ARC
  5
13D
100
AcDbEntity
  8
LAYER0
 62
         2
100
AcDbCircle
 10
7.7135347849
 20
54.9905886603
 30
0.0
 40
2.4
210
0.0
220
0.0
230
1.0
100
AcDbArc
 50
269.9999984648
 51
90.0000015352
  0
ARC
  5
13E
100
AcDbEntity
  8
LAYER0
 62
         2
100
AcDbCircle
 10
-15.8864652151
 20
54.9905886603
 30
0.0
 40
2.4
210
0.0
220
0.0
230
1.0
100
AcDbArc
 50
90.0000015352
 51
269.9999984648
  0
LINE
  5
13F
100
AcDbEntity
  8
LAYER0
  6
CENTER
100
AcDbLine
 10
11.2233751005
 20
54.9905886603
 30
0.0
 11
-19.2824230444
 21
54.9905886603
 31
0.0
  0
ENDBLK
  5
140
100
AcDbEntity
  8
0
100
AcDbBlockEnd
  0
BLOCK
  5
144
100
AcDbEntity
  8
0
100
AcDbBlockBegin
  2
CLUMP10
 70
         0
 10
0.0
 20
0.0
 30
0.0
  3

  1

  0
INSERT
  5
146
100
AcDbEntity
  8
0
100
AcDbBlockReference
  2
CLUMP11
 10
0.0
 20
0.0
 30
0.0
  0
ENDBLK
  5
1C2
100
AcDbEntity
  8
0
100
AcDbBlockEnd
  0
BLOCK
  5
147
100
AcDbEntity
  8
0
100
AcDbBlockBegin
  2
CLUMP11
 70
         0
 10
0.0
 20
0.0
 30
0.0
  3

  1

  0
LINE
  5
148
100
AcDbEntity
  8
LAYER0
 62
         6
100
AcDbLine
 10
2.8277484813
 20
93.915714807
 30
0.0
 11
0.2792202098
 21
96.4642430785
 31
0.0
  0
LINE
  5
149
100
AcDbEntity
  8
LAYER0
 62
         6
100
AcDbLine
 10
5.9135352468
 20
66.8905885262
 30
0.0
 11
1.9055658065
 21
66.8905885262
 31
0.0
  0
LINE
  5
14A
100
AcDbEntity
  8
LAYER0
 62
         6
100
AcDbLine
 10
3.8884086531
 20
70.8048022227
 30
0.0
 11
1.3398803816
 21
68.2562739512
 31
0.0
  0
LINE
  5
14B
100
AcDbEntity
  8
LAYER0
 62
         6
100
AcDbLine
 10
-1.0864652151
 20
73.8905889881
 30
0.0
 11
-1.0864652151
 21
69.8826195479
 31
0.0
  0
LINE
  5
14C
100
AcDbEntity
  8
LAYER0
 62
         6
100
AcDbLine
 10
2.8277484813
 20
71.8654623945
 30
0.0
 11
0.2792202098
 21
69.3169341229
 31
0.0
  0
LINE
  5
14D
100
AcDbEntity
  8
LAYER0
 62
         6
100
AcDbLine
 10
14.3135348594
 20
71.3905886603
 30
0.0
 11
5.3026222155
 21
71.3905886603
 31
0.0
  0
LINE
  5
14E
100
AcDbEntity
  8
LAYER0
 62
         6
100
AcDbLine
 10
5.9135352468
 20
66.8905885262
 30
0.0
 11
5.9135352468
 21
65.8905876768
 31
0.0
  0
ARC
  5
14F
100
AcDbEntity
  8
LAYER0
 62
         6
100
AcDbCircle
 10
5.4135348594
 20
65.8905886007
 30
0.0
 40
0.5
210
0.0
220
0.0
230
1.0
100
AcDbArc
 50
269.9999984648
 51
359.9999969295
  0
LINE
  5
150
100
AcDbEntity
  8
LAYER0
 62
         6
100
AcDbLine
 10
5.4135351648
 20
65.3905885262
 30
0.0
 11
0.9135347849
 21
65.3905885262
 31
0.0
  0
LINE
  5
151
100
AcDbEntity
  8
LAYER0
 62
         6
100
AcDbLine
 10
5.3026222155
 20
94.3905885411
 30
0.0
 11
14.3135348594
 21
94.3905885411
 31
0.0
  0
LINE
  5
152
100
AcDbEntity
  8
LAYER0
 62
         6
100
AcDbLine
 10
-2.5864652151
 20
68.8905885262
 30
0.0
 11
-2.5864652151
 21
73.3905889062
 31
0.0
  0
ARC
  5
153
100
AcDbEntity
  8
LAYER0
 62
         6
100
AcDbCircle
 10
-2.0864651406
 20
73.3905886007
 30
0.0
 40
0.5
210
0.0
220
0.0
230
1.0
100
AcDbArc
 50
90.0000015352
 51
180.0
  0
LINE
  5
154
100
AcDbEntity
  8
LAYER0
 62
         6
100
AcDbLine
 10
-2.0864660645
 20
73.8905889881
 30
0.0
 11
-1.0864652151
 21
73.8905889881
 31
0.0
  0
LINE
  5
155
100
AcDbEntity
  8
LAYER0
 62
         6
100
AcDbLine
 10
3.413534919
 20
73.2796759568
 30
0.0
 11
3.413534919
 21
82.2905886007
 31
0.0
  0
LINE
  5
156
100
AcDbEntity
  8
LAYER0
 62
         6
100
AcDbLine
 10
3.413534919
 20
82.2905886007
 30
0.0
 11
3.9135350009
 21
82.8905886007
 31
0.0
  0
LINE
  5
157
100
AcDbEntity
  8
LAYER0
 62
         6
100
AcDbLine
 10
3.9135350009
 20
82.8905886007
 30
0.0
 11
3.413534919
 21
83.4905886007
 31
0.0
  0
LINE
  5
158
100
AcDbEntity
  8
LAYER0
 62
         6
100
AcDbLine
 10
5.9135352468
 20
98.8905886752
 30
0.0
 11
5.9135352468
 21
99.8905895246
 31
0.0
  0
ARC
  5
159
100
AcDbEntity
  8
LAYER0
 62
         6
100
AcDbCircle
 10
5.4135348594
 20
99.8905886007
 30
0.0
 40
0.5
210
-0.0
220
-0.0
230
1.0
100
AcDbArc
 50
359.9999969295
 51
90.0000015352
  0
LINE
  5
15A
100
AcDbEntity
  8
LAYER0
 62
         6
100
AcDbLine
 10
5.4135351648
 20
100.3905886752
 30
0.0
 11
0.9135347849
 21
100.3905886752
 31
0.0
  0
LINE
  5
15B
100
AcDbEntity
  8
LAYER0
 62
         6
100
AcDbLine
 10
-2.5864652151
 20
96.8905886752
 30
0.0
 11
-2.5864652151
 21
92.3905882953
 31
0.0
  0
ARC
  5
15C
100
AcDbEntity
  8
LAYER0
 62
         6
100
AcDbCircle
 10
-2.0864651406
 20
92.3905886007
 30
0.0
 40
0.5
210
0.0
220
0.0
230
1.0
100
AcDbArc
 50
180.0
 51
269.9999984648
  0
LINE
  5
15D
100
AcDbEntity
  8
LAYER0
 62
         6
100
AcDbLine
 10
14.9135348594
 20
71.8905887423
 30
0.0
 11
14.3135348594
 21
71.3905886603
 31
0.0
  0
LINE
  5
15E
100
AcDbEntity
  8
LAYER0
 62
         6
100
AcDbLine
 10
24.5244475032
 20
94.3905885411
 30
0.0
 11
15.5135348594
 21
94.3905885411
 31
0.0
  0
LINE
  5
15F
100
AcDbEntity
  8
LAYER0
 62
         6
100
AcDbLine
 10
24.8780008938
 20
71.3905886603
 30
0.0
 11
15.5135348594
 21
71.3905886603
 31
0.0
  0
LINE
  5
160
100
AcDbEntity
  8
LAYER0
 62
         6
100
AcDbLine
 10
3.413534919
 20
92.5015012446
 30
0.0
 11
3.413534919
 21
83.4905886007
 31
0.0
  0
ARC
  5
161
100
AcDbEntity
  8
LAYER0
 62
         6
100
AcDbCircle
 10
5.3026222155
 20
69.3905886603
 30
0.0
 40
2.0
210
0.0
220
0.0
230
1.0
100
AcDbArc
 50
90.0000015352
 51
135.0000038381
  0
ARC
  5
162
100
AcDbEntity
  8
LAYER0
 62
         6
100
AcDbCircle
 10
1.413534919
 20
73.2796759568
 30
0.0
 40
2.0
210
0.0
220
0.0
230
1.0
100
AcDbArc
 50
314.9999946267
 51
359.9999969295
  0
ARC
  5
163
100
AcDbEntity
  8
LAYER0
 62
         6
100
AcDbCircle
 10
1.413534919
 20
92.5015012446
 30
0.0
 40
2.0
210
-0.0
220
0.0
230
1.0
100
AcDbArc
 50
359.9999969295
 51
44.9999992324
  0
ARC
  5
164
100
AcDbEntity
  8
LAYER0
 62
         6
100
AcDbCircle
 10
5.3026222155
 20
96.3905885411
 30
0.0
 40
2.0
210
0.0
220
0.0
230
1.0
100
AcDbArc
 50
225.0000023029
 51
269.9999984648
  0
ARC
  5
165
100
AcDbEntity
  8
LAYER0
 62
         6
100
AcDbCircle
 10
1.9055658065
 20
98.0905886752
 30
0.0
 40
0.8
210
0.0
220
0.0
230
1.0
100
AcDbArc
 50
90.0000015352
 51
225.0000023029
  0
ARC
  5
166
100
AcDbEntity
  8
LAYER0
 62
         6
100
AcDbCircle
 10
-0.2864652151
 20
95.8985576535
 30
0.0
 40
0.8
210
0.0
220
-0.0
230
1.0
100
AcDbArc
 50
44.9999992324
 51
180.0
  0
ARC
  5
167
100
AcDbEntity
  8
LAYER0
 62
         6
100
AcDbCircle
 10
1.9055658065
 20
67.6905885262
 30
0.0
 40
0.8
210
0.0
220
0.0
230
1.0
100
AcDbArc
 50
135.0000038381
 51
269.9999984648
  0
ARC
  5
168
100
AcDbEntity
  8
LAYER0
 62
         6
100
AcDbCircle
 10
-0.2864652151
 20
69.8826195479
 30
0.0
 40
0.8
210
0.0
220
0.0
230
1.0
100
AcDbArc
 50
180.0
 51
314.9999946267
  0
LINE
  5
169
100
AcDbEntity
  8
LAYER0
 62
         6
100
AcDbLine
 10
27.9215039122
 20
98.8905886752
 30
0.0
 11
23.913534472
 21
98.8905886752
 31
0.0
  0
LINE
  5
16A
100
AcDbEntity
  8
LAYER0
 62
         6
100
AcDbLine
 10
27.9215039122
 20
66.8905885262
 30
0.0
 11
23.913534472
 21
66.8905885262
 31
0.0
  0
LINE
  5
16B
100
AcDbEntity
  8
LAYER0
 62
         6
100
AcDbLine
 10
23.913534472
 20
66.8905885262
 30
0.0
 11
23.913534472
 21
65.8905876768
 31
0.0
  0
ARC
  5
16C
100
AcDbEntity
  8
LAYER0
 62
         6
100
AcDbCircle
 10
24.4135348594
 20
65.8905886007
 30
0.0
 40
0.5
210
0.0
220
0.0
230
1.0
100
AcDbArc
 50
180.0
 51
269.9999984648
  0
LINE
  5
16D
100
AcDbEntity
  8
LAYER0
 62
         6
100
AcDbLine
 10
24.4135345539
 20
65.3905885262
 30
0.0
 11
33.4135349339
 21
65.3905885262
 31
0.0
  0
LINE
  5
16E
100
AcDbEntity
  8
LAYER0
 62
         6
100
AcDbLine
 10
23.913534472
 20
98.8905886752
 30
0.0
 11
23.913534472
 21
99.8905895246
 31
0.0
  0
ARC
  5
16F
100
AcDbEntity
  8
LAYER0
 62
         6
100
AcDbCircle
 10
24.4135348594
 20
99.8905886007
 30
0.0
 40
0.5
210
0.0
220
0.0
230
1.0
100
AcDbArc
 50
90.0000015352
 51
180.0
  0
LINE
  5
170
100
AcDbEntity
  8
LAYER0
 62
         6
100
AcDbLine
 10
24.4135345539
 20
100.3905886752
 30
0.0
 11
27.9135348594
 21
100.3905886752
 31
0.0
  0
LINE
  5
171
100
AcDbEntity
  8
LAYER0
 62
         6
100
AcDbLine
 10
45.4135349339
 20
77.3905885262
 30
0.0
 11
45.4135349339
 21
81.3905886007
 31
0.0
  0
POINT
  5
172
100
AcDbEntity
  8
LAYER0
 62
         6
100
AcDbPoint
 10
14.9135348594
 20
82.8905886007
 30
0.0
  0
LINE
  5
173
100
AcDbEntity
  8
LAYER0
 62
         6
100
AcDbLine
 10
5.9135352468
 20
98.8905886752
 30
0.0
 11
1.9055658065
 21
98.8905886752
 31
0.0
  0
LINE
  5
174
100
AcDbEntity
  8
LAYER0
 62
         6
100
AcDbLine
 10
-1.0864652151
 20
91.8905882133
 30
0.0
 11
-1.0864652151
 21
95.8985576535
 31
0.0
  0
LINE
  5
175
100
AcDbEntity
  8
LAYER0
 62
         6
100
AcDbLine
 10
3.8884086531
 20
94.9763749787
 30
0.0
 11
1.3398803816
 21
97.5249032503
 31
0.0
  0
LINE
  5
176
100
AcDbEntity
  8
LAYER0
 62
         6
100
AcDbLine
 10
44.9135349339
 20
81.8905886007
 30
0.0
 11
36.5135349339
 21
81.8905886007
 31
0.0
  0
LINE
  5
177
100
AcDbEntity
  8
LAYER0
 62
         6
100
AcDbLine
 10
35.3135349339
 20
81.8905886007
 30
0.0
 11
26.7135346359
 21
81.8905886007
 31
0.0
  0
LINE
  5
178
100
AcDbEntity
  8
LAYER0
 62
         6
100
AcDbLine
 10
26.4135346359
 20
92.9157146431
 30
0.0
 11
26.4135346359
 21
82.1905886007
 31
0.0
  0
ARC
  5
179
100
AcDbEntity
  8
LAYER0
 62
         6
100
AcDbCircle
 10
27.9215039122
 20
98.0905886752
 30
0.0
 40
0.8
210
-0.0
220
-0.0
230
1.0
100
AcDbArc
 50
314.9999946267
 51
90.0000015352
  0
LINE
  5
17A
100
AcDbEntity
  8
LAYER0
 62
         6
100
AcDbLine
 10
25.9386610656
 20
94.9763749787
 30
0.0
 11
28.4871893371
 21
97.5249032503
 31
0.0
  0
LINE
  5
17B
100
AcDbEntity
  8
LAYER0
 62
         6
100
AcDbLine
 10
24.4135346359
 20
72.3905886603
 30
0.0
 11
19.4135348594
 21
72.3905886603
 31
0.0
  0
LINE
  5
17C
100
AcDbEntity
  8
LAYER0
 62
         6
100
AcDbLine
 10
26.4135346359
 20
80.5905886007
 30
0.0
 11
26.4135346359
 21
72.1583557772
 31
0.0
  0
LINE
  5
17D
100
AcDbEntity
  8
LAYER0
 62
         6
100
AcDbLine
 10
31.9135349339
 20
80.8905886007
 30
0.0
 11
26.7135346359
 21
80.8905886007
 31
0.0
  0
LINE
  5
17E
100
AcDbEntity
  8
LAYER0
 62
         6
100
AcDbLine
 10
33.4135349339
 20
66.3905885262
 30
0.0
 11
30.2135348594
 21
66.3905885262
 31
0.0
  0
LINE
  5
17F
100
AcDbEntity
  8
LAYER0
 62
         6
100
AcDbLine
 10
43.9135349339
 20
80.8905886007
 30
0.0
 11
39.9135349339
 21
80.8905886007
 31
0.0
  0
LINE
  5
180
100
AcDbEntity
  8
LAYER0
 62
         6
100
AcDbLine
 10
44.4135349339
 20
77.3905885262
 30
0.0
 11
44.4135349339
 21
80.3905886007
 31
0.0
  0
LINE
  5
181
100
AcDbEntity
  8
LAYER0
 62
         6
100
AcDbLine
 10
24.4135346359
 20
93.3905885411
 30
0.0
 11
19.4135348594
 21
93.3905885411
 31
0.0
  0
LINE
  5
182
100
AcDbEntity
  8
LAYER0
 62
         6
100
AcDbLine
 10
5.413534919
 20
72.3905886603
 30
0.0
 11
10.4135348594
 21
72.3905886603
 31
0.0
  0
LINE
  5
183
100
AcDbEntity
  8
LAYER0
 62
         6
100
AcDbLine
 10
5.413534919
 20
93.3905885411
 30
0.0
 11
10.4135348594
 21
93.3905885411
 31
0.0
  0
LINE
  5
184
100
AcDbEntity
  8
LAYER0
 62
         6
100
AcDbLine
 10
4.413534919
 20
92.3905885411
 30
0.0
 11
4.413534919
 21
87.3905886007
 31
0.0
  0
LINE
  5
185
100
AcDbEntity
  8
LAYER0
 62
         6
100
AcDbLine
 10
4.413534919
 20
78.3905886007
 30
0.0
 11
4.413534919
 21
73.3905886603
 31
0.0
  0
ARC
  5
186
100
AcDbEntity
  8
LAYER0
 62
         6
100
AcDbCircle
 10
5.413534919
 20
92.3905885411
 30
0.0
 40
1.0
210
0.0
220
0.0
230
1.0
100
AcDbArc
 50
90.0000015352
 51
179.9999984648
  0
ARC
  5
187
100
AcDbEntity
  8
LAYER0
 62
         6
100
AcDbCircle
 10
5.413534919
 20
73.3905886603
 30
0.0
 40
1.0
210
0.0
220
0.0
230
1.0
100
AcDbArc
 50
179.9999984648
 51
269.9999953943
  0
LINE
  5
188
100
AcDbEntity
  8
LAYER0
 62
         6
100
AcDbLine
 10
25.6457678468
 20
71.0976954415
 30
0.0
 11
28.4871893371
 21
68.2562739512
 31
0.0
  0
ARC
  5
189
100
AcDbEntity
  8
LAYER0
 62
         6
100
AcDbCircle
 10
24.9386610656
 20
70.3905886603
 30
0.0
 40
1.0
210
0.0
220
-0.0
230
1.0
100
AcDbArc
 50
45.0000023029
 51
90.0000046057
  0
ARC
  5
18A
100
AcDbEntity
  8
LAYER0
 62
         6
100
AcDbCircle
 10
27.9215039122
 20
67.6905885262
 30
0.0
 40
0.8
210
-0.0
220
0.0
230
1.0
100
AcDbArc
 50
269.9999953943
 51
45.0000023029
  0
LINE
  5
18B
100
AcDbEntity
  8
LAYER0
 62
         6
100
AcDbLine
 10
-2.0864660645
 20
91.8905882133
 30
0.0
 11
-1.0864652151
 21
91.8905882133
 31
0.0
  0
LINE
  5
18C
100
AcDbEntity
  8
LAYER0
 62
         6
100
AcDbLine
 10
14.3135348594
 20
94.3905885411
 30
0.0
 11
14.9135348594
 21
93.8905884592
 31
0.0
  0
LINE
  5
18D
100
AcDbEntity
  8
LAYER0
 62
         6
100
AcDbLine
 10
14.9135348594
 20
93.8905884592
 30
0.0
 11
15.5135348594
 21
94.3905885411
 31
0.0
  0
LINE
  5
18E
100
AcDbEntity
  8
LAYER0
 62
         6
100
AcDbLine
 10
15.5135348594
 20
71.3905886603
 30
0.0
 11
14.9135348594
 21
71.8905887423
 31
0.0
  0
LINE
  5
18F
100
AcDbEntity
  8
LAYER0
 62
         6
100
AcDbLine
 10
25.4135346359
 20
92.3905885411
 30
0.0
 11
25.4135346359
 21
73.3905886603
 31
0.0
  0
ARC
  5
190
100
AcDbEntity
  8
LAYER0
 62
         6
100
AcDbCircle
 10
27.4135346359
 20
72.1583557772
 30
0.0
 40
1.0
210
0.0
220
0.0
230
1.0
100
AcDbArc
 50
179.9999984648
 51
225.0
  0
ARC
  5
191
100
AcDbEntity
  8
LAYER0
 62
         6
100
AcDbCircle
 10
27.4135346359
 20
92.9157146431
 30
0.0
 40
1.0
210
0.0
220
0.0
230
1.0
100
AcDbArc
 50
135.0000030705
 51
179.9999984648
  0
ARC
  5
192
100
AcDbEntity
  8
LAYER0
 62
         6
100
AcDbCircle
 10
33.4135349339
 20
77.3905885262
 30
0.0
 40
12.0
210
0.0
220
0.0
230
1.0
100
AcDbArc
 50
269.9999953943
 51
359.9999984648
  0
ARC
  5
193
100
AcDbEntity
  8
LAYER0
 62
         6
100
AcDbCircle
 10
33.4135349339
 20
77.3905885262
 30
0.0
 40
11.0
210
0.0
220
0.0
230
1.0
100
AcDbArc
 50
269.9999953943
 51
359.9999984648
  0
ARC
  5
194
100
AcDbEntity
  8
LAYER0
 62
         6
100
AcDbCircle
 10
27.9135348594
 20
98.0905886752
 30
0.0
 40
2.3
210
-0.0
220
-0.0
230
1.0
100
AcDbArc
 50
359.9999984648
 51
90.0000015352
  0
LINE
  5
195
100
AcDbEntity
  8
LAYER0
 62
         6
100
AcDbLine
 10
30.2135348594
 20
98.0905886752
 30
0.0
 11
30.2135348594
 21
97.7512487725
 31
0.0
  0
ARC
  5
196
100
AcDbEntity
  8
LAYER0
 62
         6
100
AcDbCircle
 10
28.7135348594
 20
97.7512487725
 30
0.0
 40
1.5
210
0.0
220
0.0
230
1.0
100
AcDbArc
 50
314.9999969295
 51
359.9999984648
  0
LINE
  5
197
100
AcDbEntity
  8
LAYER0
 62
         6
100
AcDbLine
 10
29.7135348594
 20
66.8905885262
 30
0.0
 11
29.7135348594
 21
67.698557579
 31
0.0
  0
ARC
  5
198
100
AcDbEntity
  8
LAYER0
 62
         6
100
AcDbCircle
 10
27.9135348594
 20
67.698557579
 30
0.0
 40
1.8
210
-0.0
220
0.0
230
1.0
100
AcDbArc
 50
359.9999984648
 51
45.0
  0
ARC
  5
199
100
AcDbEntity
  8
LAYER0
 62
         6
100
AcDbCircle
 10
43.9135349339
 20
80.3905886007
 30
0.0
 40
0.5
210
-0.0
220
-0.0
230
1.0
100
AcDbArc
 50
359.9999984648
 51
90.0000015352
  0
ARC
  5
19A
100
AcDbEntity
  8
LAYER0
 62
         6
100
AcDbCircle
 10
30.2135348594
 20
66.8905885262
 30
0.0
 40
0.5
210
0.0
220
0.0
230
1.0
100
AcDbArc
 50
179.9999984648
 51
269.9999953943
  0
ARC
  5
19B
100
AcDbEntity
  8
LAYER0
 62
         6
100
AcDbCircle
 10
0.9135347849
 20
68.8905885262
 30
0.0
 40
3.5
210
0.0
220
0.0
230
1.0
100
AcDbArc
 50
179.9999984648
 51
269.9999953943
  0
ARC
  5
19C
100
AcDbEntity
  8
LAYER0
 62
         6
100
AcDbCircle
 10
0.9135347849
 20
96.8905886752
 30
0.0
 40
3.5
210
0.0
220
0.0
230
1.0
100
AcDbArc
 50
90.0000015352
 51
179.9999984648
  0
ARC
  5
19D
100
AcDbEntity
  8
LAYER0
 62
         6
100
AcDbCircle
 10
26.7135346359
 20
82.1905886007
 30
0.0
 40
0.3
210
0.0
220
0.0
230
1.0
100
AcDbArc
 50
179.9999984648
 51
269.9999953943
  0
ARC
  5
19E
100
AcDbEntity
  8
LAYER0
 62
         6
100
AcDbCircle
 10
26.7135346359
 20
80.5905886007
 30
0.0
 40
0.3
210
0.0
220
0.0
230
1.0
100
AcDbArc
 50
90.0000015352
 51
179.9999984648
  0
LINE
  5
19F
100
AcDbEntity
  8
LAYER0
 62
         6
100
AcDbLine
 10
33.9397065229
 20
79.6905886007
 30
0.0
 11
37.8873633448
 21
79.6905886007
 31
0.0
  0
LINE
  5
1A0
100
AcDbEntity
  8
LAYER0
 62
         6
100
AcDbLine
 10
39.9135349339
 20
80.8905886007
 30
0.0
 11
38.8244059162
 21
80.0192853865
 31
0.0
  0
LINE
  5
1A1
100
AcDbEntity
  8
LAYER0
 62
         6
100
AcDbLine
 10
33.0026639516
 20
80.0192853865
 30
0.0
 11
31.9135349339
 21
80.8905886007
 31
0.0
  0
ARC
  5
1A2
100
AcDbEntity
  8
LAYER0
 62
         6
100
AcDbCircle
 10
37.8873633448
 20
81.1905886007
 30
0.0
 40
1.5
210
0.0
220
0.0
230
1.0
100
AcDbArc
 50
269.9999953943
 51
308.6598049673
  0
ARC
  5
1A3
100
AcDbEntity
  8
LAYER0
 62
         6
100
AcDbCircle
 10
33.9397065229
 20
81.1905886007
 30
0.0
 40
1.5
210
0.0
220
0.0
230
1.0
100
AcDbArc
 50
231.3401919622
 51
269.9999953943
  0
LINE
  5
1A4
100
AcDbEntity
  8
LAYER0
 62
         6
100
AcDbLine
 10
26.7064278547
 20
93.6228214242
 30
0.0
 11
29.7741950311
 21
96.6905886007
 31
0.0
  0
ARC
  5
1A5
100
AcDbEntity
  8
LAYER0
 62
         6
100
AcDbCircle
 10
44.9135349339
 20
81.3905886007
 30
0.0
 40
0.5
210
-0.0
220
-0.0
230
1.0
100
AcDbArc
 50
359.9999969295
 51
90.0000015352
  0
LINE
  5
1A6
100
AcDbEntity
  8
LAYER0
 62
         6
100
AcDbLine
 10
35.3135349339
 20
81.8905886007
 30
0.0
 11
35.9135349339
 21
81.3905885188
 31
0.0
  0
LINE
  5
1A7
100
AcDbEntity
  8
LAYER0
 62
         6
100
AcDbLine
 10
35.9135349339
 20
81.3905885188
 30
0.0
 11
36.5135349339
 21
81.8905886007
 31
0.0
  0
LINE
  5
1A8
100
AcDbEntity
  8
LAYER0
 62
         6
100
AcDbLine
 10
18.3244058417
 20
73.2618918745
 30
0.0
 11
19.4135348594
 21
72.3905886603
 31
0.0
  0
ARC
  5
1A9
100
AcDbEntity
  8
LAYER0
 62
         6
100
AcDbCircle
 10
17.3873632703
 20
72.0905886603
 30
0.0
 40
1.5
210
0.0
220
-0.0
230
1.0
100
AcDbArc
 50
51.3401919622
 51
90.0000015352
  0
LINE
  5
1AA
100
AcDbEntity
  8
LAYER0
 62
         6
100
AcDbLine
 10
14.3135348594
 20
73.5905886603
 30
0.0
 11
14.9135348594
 21
73.0905885784
 31
0.0
  0
LINE
  5
1AB
100
AcDbEntity
  8
LAYER0
 62
         6
100
AcDbLine
 10
14.9135348594
 20
73.0905885784
 30
0.0
 11
15.5135348594
 21
73.5905886603
 31
0.0
  0
LINE
  5
1AC
100
AcDbEntity
  8
LAYER0
 62
         6
100
AcDbLine
 10
17.3873632703
 20
73.5905886603
 30
0.0
 11
15.5135348594
 21
73.5905886603
 31
0.0
  0
LINE
  5
1AD
100
AcDbEntity
  8
LAYER0
 62
         6
100
AcDbLine
 10
14.3135348594
 20
73.5905886603
 30
0.0
 11
12.4397064484
 21
73.5905886603
 31
0.0
  0
ARC
  5
1AE
100
AcDbEntity
  8
LAYER0
 62
         6
100
AcDbCircle
 10
12.4397064484
 20
72.0905886603
 30
0.0
 40
1.5
210
0.0
220
0.0
230
1.0
100
AcDbArc
 50
90.0000015352
 51
128.6598111083
  0
LINE
  5
1AF
100
AcDbEntity
  8
LAYER0
 62
         6
100
AcDbLine
 10
11.5026638771
 20
73.2618918745
 30
0.0
 11
10.4135348594
 21
72.3905886603
 31
0.0
  0
LINE
  5
1B0
100
AcDbEntity
  8
LAYER0
 62
         6
100
AcDbLine
 10
5.613534919
 20
80.4167601898
 30
0.0
 11
5.613534919
 21
85.3644170117
 31
0.0
  0
LINE
  5
1B1
100
AcDbEntity
  8
LAYER0
 62
         6
100
AcDbLine
 10
5.2848381331
 20
86.301459583
 30
0.0
 11
4.413534919
 21
87.3905886007
 31
0.0
  0
LINE
  5
1B2
100
AcDbEntity
  8
LAYER0
 62
         6
100
AcDbLine
 10
5.2848381331
 20
79.4797176184
 30
0.0
 11
4.413534919
 21
78.3905886007
 31
0.0
  0
ARC
  5
1B3
100
AcDbEntity
  8
LAYER0
 62
         6
100
AcDbCircle
 10
4.113534919
 20
80.4167601898
 30
0.0
 40
1.5
210
0.0
220
0.0
230
1.0
100
AcDbArc
 50
321.3401888917
 51
359.9999984648
  0
ARC
  5
1B4
100
AcDbEntity
  8
LAYER0
 62
         6
100
AcDbCircle
 10
4.113534919
 20
85.3644170117
 30
0.0
 40
1.5
210
-0.0
220
0.0
230
1.0
100
AcDbArc
 50
359.9999984648
 51
38.6598080378
  0
LINE
  5
1B5
100
AcDbEntity
  8
LAYER0
 62
         6
100
AcDbLine
 10
18.3244058417
 20
92.5192853269
 30
0.0
 11
19.4135348594
 21
93.3905885411
 31
0.0
  0
ARC
  5
1B6
100
AcDbEntity
  8
LAYER0
 62
         6
100
AcDbCircle
 10
17.3873632703
 20
93.6905885411
 30
0.0
 40
1.5
210
0.0
220
0.0
230
1.0
100
AcDbArc
 50
269.9999953943
 51
308.6598049673
  0
LINE
  5
1B7
100
AcDbEntity
  8
LAYER0
 62
         6
100
AcDbLine
 10
14.3135348594
 20
92.1905885411
 30
0.0
 11
14.9135348594
 21
92.6905886231
 31
0.0
  0
LINE
  5
1B8
100
AcDbEntity
  8
LAYER0
 62
         6
100
AcDbLine
 10
14.9135348594
 20
92.6905886231
 30
0.0
 11
15.5135348594
 21
92.1905885411
 31
0.0
  0
LINE
  5
1B9
100
AcDbEntity
  8
LAYER0
 62
         6
100
AcDbLine
 10
17.3873632703
 20
92.1905885411
 30
0.0
 11
15.5135348594
 21
92.1905885411
 31
0.0
  0
LINE
  5
1BA
100
AcDbEntity
  8
LAYER0
 62
         6
100
AcDbLine
 10
14.3135348594
 20
92.1905885411
 30
0.0
 11
12.4397064484
 21
92.1905885411
 31
0.0
  0
ARC
  5
1BB
100
AcDbEntity
  8
LAYER0
 62
         6
100
AcDbCircle
 10
12.4397064484
 20
93.6905885411
 30
0.0
 40
1.5
210
0.0
220
0.0
230
1.0
100
AcDbArc
 50
231.3401919622
 51
269.9999953943
  0
LINE
  5
1BC
100
AcDbEntity
  8
LAYER0
 62
         6
100
AcDbLine
 10
11.5026638771
 20
92.5192853269
 30
0.0
 11
10.4135348594
 21
93.3905885411
 31
0.0
  0
LINE
  5
1BD
100
AcDbEntity
  8
LAYER0
 62
         6
100
AcDbLine
 10
29.1863270655
 20
68.9713497852
 30
0.0
 11
26.7064278547
 21
71.451248996
 31
0.0
  0
ARC
  5
1BE
100
AcDbEntity
  8
LAYER0
 62
         6
100
AcDbCircle
 10
24.5244475032
 20
96.3905885411
 30
0.0
 40
2.0
210
0.0
220
0.0
230
1.0
100
AcDbArc
 50
269.9999984648
 51
314.9999946267
  0
ARC
  5
1BF
100
AcDbEntity
  8
LAYER0
 62
         6
100
AcDbCircle
 10
24.4135346359
 20
92.3905885411
 30
0.0
 40
1.0
210
-0.0
220
-0.0
230
1.0
100
AcDbArc
 50
359.9999984648
 51
90.0000015352
  0
ARC
  5
1C0
100
AcDbEntity
  8
LAYER0
 62
         6
100
AcDbCircle
 10
24.4135346359
 20
73.3905886603
 30
0.0
 40
1.0
210
0.0
220
0.0
230
1.0
100
AcDbArc
 50
269.9999953943
 51
359.9999984648
  0
ENDBLK
  5
1C1
100
AcDbEntity
  8
0
100
AcDbBlockEnd
  0
BLOCK
  5
1C6
100
AcDbEntity
  8
0
100
AcDbBlockBegin
  2
CLUMP12
 70
         0
 10
0.0
 20
0.0
 30
0.0
  3

  1

  0
INSERT
  5
1C8
100
AcDbEntity
  8
0
100
AcDbBlockReference
  2
CLUMP13
 10
0.0
 20
0.0
 30
0.0
  0
ENDBLK
  5
1E0
100
AcDbEntity
  8
0
100
AcDbBlockEnd
  0
BLOCK
  5
1C9
100
AcDbEntity
  8
0
100
AcDbBlockBegin
  2
CLUMP13
 70
         0
 10
0.0
 20
0.0
 30
0.0
  3

  1

  0
LINE
  5
1CA
100
AcDbEntity
  8
LAYER0
 62
         3
100
AcDbLine
 10
24.9135348594
 20
69.8905886603
 30
0.0
 11
24.9135348594
 21
71.3905886603
 31
0.0
  0
LINE
  5
1CB
100
AcDbEntity
  8
LAYER0
 62
         3
100
AcDbLine
 10
-1.0864651406
 20
41.9905886603
 30
0.0
 11
-1.0864651406
 21
47.7295246302
 31
0.0
  0
LINE
  5
1CC
100
AcDbEntity
  8
LAYER0
 62
         3
100
AcDbLine
 10
0.4135348594
 20
41.9905886603
 30
0.0
 11
-1.0864651406
 21
41.9905886603
 31
0.0
  0
LINE
  5
1CD
100
AcDbEntity
  8
LAYER0
 62
         3
100
AcDbLine
 10
24.9135348594
 20
71.3905886603
 30
0.0
 11
10.9135348594
 21
71.3905886603
 31
0.0
  0
ARC
  5
1CE
100
AcDbEntity
  8
LAYER0
 62
         3
100
AcDbCircle
 10
24.4135348594
 20
69.8905886603
 30
0.0
 40
0.5
210
-0.0
220
0.0
230
1.0
100
AcDbArc
 50
269.9999984648
 51
0.0
  0
ARC
  5
1CF
100
AcDbEntity
  8
LAYER0
 62
         3
100
AcDbCircle
 10
0.4135348594
 20
42.4905886603
 30
0.0
 40
0.5
210
-0.0
220
0.0
230
1.0
100
AcDbArc
 50
269.9999984648
 51
0.0
  0
LINE
  5
1D0
100
AcDbEntity
  8
LAYER0
 62
         3
100
AcDbLine
 10
24.4135348594
 20
69.3905886603
 30
0.0
 11
10.9135348594
 21
69.3905886603
 31
0.0
  0
LINE
  5
1D1
100
AcDbEntity
  8
LAYER0
 62
         5
100
AcDbLine
 10
17.2135348594
 20
71.3905886603
 30
0.0
 11
17.2135348594
 21
69.3905886603
 31
0.0
  0
LINE
  5
1D2
100
AcDbEntity
  8
LAYER0
 62
         5
100
AcDbLine
 10
17.4135348594
 20
71.3905886603
 30
0.0
 11
17.4135348594
 21
69.3905886603
 31
0.0
  0
LINE
  5
1D3
100
AcDbEntity
  8
LAYER0
 62
         5
100
AcDbLine
 10
12.4135348594
 20
69.3905886603
 30
0.0
 11
12.4135348594
 21
71.3905886603
 31
0.0
  0
LINE
  5
1D4
100
AcDbEntity
  8
LAYER0
 62
         5
100
AcDbLine
 10
12.6135348594
 20
69.3905886603
 30
0.0
 11
12.6135348594
 21
71.3905886603
 31
0.0
  0
ARC
  5
1D5
100
AcDbEntity
  8
LAYER0
 62
         3
100
AcDbCircle
 10
22.9135348594
 20
47.7295246302
 30
0.0
 40
22.0
210
0.0
220
0.0
230
1.0
100
AcDbArc
 50
146.3099349698
 51
179.9999969295
  0
LINE
  5
1D6
100
AcDbEntity
  8
LAYER0
 62
         3
100
AcDbLine
 10
9.2494342707
 20
70.4999890528
 30
0.0
 11
2.9443277953
 21
61.0423293396
 31
0.0
  0
ARC
  5
1D7
100
AcDbEntity
  8
LAYER0
 62
         3
100
AcDbCircle
 10
22.9135348594
 20
47.7295246302
 30
0.0
 40
24.0
210
0.0
220
0.0
230
1.0
100
AcDbArc
 50
146.3099349698
 51
180.0000030705
  0
LINE
  5
1D8
100
AcDbEntity
  8
LAYER0
 62
         3
100
AcDbLine
 10
0.9135348594
 20
42.4905886603
 30
0.0
 11
0.9135348594
 21
47.7295246302
 31
0.0
  0
LINE
  5
1D9
100
AcDbEntity
  8
LAYER0
 62
         3
100
AcDbLine
 10
10.9135348594
 20
69.3905886603
 30
0.0
 11
4.6084283839
 21
59.9329289472
 31
0.0
  0
LINE
  5
1DA
100
AcDbEntity
  8
LAYER0
 62
         5
100
AcDbLine
 10
3.1416308927
 20
61.3382839858
 30
0.0
 11
4.3897063342
 21
60.5062336915
 31
0.0
  0
LINE
  5
1DB
100
AcDbEntity
  8
LAYER0
 62
         5
100
AcDbLine
 10
-1.0471335468
 20
49.1029763149
 30
0.0
 11
0.4559553645
 21
49.0168176168
 31
0.0
  0
ARC
  5
1DC
100
AcDbEntity
  8
LAYER0
 62
         3
100
AcDbCircle
 10
10.9135348594
 20
69.3905886603
 30
0.0
 40
2.0
210
0.0
220
0.0
230
1.0
100
AcDbArc
 50
90.0000015352
 51
146.3099349698
  0
ARC
  5
1DD
100
AcDbEntity
  8
LAYER0
 62
         5
100
AcDbCircle
 10
0.4273417878
 20
48.517637025
 30
0.0
 40
0.5
210
-0.0
220
0.0
230
1.0
100
AcDbArc
 50
357.9926776236
 51
86.7193347757
  0
ARC
  5
1DE
100
AcDbEntity
  8
LAYER0
 62
         5
100
AcDbCircle
 10
4.6670564323
 20
60.9222588386
 30
0.0
 40
0.5
210
0.0
220
0.0
230
1.0
100
AcDbArc
 50
236.3099303641
 51
326.3099318993
  0
ENDBLK
  5
1DF
100
AcDbEntity
  8
0
100
AcDbBlockEnd
  0
BLOCK
  5
1E4
100
AcDbEntity
  8
0
100
AcDbBlockBegin
  2
CLUMP14
 70
         0
 10
0.0
 20
0.0
 30
0.0
  3

  1

  0
INSERT
  5
1E6
100
AcDbEntity
  8
0
100
AcDbBlockReference
  2
CLUMP15
 10
0.0
 20
0.0
 30
0.0
  0
ENDBLK
  5
20B
100
AcDbEntity
  8
0
100
AcDbBlockEnd
  0
BLOCK
  5
1E7
100
AcDbEntity
  8
0
100
AcDbBlockBegin
  2
CLUMP15
 70
         0
 10
0.0
 20
0.0
 30
0.0
  3

  1

  0
LINE
  5
1E8
100
AcDbEntity
  8
LAYER0
 62
         4
100
AcDbLine
 10
-25.3766940101
 20
65.3905886007
 30
0.0
 11
-20.7962365692
 21
65.3905886007
 31
0.0
  0
LINE
  5
1E9
100
AcDbEntity
  8
LAYER0
 62
         4
100
AcDbLine
 10
-19.0864652896
 20
66.5452891391
 30
0.0
 11
-19.0864652896
 21
68.2358881219
 31
0.0
  0
LINE
  5
1EA
100
AcDbEntity
  8
LAYER0
 62
         4
100
AcDbLine
 10
-20.7962361024
 20
69.3905886007
 30
0.0
 11
-25.3766944769
 21
69.3905886007
 31
0.0
  0
LINE
  5
1EB
100
AcDbEntity
  8
LAYER0
 62
         4
100
AcDbLine
 10
-27.0864652896
 20
68.2358881219
 30
0.0
 11
-27.0864652896
 21
66.5452891391
 31
0.0
  0
LINE
  5
1EC
100
AcDbEntity
  8
LAYER0
 62
         4
100
AcDbLine
 10
-23.0864652896
 20
69.3905886007
 30
0.0
 11
-23.0864652896
 21
66.5452891391
 31
0.0
  0
ARC
  5
1ED
100
AcDbEntity
  8
LAYER0
 62
         4
100
AcDbCircle
 10
-21.0864652896
 20
67.6635158441
 30
0.0
 40
2.2913818895
210
0.0
220
0.0
230
1.0
100
AcDbArc
 50
209.2101359122
 51
330.7898610173
  0
ARC
  5
1EE
100
AcDbEntity
  8
LAYER0
 62
         4
100
AcDbCircle
 10
-25.0864652896
 20
67.6635158441
 30
0.0
 40
2.2913818895
210
0.0
220
0.0
230
1.0
100
AcDbArc
 50
209.2101359122
 51
330.7898610173
  0
ARC
  5
1EF
100
AcDbEntity
  8
LAYER0
 62
         4
100
AcDbCircle
 10
-25.0864652896
 20
67.6635158441
 30
0.0
 40
2.2913818895
210
0.0
220
0.0
230
1.0
100
AcDbArc
 50
209.2101359122
 51
330.7898610173
  0
ARC
  5
1F0
100
AcDbEntity
  8
LAYER0
 62
         4
100
AcDbCircle
 10
-25.0864652896
 20
67.6635158441
 30
0.0
 40
2.2913818895
210
0.0
220
0.0
230
1.0
100
AcDbArc
 50
209.2101359122
 51
330.7898610173
  0
ARC
  5
1F1
100
AcDbEntity
  8
LAYER0
 62
         4
100
AcDbCircle
 10
-25.0864652896
 20
67.117661417
 30
0.0
 40
2.2913818895
210
0.0
220
-0.0
230
1.0
100
AcDbArc
 50
29.2101389827
 51
150.7898640878
  0
ARC
  5
1F2
100
AcDbEntity
  8
LAYER0
 62
         4
100
AcDbCircle
 10
-21.0864652896
 20
67.117661417
 30
0.0
 40
2.2913818895
210
0.0
220
-0.0
230
1.0
100
AcDbArc
 50
29.2101389827
 51
150.7898640878
  0
LINE
  5
1F3
100
AcDbEntity
  8
LAYER0
 62
         2
100
AcDbLine
 10
-18.5864652896
 20
95.3905886007
 30
0.0
 11
-27.5864652896
 21
95.3905886007
 31
0.0
  0
LINE
  5
1F4
100
AcDbEntity
  8
LAYER0
 62
         2
100
AcDbLine
 10
-18.5864652896
 20
95.3905886007
 30
0.0
 11
-18.6728196174
 21
97.0383273331
 31
0.0
  0
LINE
  5
1F5
100
AcDbEntity
  8
LAYER0
 62
         2
100
AcDbLine
 10
-27.5864652896
 20
95.3905886007
 30
0.0
 11
-27.5001109618
 21
97.0383273331
 31
0.0
  0
ARC
  5
1F6
100
AcDbEntity
  8
LAYER0
 62
         2
100
AcDbCircle
 10
-19.9101833711
 20
96.9734798466
 30
0.0
 40
1.2390618448
210
0.0
220
0.0
230
1.0
100
AcDbArc
 50
3.0000000512
 51
75.6481163975
  0
ARC
  5
1F7
100
AcDbEntity
  8
LAYER0
 62
         2
100
AcDbCircle
 10
-26.2627472082
 20
96.9734798466
 30
0.0
 40
1.2390618448
210
0.0
220
0.0
230
1.0
100
AcDbArc
 50
104.3518866729
 51
177.0000030193
  0
ARC
  5
1F8
100
AcDbEntity
  8
LAYER0
 62
         2
100
AcDbCircle
 10
-23.0864652896
 20
86.6905886007
 30
0.0
 40
12.0
210
0.0
220
-0.0
230
1.0
100
AcDbArc
 50
73.1250012474
 51
106.8750018231
  0
LINE
  5
1F9
100
AcDbEntity
  8
LAYER0
 62
         2
100
AcDbLine
 10
-23.0864652896
 20
98.6905886007
 30
0.0
 11
-23.0864652896
 21
97.0405886007
 31
0.0
  0
LINE
  5
1FA
100
AcDbEntity
  8
LAYER0
 62
         2
100
AcDbLine
 10
-28.5864652896
 20
94.3905886007
 30
0.0
 11
-17.5864652896
 21
94.3905886007
 31
0.0
  0
LINE
  5
1FB
100
AcDbEntity
  8
LAYER0
 62
         2
100
AcDbLine
 10
-28.5864652896
 20
94.3905886007
 30
0.0
 11
-28.5864652896
 21
95.3905886007
 31
0.0
  0
LINE
  5
1FC
100
AcDbEntity
  8
LAYER0
 62
         2
100
AcDbLine
 10
-17.5864652896
 20
94.3905886007
 30
0.0
 11
-17.5864652896
 21
95.3905886007
 31
0.0
  0
ARC
  5
1FD
100
AcDbEntity
  8
LAYER0
 62
         4
100
AcDbCircle
 10
-23.0864652896
 20
65.3905886007
 30
0.0
 40
3.0
210
0.0
220
-0.0
230
1.0
100
AcDbArc
 50
176.0283118059
 51
3.9716912646
  0
LINE
  5
1FE
100
AcDbEntity
  8
LAYER0
 62
         2
100
AcDbLine
 10
-28.5864652896
 20
95.3905886007
 30
0.0
 11
-17.5864652896
 21
95.3905886007
 31
0.0
  0
LINE
  5
1FF
100
AcDbEntity
  8
LAYER0
 62
         2
100
AcDbLine
 10
-20.5864652896
 20
95.1905886007
 30
0.0
 11
-20.5864652896
 21
66.2905886007
 31
0.0
  0
LINE
  5
200
100
AcDbEntity
  8
LAYER0
 62
         5
100
AcDbLine
 10
-20.9864652896
 20
95.3905886007
 30
0.0
 11
-20.9864652896
 21
65.8905886007
 31
0.0
  0
LINE
  5
201
100
AcDbEntity
  8
LAYER0
 62
         2
100
AcDbLine
 10
-20.5864652896
 20
66.2905886007
 30
0.0
 11
-25.5864652896
 21
66.2905886007
 31
0.0
  0
LINE
  5
202
100
AcDbEntity
  8
LAYER0
 62
         2
100
AcDbLine
 10
-25.5864652896
 20
95.1905886007
 30
0.0
 11
-25.5864652896
 21
66.2905886007
 31
0.0
  0
LINE
  5
203
100
AcDbEntity
  8
LAYER0
 62
         5
100
AcDbLine
 10
-25.1864652896
 20
95.3905886007
 30
0.0
 11
-25.1864652896
 21
65.8905886007
 31
0.0
  0
ARC
  5
204
100
AcDbEntity
  8
LAYER0
 62
         2
100
AcDbCircle
 10
-20.3864652896
 20
95.1905886007
 30
0.0
 40
0.2
210
0.0
220
0.0
230
1.0
100
AcDbArc
 50
90.0000015352
 51
180.0000030705
  0
ARC
  5
205
100
AcDbEntity
  8
LAYER0
 62
         2
100
AcDbCircle
 10
-25.7864652896
 20
95.1905886007
 30
0.0
 40
0.2
210
0.0
220
-0.0
230
1.0
100
AcDbArc
 50
0.0
 51
90.0000015352
  0
LINE
  5
206
100
AcDbEntity
  8
LAYER0
 62
         2
100
AcDbLine
 10
-21.4864652896
 20
65.3905886007
 30
0.0
 11
-24.6864652896
 21
65.3905886007
 31
0.0
  0
LINE
  5
207
100
AcDbEntity
  8
LAYER0
 62
         2
100
AcDbLine
 10
-20.5864652896
 20
66.2905886007
 30
0.0
 11
-21.4864652896
 21
65.3905886007
 31
0.0
  0
LINE
  5
208
100
AcDbEntity
  8
LAYER0
 62
         2
100
AcDbLine
 10
-25.5864652896
 20
66.2905886007
 30
0.0
 11
-24.6864652896
 21
65.3905886007
 31
0.0
  0
LINE
  5
209
100
AcDbEntity
  8
LAYER0
 62
         5
100
AcDbLine
 10
-25.5864652896
 20
82.9905886007
 30
0.0
 11
-25.5614652896
 21
82.8905886007
 31
0.0
  0
ENDBLK
  5
20A
100
AcDbEntity
  8
0
100
AcDbBlockEnd
  0
BLOCK
  5
20E
100
AcDbEntity
  8
0
100
AcDbBlockBegin
  2
CLUMP16
 70
         0
 10
0.0
 20
0.0
 30
0.0
  3

  1

  0
INSERT
  5
210
100
AcDbEntity
  8
0
100
AcDbBlockReference
  2
CLUMP17
 10
0.0
 20
0.0
 30
0.0
  0
ENDBLK
  5
28C
100
AcDbEntity
  8
0
100
AcDbBlockEnd
  0
BLOCK
  5
211
100
AcDbEntity
  8
0
100
AcDbBlockBegin
  2
CLUMP17
 70
         0
 10
0.0
 20
0.0
 30
0.0
  3

  1

  0
LINE
  5
212
100
AcDbEntity
  8
LAYER0
 62
         6
100
AcDbLine
 10
-11.0006789116
 20
93.915714807
 30
0.0
 11
-8.4521506401
 21
96.4642430785
 31
0.0
  0
LINE
  5
213
100
AcDbEntity
  8
LAYER0
 62
         6
100
AcDbLine
 10
-14.086465677
 20
66.8905885262
 30
0.0
 11
-10.0784962368
 21
66.8905885262
 31
0.0
  0
LINE
  5
214
100
AcDbEntity
  8
LAYER0
 62
         6
100
AcDbLine
 10
-12.0613390834
 20
70.8048022227
 30
0.0
 11
-9.5128108119
 21
68.2562739512
 31
0.0
  0
LINE
  5
215
100
AcDbEntity
  8
LAYER0
 62
         6
100
AcDbLine
 10
-7.0864652151
 20
73.8905889881
 30
0.0
 11
-7.0864652151
 21
69.8826195479
 31
0.0
  0
LINE
  5
216
100
AcDbEntity
  8
LAYER0
 62
         6
100
AcDbLine
 10
-11.0006789116
 20
71.8654623945
 30
0.0
 11
-8.4521506401
 21
69.3169341229
 31
0.0
  0
LINE
  5
217
100
AcDbEntity
  8
LAYER0
 62
         6
100
AcDbLine
 10
-22.4864652896
 20
71.3905886603
 30
0.0
 11
-13.4755526458
 21
71.3905886603
 31
0.0
  0
LINE
  5
218
100
AcDbEntity
  8
LAYER0
 62
         6
100
AcDbLine
 10
-14.086465677
 20
66.8905885262
 30
0.0
 11
-14.086465677
 21
65.8905876768
 31
0.0
  0
ARC
  5
219
100
AcDbEntity
  8
LAYER0
 62
         6
100
AcDbCircle
 10
-13.5864652896
 20
65.8905886007
 30
0.0
 40
0.5
210
0.0
220
0.0
230
1.0
100
AcDbArc
 50
180.0
 51
269.9999984648
  0
LINE
  5
21A
100
AcDbEntity
  8
LAYER0
 62
         6
100
AcDbLine
 10
-13.5864655951
 20
65.3905885262
 30
0.0
 11
-9.0864652151
 21
65.3905885262
 31
0.0
  0
LINE
  5
21B
100
AcDbEntity
  8
LAYER0
 62
         6
100
AcDbLine
 10
-13.4755526458
 20
94.3905885411
 30
0.0
 11
-22.4864652896
 21
94.3905885411
 31
0.0
  0
LINE
  5
21C
100
AcDbEntity
  8
LAYER0
 62
         6
100
AcDbLine
 10
-5.5864652151
 20
68.8905885262
 30
0.0
 11
-5.5864652151
 21
73.3905889062
 31
0.0
  0
ARC
  5
21D
100
AcDbEntity
  8
LAYER0
 62
         6
100
AcDbCircle
 10
-6.0864652896
 20
73.3905886007
 30
0.0
 40
0.5
210
-0.0
220
-0.0
230
1.0
100
AcDbArc
 50
359.9999969295
 51
90.0000015352
  0
LINE
  5
21E
100
AcDbEntity
  8
LAYER0
 62
         6
100
AcDbLine
 10
-6.0864643657
 20
73.8905889881
 30
0.0
 11
-7.0864652151
 21
73.8905889881
 31
0.0
  0
LINE
  5
21F
100
AcDbEntity
  8
LAYER0
 62
         6
100
AcDbLine
 10
-11.5864653492
 20
73.2796759568
 30
0.0
 11
-11.5864653492
 21
82.2905886007
 31
0.0
  0
LINE
  5
220
100
AcDbEntity
  8
LAYER0
 62
         6
100
AcDbLine
 10
-11.5864653492
 20
82.2905886007
 30
0.0
 11
-12.0864654312
 21
82.8905886007
 31
0.0
  0
LINE
  5
221
100
AcDbEntity
  8
LAYER0
 62
         6
100
AcDbLine
 10
-12.0864654312
 20
82.8905886007
 30
0.0
 11
-11.5864653492
 21
83.4905886007
 31
0.0
  0
LINE
  5
222
100
AcDbEntity
  8
LAYER0
 62
         6
100
AcDbLine
 10
-14.086465677
 20
98.8905886752
 30
0.0
 11
-14.086465677
 21
99.8905895246
 31
0.0
  0
ARC
  5
223
100
AcDbEntity
  8
LAYER0
 62
         6
100
AcDbCircle
 10
-13.5864652896
 20
99.8905886007
 30
0.0
 40
0.5
210
0.0
220
0.0
230
1.0
100
AcDbArc
 50
90.0000015352
 51
180.0
  0
LINE
  5
224
100
AcDbEntity
  8
LAYER0
 62
         6
100
AcDbLine
 10
-13.5864655951
 20
100.3905886752
 30
0.0
 11
-9.0864652151
 21
100.3905886752
 31
0.0
  0
LINE
  5
225
100
AcDbEntity
  8
LAYER0
 62
         6
100
AcDbLine
 10
-5.5864652151
 20
96.8905886752
 30
0.0
 11
-5.5864652151
 21
92.3905882953
 31
0.0
  0
ARC
  5
226
100
AcDbEntity
  8
LAYER0
 62
         6
100
AcDbCircle
 10
-6.0864652896
 20
92.3905886007
 30
0.0
 40
0.5
210
0.0
220
0.0
230
1.0
100
AcDbArc
 50
269.9999984648
 51
359.9999969295
  0
LINE
  5
227
100
AcDbEntity
  8
LAYER0
 62
         6
100
AcDbLine
 10
-23.0864652896
 20
71.8905887423
 30
0.0
 11
-22.4864652896
 21
71.3905886603
 31
0.0
  0
LINE
  5
228
100
AcDbEntity
  8
LAYER0
 62
         6
100
AcDbLine
 10
-32.6973779335
 20
94.3905885411
 30
0.0
 11
-23.6864652896
 21
94.3905885411
 31
0.0
  0
LINE
  5
229
100
AcDbEntity
  8
LAYER0
 62
         6
100
AcDbLine
 10
-33.1115914959
 20
71.3905886603
 30
0.0
 11
-23.6864652896
 21
71.3905886603
 31
0.0
  0
LINE
  5
22A
100
AcDbEntity
  8
LAYER0
 62
         6
100
AcDbLine
 10
-11.5864653492
 20
92.5015012446
 30
0.0
 11
-11.5864653492
 21
83.4905886007
 31
0.0
  0
ARC
  5
22B
100
AcDbEntity
  8
LAYER0
 62
         6
100
AcDbCircle
 10
-13.4755526458
 20
69.3905886603
 30
0.0
 40
2.0
210
0.0
220
-0.0
230
1.0
100
AcDbArc
 50
44.9999992324
 51
90.0000015352
  0
ARC
  5
22C
100
AcDbEntity
  8
LAYER0
 62
         6
100
AcDbCircle
 10
-9.5864653492
 20
73.2796759568
 30
0.0
 40
2.0
210
0.0
220
0.0
230
1.0
100
AcDbArc
 50
180.0
 51
225.0000023029
  0
ARC
  5
22D
100
AcDbEntity
  8
LAYER0
 62
         6
100
AcDbCircle
 10
-9.5864653492
 20
92.5015012446
 30
0.0
 40
2.0
210
0.0
220
0.0
230
1.0
100
AcDbArc
 50
135.0000038381
 51
180.0
  0
ARC
  5
22E
100
AcDbEntity
  8
LAYER0
 62
         6
100
AcDbCircle
 10
-13.4755526458
 20
96.3905885411
 30
0.0
 40
2.0
210
0.0
220
0.0
230
1.0
100
AcDbArc
 50
269.9999984648
 51
314.9999946267
  0
ARC
  5
22F
100
AcDbEntity
  8
LAYER0
 62
         6
100
AcDbCircle
 10
-10.0784962368
 20
98.0905886752
 30
0.0
 40
0.8
210
-0.0
220
-0.0
230
1.0
100
AcDbArc
 50
314.9999946267
 51
90.0000015352
  0
ARC
  5
230
100
AcDbEntity
  8
LAYER0
 62
         6
100
AcDbCircle
 10
-7.8864652151
 20
95.8985576535
 30
0.0
 40
0.8
210
-0.0
220
-0.0
230
1.0
100
AcDbArc
 50
359.9999969295
 51
135.0000038381
  0
ARC
  5
231
100
AcDbEntity
  8
LAYER0
 62
         6
100
AcDbCircle
 10
-10.0784962368
 20
67.6905885262
 30
0.0
 40
0.8
210
-0.0
220
0.0
230
1.0
100
AcDbArc
 50
269.9999984648
 51
44.9999992324
  0
ARC
  5
232
100
AcDbEntity
  8
LAYER0
 62
         6
100
AcDbCircle
 10
-7.8864652151
 20
69.8826195479
 30
0.0
 40
0.8
210
0.0
220
0.0
230
1.0
100
AcDbArc
 50
225.0000023029
 51
359.9999969295
  0
LINE
  5
233
100
AcDbEntity
  8
LAYER0
 62
         6
100
AcDbLine
 10
-36.0944343425
 20
98.8905886752
 30
0.0
 11
-32.0864649022
 21
98.8905886752
 31
0.0
  0
LINE
  5
234
100
AcDbEntity
  8
LAYER0
 62
         6
100
AcDbLine
 10
-36.0944343425
 20
66.8905885262
 30
0.0
 11
-32.0864649022
 21
66.8905885262
 31
0.0
  0
LINE
  5
235
100
AcDbEntity
  8
LAYER0
 62
         6
100
AcDbLine
 10
-32.0864649022
 20
66.8905885262
 30
0.0
 11
-32.0864649022
 21
65.8905876768
 31
0.0
  0
ARC
  5
236
100
AcDbEntity
  8
LAYER0
 62
         6
100
AcDbCircle
 10
-32.5864652896
 20
65.8905886007
 30
0.0
 40
0.5
210
0.0
220
0.0
230
1.0
100
AcDbArc
 50
269.9999984648
 51
359.9999969295
  0
LINE
  5
237
100
AcDbEntity
  8
LAYER0
 62
         6
100
AcDbLine
 10
-32.5864649842
 20
65.3905885262
 30
0.0
 11
-41.5864653641
 21
65.3905885262
 31
0.0
  0
LINE
  5
238
100
AcDbEntity
  8
LAYER0
 62
         6
100
AcDbLine
 10
-32.0864649022
 20
98.8905886752
 30
0.0
 11
-32.0864649022
 21
99.8905895246
 31
0.0
  0
ARC
  5
239
100
AcDbEntity
  8
LAYER0
 62
         6
100
AcDbCircle
 10
-32.5864652896
 20
99.8905886007
 30
0.0
 40
0.5
210
-0.0
220
-0.0
230
1.0
100
AcDbArc
 50
359.9999969295
 51
90.0000015352
  0
LINE
  5
23A
100
AcDbEntity
  8
LAYER0
 62
         6
100
AcDbLine
 10
-32.5864649842
 20
100.3905886752
 30
0.0
 11
-36.0864652896
 21
100.3905886752
 31
0.0
  0
LINE
  5
23B
100
AcDbEntity
  8
LAYER0
 62
         6
100
AcDbLine
 10
-53.5864653641
 20
77.3905885262
 30
0.0
 11
-53.5864653641
 21
81.3905886007
 31
0.0
  0
POINT
  5
23C
100
AcDbEntity
  8
LAYER0
 62
         6
100
AcDbPoint
 10
-23.0864652896
 20
82.8905886007
 30
0.0
  0
LINE
  5
23D
100
AcDbEntity
  8
LAYER0
 62
         6
100
AcDbLine
 10
-14.086465677
 20
98.8905886752
 30
0.0
 11
-10.0784962368
 21
98.8905886752
 31
0.0
  0
LINE
  5
23E
100
AcDbEntity
  8
LAYER0
 62
         6
100
AcDbLine
 10
-7.0864652151
 20
91.8905882133
 30
0.0
 11
-7.0864652151
 21
95.8985576535
 31
0.0
  0
LINE
  5
23F
100
AcDbEntity
  8
LAYER0
 62
         6
100
AcDbLine
 10
-12.0613390834
 20
94.9763749787
 30
0.0
 11
-9.5128108119
 21
97.5249032503
 31
0.0
  0
LINE
  5
240
100
AcDbEntity
  8
LAYER0
 62
         6
100
AcDbLine
 10
-53.0864653641
 20
81.8905886007
 30
0.0
 11
-44.6864653641
 21
81.8905886007
 31
0.0
  0
LINE
  5
241
100
AcDbEntity
  8
LAYER0
 62
         6
100
AcDbLine
 10
-43.4864653641
 20
81.8905886007
 30
0.0
 11
-34.8864650661
 21
81.8905886007
 31
0.0
  0
LINE
  5
242
100
AcDbEntity
  8
LAYER0
 62
         6
100
AcDbLine
 10
-34.5864650661
 20
92.9157146431
 30
0.0
 11
-34.5864650661
 21
82.1905886007
 31
0.0
  0
ARC
  5
243
100
AcDbEntity
  8
LAYER0
 62
         6
100
AcDbCircle
 10
-36.0944343425
 20
98.0905886752
 30
0.0
 40
0.8
210
0.0
220
0.0
230
1.0
100
AcDbArc
 50
90.0000015352
 51
225.0000023029
  0
LINE
  5
244
100
AcDbEntity
  8
LAYER0
 62
         6
100
AcDbLine
 10
-34.1115914959
 20
94.9763749787
 30
0.0
 11
-36.6601197674
 21
97.5249032503
 31
0.0
  0
LINE
  5
245
100
AcDbEntity
  8
LAYER0
 62
         6
100
AcDbLine
 10
-32.5864650661
 20
72.3905886603
 30
0.0
 11
-27.5864652896
 21
72.3905886603
 31
0.0
  0
LINE
  5
246
100
AcDbEntity
  8
LAYER0
 62
         6
100
AcDbLine
 10
-34.5864650661
 20
80.5905886007
 30
0.0
 11
-34.5864650661
 21
72.1583557772
 31
0.0
  0
LINE
  5
247
100
AcDbEntity
  8
LAYER0
 62
         6
100
AcDbLine
 10
-40.0864653641
 20
80.8905886007
 30
0.0
 11
-34.8864650661
 21
80.8905886007
 31
0.0
  0
LINE
  5
248
100
AcDbEntity
  8
LAYER0
 62
         6
100
AcDbLine
 10
-41.5864653641
 20
66.3905885262
 30
0.0
 11
-38.3864652896
 21
66.3905885262
 31
0.0
  0
LINE
  5
249
100
AcDbEntity
  8
LAYER0
 62
         6
100
AcDbLine
 10
-52.0864653641
 20
80.8905886007
 30
0.0
 11
-48.0864653641
 21
80.8905886007
 31
0.0
  0
LINE
  5
24A
100
AcDbEntity
  8
LAYER0
 62
         6
100
AcDbLine
 10
-52.5864653641
 20
77.3905885262
 30
0.0
 11
-52.5864653641
 21
80.3905886007
 31
0.0
  0
LINE
  5
24B
100
AcDbEntity
  8
LAYER0
 62
         6
100
AcDbLine
 10
-32.5864650661
 20
93.3905885411
 30
0.0
 11
-27.5864652896
 21
93.3905885411
 31
0.0
  0
LINE
  5
24C
100
AcDbEntity
  8
LAYER0
 62
         6
100
AcDbLine
 10
-13.5864653492
 20
72.3905886603
 30
0.0
 11
-18.5864652896
 21
72.3905886603
 31
0.0
  0
LINE
  5
24D
100
AcDbEntity
  8
LAYER0
 62
         6
100
AcDbLine
 10
-13.5864653492
 20
93.3905885411
 30
0.0
 11
-18.5864652896
 21
93.3905885411
 31
0.0
  0
LINE
  5
24E
100
AcDbEntity
  8
LAYER0
 62
         6
100
AcDbLine
 10
-12.5864653492
 20
92.3905885411
 30
0.0
 11
-12.5864653492
 21
87.3905886007
 31
0.0
  0
LINE
  5
24F
100
AcDbEntity
  8
LAYER0
 62
         6
100
AcDbLine
 10
-12.5864653492
 20
78.3905886007
 30
0.0
 11
-12.5864653492
 21
73.3905886603
 31
0.0
  0
ARC
  5
250
100
AcDbEntity
  8
LAYER0
 62
         6
100
AcDbCircle
 10
-13.5864653492
 20
92.3905885411
 30
0.0
 40
1.0
210
-0.0
220
-0.0
230
1.0
100
AcDbArc
 50
359.9999984648
 51
90.0000015352
  0
ARC
  5
251
100
AcDbEntity
  8
LAYER0
 62
         6
100
AcDbCircle
 10
-13.5864653492
 20
73.3905886603
 30
0.0
 40
1.0
210
0.0
220
0.0
230
1.0
100
AcDbArc
 50
270.0000015352
 51
359.9999984648
  0
LINE
  5
252
100
AcDbEntity
  8
LAYER0
 62
         6
100
AcDbLine
 10
-33.8186982771
 20
71.0976954415
 30
0.0
 11
-36.6601197674
 21
68.2562739512
 31
0.0
  0
ARC
  5
253
100
AcDbEntity
  8
LAYER0
 62
         6
100
AcDbCircle
 10
-33.1115914959
 20
70.3905886603
 30
0.0
 40
1.0
210
0.0
220
0.0
230
1.0
100
AcDbArc
 50
90.0000015352
 51
135.0000007676
  0
ARC
  5
254
100
AcDbEntity
  8
LAYER0
 62
         6
100
AcDbCircle
 10
-36.0944343425
 20
67.6905885262
 30
0.0
 40
0.8
210
0.0
220
0.0
230
1.0
100
AcDbArc
 50
135.0000007676
 51
270.0000015352
  0
LINE
  5
255
100
AcDbEntity
  8
LAYER0
 62
         6
100
AcDbLine
 10
-6.0864643657
 20
91.8905882133
 30
0.0
 11
-7.0864652151
 21
91.8905882133
 31
0.0
  0
LINE
  5
256
100
AcDbEntity
  8
LAYER0
 62
         6
100
AcDbLine
 10
-22.4864652896
 20
94.3905885411
 30
0.0
 11
-23.0864652896
 21
93.8905884592
 31
0.0
  0
LINE
  5
257
100
AcDbEntity
  8
LAYER0
 62
         6
100
AcDbLine
 10
-23.0864652896
 20
93.8905884592
 30
0.0
 11
-23.6864652896
 21
94.3905885411
 31
0.0
  0
LINE
  5
258
100
AcDbEntity
  8
LAYER0
 62
         6
100
AcDbLine
 10
-23.6864652896
 20
71.3905886603
 30
0.0
 11
-23.0864652896
 21
71.8905887423
 31
0.0
  0
LINE
  5
259
100
AcDbEntity
  8
LAYER0
 62
         6
100
AcDbLine
 10
-33.5864650661
 20
92.3905885411
 30
0.0
 11
-33.5864650661
 21
73.3905886603
 31
0.0
  0
ARC
  5
25A
100
AcDbEntity
  8
LAYER0
 62
         6
100
AcDbCircle
 10
-35.5864650661
 20
72.1583557772
 30
0.0
 40
1.0
210
0.0
220
0.0
230
1.0
100
AcDbArc
 50
314.9999969295
 51
359.9999984648
  0
ARC
  5
25B
100
AcDbEntity
  8
LAYER0
 62
         6
100
AcDbCircle
 10
-35.5864650661
 20
92.9157146431
 30
0.0
 40
1.0
210
-0.0
220
0.0
230
1.0
100
AcDbArc
 50
359.9999984648
 51
45.0
  0
ARC
  5
25C
100
AcDbEntity
  8
LAYER0
 62
         6
100
AcDbCircle
 10
-41.5864653641
 20
77.3905885262
 30
0.0
 40
12.0
210
0.0
220
0.0
230
1.0
100
AcDbArc
 50
179.9999984648
 51
270.0000015352
  0
ARC
  5
25D
100
AcDbEntity
  8
LAYER0
 62
         6
100
AcDbCircle
 10
-41.5864653641
 20
77.3905885262
 30
0.0
 40
11.0
210
0.0
220
0.0
230
1.0
100
AcDbArc
 50
179.9999984648
 51
270.0000015352
  0
ARC
  5
25E
100
AcDbEntity
  8
LAYER0
 62
         6
100
AcDbCircle
 10
-36.0864652896
 20
98.0905886752
 30
0.0
 40
2.3
210
0.0
220
0.0
230
1.0
100
AcDbArc
 50
90.0000015352
 51
179.9999984648
  0
LINE
  5
25F
100
AcDbEntity
  8
LAYER0
 62
         6
100
AcDbLine
 10
-38.3864652896
 20
98.0905886752
 30
0.0
 11
-38.3864652896
 21
97.7512487725
 31
0.0
  0
ARC
  5
260
100
AcDbEntity
  8
LAYER0
 62
         6
100
AcDbCircle
 10
-36.8864652896
 20
97.7512487725
 30
0.0
 40
1.5
210
0.0
220
0.0
230
1.0
100
AcDbArc
 50
179.9999984648
 51
225.0
  0
LINE
  5
261
100
AcDbEntity
  8
LAYER0
 62
         6
100
AcDbLine
 10
-37.8864652896
 20
66.8905885262
 30
0.0
 11
-37.8864652896
 21
67.698557579
 31
0.0
  0
ARC
  5
262
100
AcDbEntity
  8
LAYER0
 62
         6
100
AcDbCircle
 10
-36.0864652896
 20
67.698557579
 30
0.0
 40
1.8
210
0.0
220
0.0
230
1.0
100
AcDbArc
 50
135.0000030705
 51
179.9999984648
  0
ARC
  5
263
100
AcDbEntity
  8
LAYER0
 62
         6
100
AcDbCircle
 10
-52.0864653641
 20
80.3905886007
 30
0.0
 40
0.5
210
0.0
220
0.0
230
1.0
100
AcDbArc
 50
90.0000015352
 51
179.9999984648
  0
ARC
  5
264
100
AcDbEntity
  8
LAYER0
 62
         6
100
AcDbCircle
 10
-38.3864652896
 20
66.8905885262
 30
0.0
 40
0.5
210
0.0
220
0.0
230
1.0
100
AcDbArc
 50
270.0000015352
 51
359.9999984648
  0
ARC
  5
265
100
AcDbEntity
  8
LAYER0
 62
         6
100
AcDbCircle
 10
-9.0864652151
 20
68.8905885262
 30
0.0
 40
3.5
210
0.0
220
0.0
230
1.0
100
AcDbArc
 50
270.0000015352
 51
359.9999984648
  0
ARC
  5
266
100
AcDbEntity
  8
LAYER0
 62
         6
100
AcDbCircle
 10
-9.0864652151
 20
96.8905886752
 30
0.0
 40
3.5
210
-0.0
220
-0.0
230
1.0
100
AcDbArc
 50
359.9999984648
 51
90.0000015352
  0
ARC
  5
267
100
AcDbEntity
  8
LAYER0
 62
         6
100
AcDbCircle
 10
-34.8864650661
 20
82.1905886007
 30
0.0
 40
0.3
210
0.0
220
0.0
230
1.0
100
AcDbArc
 50
270.0000015352
 51
359.9999984648
  0
ARC
  5
268
100
AcDbEntity
  8
LAYER0
 62
         6
100
AcDbCircle
 10
-34.8864650661
 20
80.5905886007
 30
0.0
 40
0.3
210
-0.0
220
-0.0
230
1.0
100
AcDbArc
 50
359.9999984648
 51
90.0000015352
  0
LINE
  5
269
100
AcDbEntity
  8
LAYER0
 62
         6
100
AcDbLine
 10
-42.1126369532
 20
79.6905886007
 30
0.0
 11
-46.0602937751
 21
79.6905886007
 31
0.0
  0
LINE
  5
26A
100
AcDbEntity
  8
LAYER0
 62
         6
100
AcDbLine
 10
-48.0864653641
 20
80.8905886007
 30
0.0
 11
-46.9973363464
 21
80.0192853865
 31
0.0
  0
LINE
  5
26B
100
AcDbEntity
  8
LAYER0
 62
         6
100
AcDbLine
 10
-41.1755943818
 20
80.0192853865
 30
0.0
 11
-40.0864653641
 21
80.8905886007
 31
0.0
  0
ARC
  5
26C
100
AcDbEntity
  8
LAYER0
 62
         6
100
AcDbCircle
 10
-46.0602937751
 20
81.1905886007
 30
0.0
 40
1.5
210
0.0
220
0.0
230
1.0
100
AcDbArc
 50
231.3401919622
 51
270.0000015352
  0
ARC
  5
26D
100
AcDbEntity
  8
LAYER0
 62
         6
100
AcDbCircle
 10
-42.1126369532
 20
81.1905886007
 30
0.0
 40
1.5
210
0.0
220
0.0
230
1.0
100
AcDbArc
 50
270.0000015352
 51
308.6598049673
  0
LINE
  5
26E
100
AcDbEntity
  8
LAYER0
 62
         6
100
AcDbLine
 10
-34.879358285
 20
93.6228214242
 30
0.0
 11
-37.9471254614
 21
96.6905886007
 31
0.0
  0
ARC
  5
26F
100
AcDbEntity
  8
LAYER0
 62
         6
100
AcDbCircle
 10
-53.0864653641
 20
81.3905886007
 30
0.0
 40
0.5
210
0.0
220
0.0
230
1.0
100
AcDbArc
 50
90.0000015352
 51
180.0
  0
LINE
  5
270
100
AcDbEntity
  8
LAYER0
 62
         6
100
AcDbLine
 10
-43.4864653641
 20
81.8905886007
 30
0.0
 11
-44.0864653641
 21
81.3905885188
 31
0.0
  0
LINE
  5
271
100
AcDbEntity
  8
LAYER0
 62
         6
100
AcDbLine
 10
-44.0864653641
 20
81.3905885188
 30
0.0
 11
-44.6864653641
 21
81.8905886007
 31
0.0
  0
LINE
  5
272
100
AcDbEntity
  8
LAYER0
 62
         6
100
AcDbLine
 10
-26.4973362719
 20
73.2618918745
 30
0.0
 11
-27.5864652896
 21
72.3905886603
 31
0.0
  0
ARC
  5
273
100
AcDbEntity
  8
LAYER0
 62
         6
100
AcDbCircle
 10
-25.5602937006
 20
72.0905886603
 30
0.0
 40
1.5
210
0.0
220
0.0
230
1.0
100
AcDbArc
 50
90.0000015352
 51
128.6598111083
  0
LINE
  5
274
100
AcDbEntity
  8
LAYER0
 62
         6
100
AcDbLine
 10
-22.4864652896
 20
73.5905886603
 30
0.0
 11
-23.0864652896
 21
73.0905885784
 31
0.0
  0
LINE
  5
275
100
AcDbEntity
  8
LAYER0
 62
         6
100
AcDbLine
 10
-23.0864652896
 20
73.0905885784
 30
0.0
 11
-23.6864652896
 21
73.5905886603
 31
0.0
  0
LINE
  5
276
100
AcDbEntity
  8
LAYER0
 62
         6
100
AcDbLine
 10
-25.5602937006
 20
73.5905886603
 30
0.0
 11
-23.6864652896
 21
73.5905886603
 31
0.0
  0
LINE
  5
277
100
AcDbEntity
  8
LAYER0
 62
         6
100
AcDbLine
 10
-22.4864652896
 20
73.5905886603
 30
0.0
 11
-20.6126368787
 21
73.5905886603
 31
0.0
  0
ARC
  5
278
100
AcDbEntity
  8
LAYER0
 62
         6
100
AcDbCircle
 10
-20.6126368787
 20
72.0905886603
 30
0.0
 40
1.5
210
0.0
220
-0.0
230
1.0
100
AcDbArc
 50
51.3401919622
 51
90.0000015352
  0
LINE
  5
279
100
AcDbEntity
  8
LAYER0
 62
         6
100
AcDbLine
 10
-19.6755943073
 20
73.2618918745
 30
0.0
 11
-18.5864652896
 21
72.3905886603
 31
0.0
  0
LINE
  5
27A
100
AcDbEntity
  8
LAYER0
 62
         6
100
AcDbLine
 10
-13.7864653492
 20
80.4167601898
 30
0.0
 11
-13.7864653492
 21
85.3644170117
 31
0.0
  0
LINE
  5
27B
100
AcDbEntity
  8
LAYER0
 62
         6
100
AcDbLine
 10
-13.4577685634
 20
86.301459583
 30
0.0
 11
-12.5864653492
 21
87.3905886007
 31
0.0
  0
LINE
  5
27C
100
AcDbEntity
  8
LAYER0
 62
         6
100
AcDbLine
 10
-13.4577685634
 20
79.4797176184
 30
0.0
 11
-12.5864653492
 21
78.3905886007
 31
0.0
  0
ARC
  5
27D
100
AcDbEntity
  8
LAYER0
 62
         6
100
AcDbCircle
 10
-12.2864653492
 20
80.4167601898
 30
0.0
 40
1.5
210
0.0
220
0.0
230
1.0
100
AcDbArc
 50
179.9999984648
 51
218.6598080378
  0
ARC
  5
27E
100
AcDbEntity
  8
LAYER0
 62
         6
100
AcDbCircle
 10
-12.2864653492
 20
85.3644170117
 30
0.0
 40
1.5
210
0.0
220
0.0
230
1.0
100
AcDbArc
 50
141.3401950327
 51
179.9999984648
  0
LINE
  5
27F
100
AcDbEntity
  8
LAYER0
 62
         6
100
AcDbLine
 10
-26.4973362719
 20
92.5192853269
 30
0.0
 11
-27.5864652896
 21
93.3905885411
 31
0.0
  0
ARC
  5
280
100
AcDbEntity
  8
LAYER0
 62
         6
100
AcDbCircle
 10
-25.5602937006
 20
93.6905885411
 30
0.0
 40
1.5
210
0.0
220
0.0
230
1.0
100
AcDbArc
 50
231.3401919622
 51
270.0000015352
  0
LINE
  5
281
100
AcDbEntity
  8
LAYER0
 62
         6
100
AcDbLine
 10
-22.4864652896
 20
92.1905885411
 30
0.0
 11
-23.0864652896
 21
92.6905886231
 31
0.0
  0
LINE
  5
282
100
AcDbEntity
  8
LAYER0
 62
         6
100
AcDbLine
 10
-23.0864652896
 20
92.6905886231
 30
0.0
 11
-23.6864652896
 21
92.1905885411
 31
0.0
  0
LINE
  5
283
100
AcDbEntity
  8
LAYER0
 62
         6
100
AcDbLine
 10
-25.5602937006
 20
92.1905885411
 30
0.0
 11
-23.6864652896
 21
92.1905885411
 31
0.0
  0
LINE
  5
284
100
AcDbEntity
  8
LAYER0
 62
         6
100
AcDbLine
 10
-22.4864652896
 20
92.1905885411
 30
0.0
 11
-20.6126368787
 21
92.1905885411
 31
0.0
  0
ARC
  5
285
100
AcDbEntity
  8
LAYER0
 62
         6
100
AcDbCircle
 10
-20.6126368787
 20
93.6905885411
 30
0.0
 40
1.5
210
0.0
220
0.0
230
1.0
100
AcDbArc
 50
270.0000015352
 51
308.6598049673
  0
LINE
  5
286
100
AcDbEntity
  8
LAYER0
 62
         6
100
AcDbLine
 10
-19.6755943073
 20
92.5192853269
 30
0.0
 11
-18.5864652896
 21
93.3905885411
 31
0.0
  0
LINE
  5
287
100
AcDbEntity
  8
LAYER0
 62
         6
100
AcDbLine
 10
-37.3592574958
 20
68.9713497852
 30
0.0
 11
-34.879358285
 21
71.451248996
 31
0.0
  0
ARC
  5
288
100
AcDbEntity
  8
LAYER0
 62
         6
100
AcDbCircle
 10
-32.6973779335
 20
96.3905885411
 30
0.0
 40
2.0
210
0.0
220
0.0
230
1.0
100
AcDbArc
 50
225.0000023029
 51
269.9999984648
  0
ARC
  5
289
100
AcDbEntity
  8
LAYER0
 62
         6
100
AcDbCircle
 10
-32.5864650661
 20
92.3905885411
 30
0.0
 40
1.0
210
0.0
220
0.0
230
1.0
100
AcDbArc
 50
90.0000015352
 51
179.9999984648
  0
ARC
  5
28A
100
AcDbEntity
  8
LAYER0
 62
         6
100
AcDbCircle
 10
-32.5864650661
 20
73.3905886603
 30
0.0
 40
1.0
210
0.0
220
0.0
230
1.0
100
AcDbArc
 50
179.9999984648
 51
270.0000015352
  0
ENDBLK
  5
28B
100
AcDbEntity
  8
0
100
AcDbBlockEnd
  0
ENDSEC
  0
SECTION
  2
ENTITIES
  0
LINE
  5
2F
100
AcDbEntity
  8
LAYER3
 62
         4
100
AcDbLine
 10
41.7700729927
 20
-26.4593368525
 30
0.0
 11
44.7045157949
 21
-27.083071925
 31
0.0
  0
MTEXT
  5
30
100
AcDbEntity
  8
LAYER3
100
AcDbMText
 10
45.7700729927
 20
-22.6716781611
 30
0.0
 40
2.1473683357
 41
3.8469689941
 71
         1
 72
         1
  1
\W0.8;t=2
  0
LINE
  5
31
100
AcDbEntity
  8
LAYER3
 62
         4
100
AcDbLine
 10
39.7700729927
 20
-26.4593368525
 30
0.0
 11
41.7700729927
 21
-26.4593368525
 31
0.0
  0
LINE
  5
32
100
AcDbEntity
  8
LAYER3
 62
         4
100
AcDbLine
 10
41.7700729927
 20
-37.1365653938
 30
0.0
 11
41.7700729927
 21
-25.4593368525
 31
0.0
  0
LINE
  5
33
100
AcDbEntity
  8
LAYER3
 62
         4
100
AcDbLine
 10
39.7700729927
 20
-37.6365653938
 30
0.0
 11
39.7700729927
 21
-25.4593368525
 31
0.0
  0
INSERT
  5
35
100
AcDbEntity
  8
0
100
AcDbBlockReference
  2
CLUMP0
 10
0.0
 20
0.0
 30
0.0
  0
INSERT
  5
50
100
AcDbEntity
  8
0
100
AcDbBlockReference
  2
CLUMP2
 10
0.0
 20
0.0
 30
0.0
  0
LINE
  5
69
100
AcDbEntity
  8
LAYER0
 62
         5
100
AcDbLine
 10
-20.4864652896
 20
69.3905886603
 30
0.0
 11
-20.4864652896
 21
71.3905886603
 31
0.0
  0
LINE
  5
6A
100
AcDbEntity
  8
LAYER0
 62
         5
100
AcDbLine
 10
-25.6864652896
 20
71.3905886603
 30
0.0
 11
-25.6864652896
 21
69.3905886603
 31
0.0
  0
POINT
  5
6B
100
AcDbEntity
  8
LAYER3
100
AcDbPoint
 10
0.5168112208
 20
90.8431903541
 30
0.0
  0
ARC
  5
6C
100
AcDbEntity
  8
LAYER0
 62
         3
100
AcDbCircle
 10
40.2700729927
 20
8.1998417844
 30
0.0
 40
0.5
210
0.0
220
0.0
230
1.0
100
AcDbArc
 50
90.0000015352
 51
180.0000030705
  0
ARC
  5
6D
100
AcDbEntity
  8
LAYER0
 62
         3
100
AcDbCircle
 10
25.9780276234
 20
-5.1358797807
 30
0.0
 40
6.8357215651
210
0.0
220
0.0
230
1.0
100
AcDbArc
 50
92.6549246107
 51
133.4532424319
  0
ARC
  5
6E
100
AcDbEntity
  8
LAYER0
 62
         3
100
AcDbCircle
 10
25.3700729927
 20
-4.2289127026
 30
0.0
 40
5.928754487
210
0.0
220
0.0
230
1.0
100
AcDbArc
 50
90.0000015352
 51
135.1417490246
  0
ARC
  5
6F
100
AcDbEntity
  8
LAYER0
 62
         3
100
AcDbCircle
 10
25.3700729927
 20
-3.4302209483
 30
0.0
 40
5.1300627328
210
0.0
220
-0.0
230
1.0
100
AcDbArc
 50
43.1423500955
 51
90.0000015352
  0
LINE
  5
70
100
AcDbEntity
  8
LAYER0
 62
         3
100
AcDbLine
 10
41.7700729927
 20
8.6998417844
 30
0.0
 11
25.3700729927
 21
8.6998417844
 31
0.0
  0
MTEXT
  5
71
100
AcDbEntity
  8
LAYER3
100
AcDbMText
 10
19.6614606029
 20
47.1537524958
 30
0.0
 40
3.0421052098
 41
11.5809798333
 71
         1
 72
         1
  1
\W0.8;南京錠
  0
LINE
  5
72
100
AcDbEntity
  8
LAYER3
100
AcDbLine
 10
18.4717142537
 20
42.2015982679
 30
0.0
 11
30.6717142537
 21
42.2015982679
 31
0.0
  0
MTEXT
  5
73
100
AcDbEntity
  8
LAYER3
100
AcDbMText
 10
14.4629482504
 20
108.7683730571
 30
0.0
 40
2.281578958
 41
14.476225113
 71
         1
 72
         1
  1
\W0.8;マグネット
  0
LINE
  5
74
100
AcDbEntity
  8
LAYER3
100
AcDbLine
 10
13.4629482504
 20
105.006485566
 30
0.0
 11
27.2129482504
 21
105.006485566
 31
0.0
  0
POINT
  5
75
100
AcDbEntity
  8
LAYER3
100
AcDbPoint
 10
44.1822221743
 20
71.9067513012
 30
0.0
  0
LINE
  5
76
100
AcDbEntity
  8
LAYER0
 62
         5
100
AcDbLine
 10
41.7700729927
 20
-45.6365653938
 30
0.0
 11
39.7700729927
 21
-45.6365653938
 31
0.0
  0
LINE
  5
77
100
AcDbEntity
  8
LAYER0
 62
         5
100
AcDbLine
 10
41.7700729927
 20
-45.8365653938
 30
0.0
 11
39.7700729927
 21
-45.8365653938
 31
0.0
  0
LINE
  5
78
100
AcDbEntity
  8
LAYER0
 62
         3
100
AcDbLine
 10
41.7700729927
 20
-17.3001582156
 30
0.0
 11
25.3700729927
 21
-17.3001582156
 31
0.0
  0
ARC
  5
79
100
AcDbEntity
  8
LAYER0
 62
         3
100
AcDbCircle
 10
40.2700729927
 20
-16.8001582156
 30
0.0
 40
0.5
210
0.0
220
0.0
230
1.0
100
AcDbArc
 50
179.9999969295
 51
269.9999984648
  0
ARC
  5
7A
100
AcDbEntity
  8
LAYER0
 62
         3
100
AcDbCircle
 10
25.9780276234
 20
-3.4644366505
 30
0.0
 40
6.8357215651
210
0.0
220
0.0
230
1.0
100
AcDbArc
 50
226.5467575681
 51
267.3450753892
  0
ARC
  5
7B
100
AcDbEntity
  8
LAYER0
 62
         3
100
AcDbCircle
 10
25.3700729927
 20
-4.3714037286
 30
0.0
 40
5.928754487
210
0.0
220
0.0
230
1.0
100
AcDbArc
 50
224.8582509754
 51
269.9999984648
  0
ARC
  5
7C
100
AcDbEntity
  8
LAYER0
 62
         3
100
AcDbCircle
 10
25.3700729927
 20
-5.1700954828
 30
0.0
 40
5.1300627328
210
0.0
220
0.0
230
1.0
100
AcDbArc
 50
269.9999984648
 51
316.8576499045
  0
MTEXT
  5
7D
100
AcDbEntity
  8
LAYER3
100
AcDbMText
 10
22.2040283613
 20
-22.7615628492
 30
0.0
 40
2.1473683357
 41
5.1292919922
 71
         1
 72
         1
  1
\W0.8;(26)
  0
LINE
  5
7E
100
AcDbEntity
  8
LAYER3
 62
         4
100
AcDbLine
 10
12.3700729927
 20
-26.5492215406
 30
0.0
 11
15.3045157949
 21
-25.9254864682
 31
0.0
  0
LINE
  5
7F
100
AcDbEntity
  8
LAYER3
 62
         4
100
AcDbLine
 10
12.3700729927
 20
-26.5492215406
 30
0.0
 11
15.3045157949
 21
-27.1729566131
 31
0.0
  0
LINE
  5
80
100
AcDbEntity
  8
LAYER3
 62
         4
100
AcDbLine
 10
39.7700729927
 20
-26.5492215406
 30
0.0
 11
36.8356301905
 21
-27.1729566131
 31
0.0
  0
LINE
  5
81
100
AcDbEntity
  8
LAYER3
 62
         4
100
AcDbLine
 10
39.7700729927
 20
-26.5492215406
 30
0.0
 11
36.8356301905
 21
-25.9254864682
 31
0.0
  0
LINE
  5
82
100
AcDbEntity
  8
LAYER3
 62
         4
100
AcDbLine
 10
39.7700729927
 20
-26.5492215406
 30
0.0
 11
12.3700729927
 21
-26.5492215406
 31
0.0
  0
LINE
  5
83
100
AcDbEntity
  8
LAYER3
 62
         4
100
AcDbLine
 10
39.7700729927
 20
-38.6365653938
 30
0.0
 11
39.7700729927
 21
-25.5492215406
 31
0.0
  0
LINE
  5
84
100
AcDbEntity
  8
LAYER3
 62
         4
100
AcDbLine
 10
12.3700729927
 20
-61.6365653938
 30
0.0
 11
12.3700729927
 21
-25.5492215406
 31
0.0
  0
ARC
  5
85
100
AcDbEntity
  8
LAYER0
 62
         5
100
AcDbCircle
 10
31.301743171
 20
-58.3830438208
 30
0.0
 40
0.5
210
0.0
220
0.0
230
1.0
100
AcDbArc
 50
123.6900696359
 51
213.6900650302
  0
ARC
  5
86
100
AcDbEntity
  8
LAYER0
 62
         5
100
AcDbCircle
 10
18.8971213574
 20
-62.6227584654
 30
0.0
 40
0.5
210
0.0
220
-0.0
230
1.0
100
AcDbArc
 50
3.2806667595
 51
92.0073239116
  0
ARC
  5
87
100
AcDbEntity
  8
LAYER0
 62
         3
100
AcDbCircle
 10
39.7700729927
 20
-52.1365653938
 30
0.0
 40
2.0
210
-0.0
220
0.0
230
1.0
100
AcDbArc
 50
303.6900665654
 51
0.0
  0
LINE
  5
88
100
AcDbEntity
  8
LAYER0
 62
         5
100
AcDbLine
 10
19.4824606473
 20
-64.0972338
 30
0.0
 11
19.3963019491
 21
-62.5941448886
 31
0.0
  0
LINE
  5
89
100
AcDbEntity
  8
LAYER0
 62
         5
100
AcDbLine
 10
31.7177683182
 20
-59.9084693605
 30
0.0
 11
30.8857180238
 21
-58.660393919
 31
0.0
  0
LINE
  5
8A
100
AcDbEntity
  8
LAYER0
 62
         3
100
AcDbLine
 10
39.7700729927
 20
-52.1365653938
 30
0.0
 11
30.3124132796
 21
-58.4416718692
 31
0.0
  0
LINE
  5
8B
100
AcDbEntity
  8
LAYER3
 62
         4
100
AcDbLine
 10
39.7700729927
 20
-26.4593368525
 30
0.0
 11
36.8356301905
 21
-27.083071925
 31
0.0
  0
LINE
  5
8C
100
AcDbEntity
  8
LAYER3
 62
         4
100
AcDbLine
 10
39.7700729927
 20
-26.4593368525
 30
0.0
 11
36.8356301905
 21
-25.8356017801
 31
0.0
  0
LINE
  5
8D
100
AcDbEntity
  8
LAYER3
 62
         4
100
AcDbLine
 10
34.7700729927
 20
-26.4593368525
 30
0.0
 11
39.7700729927
 21
-26.4593368525
 31
0.0
  0
LINE
  5
8E
100
AcDbEntity
  8
LAYER3
 62
         4
100
AcDbLine
 10
41.7700729927
 20
-26.4593368525
 30
0.0
 11
44.7045157949
 21
-25.8356017801
 31
0.0
  0
LINE
  5
8F
100
AcDbEntity
  8
LAYER3
 62
         4
100
AcDbLine
 10
1.287677305
 20
-38.1365653938
 30
0.0
 11
0.6639422325
 21
-41.071008196
 31
0.0
  0
LINE
  5
90
100
AcDbEntity
  8
LAYER3
 62
         4
100
AcDbLine
 10
1.287677305
 20
-38.1365653938
 30
0.0
 11
1.287677305
 21
-62.1365653938
 31
0.0
  0
MTEXT
  5
91
100
AcDbEntity
  8
LAYER3
100
AcDbMText
 10
-30.8299270073
 20
-23.0679865951
 30
0.0
 40
2.1473683357
 41
2.5646459961
 71
         1
 72
         1
  1
\W0.8;26
  0
LINE
  5
92
100
AcDbEntity
  8
LAYER3
 62
         4
100
AcDbLine
 10
-15.4299270073
 20
-26.8556452865
 30
0.0
 11
-18.3643698095
 21
-27.479380359
 31
0.0
  0
LINE
  5
93
100
AcDbEntity
  8
LAYER3
 62
         4
100
AcDbLine
 10
-15.4299270073
 20
-26.8556452865
 30
0.0
 11
-18.3643698095
 21
-26.2319102141
 31
0.0
  0
LINE
  5
94
100
AcDbEntity
  8
LAYER3
 62
         4
100
AcDbLine
 10
-15.4299270073
 20
-40.1365653938
 30
0.0
 11
-15.4299270073
 21
-25.8556452865
 31
0.0
  0
MTEXT
  5
95
100
AcDbEntity
  8
LAYER0
100
AcDbMText
 10
16.3216602544
 20
-132.8866032766
 30
0.0
 40
2.4737683892
 41
41.3626117364
 71
         1
 72
         1
  1
\W0.8;サイドポール用南京錠取付金具
  0
MTEXT
  5
96
100
AcDbEntity
  8
LAYER0
100
AcDbMText
 10
32.0542682872
 20
-126.7970201517
 30
0.0
 40
2.1473683357
 41
7.6538653946
 71
         1
 72
         1
  1
\W0.8;品　名
  0
MTEXT
  5
97
100
AcDbEntity
  8
LAYER0
100
AcDbMText
 10
68.8275155132
 20
-133.0523472773
 30
0.0
 40
2.6122994304
 41
9.3597681822
 71
         1
 72
         1
  1
\W0.8;D56206
  0
LINE
  5
98
100
AcDbEntity
  8
LAYER0
 62
         3
100
AcDbLine
 10
60.0
 20
-125.5
 30
0.0
 11
60.0
 21
-138.5
 31
0.0
  0
MTEXT
  5
99
100
AcDbEntity
  8
LAYER0
100
AcDbMText
 10
72.5158633528
 20
-126.7970201517
 30
0.0
 40
2.1473683357
 41
10.2585839844
 71
         1
 72
         1
  1
\W0.8;管理図番
  0
LINE
  5
9A
100
AcDbEntity
  8
LAYER0
 62
         3
100
AcDbLine
 10
95.0
 20
-138.5
 30
0.0
 11
95.0
 21
-125.5
 31
0.0
  0
ARC
  5
9B
100
AcDbEntity
  8
LAYER0
 62
         3
100
AcDbCircle
 10
12.8700729927
 20
-62.6365653938
 30
0.0
 40
0.5
210
0.0
220
0.0
230
1.0
100
AcDbArc
 50
90.0000015352
 51
180.0000030705
  0
ARC
  5
9C
100
AcDbEntity
  8
LAYER0
 62
         3
100
AcDbCircle
 10
40.2700729927
 20
-38.6365653938
 30
0.0
 40
0.5
210
0.0
220
0.0
230
1.0
100
AcDbArc
 50
90.0000015352
 51
180.0000030705
  0
LINE
  5
9D
100
AcDbEntity
  8
LAYER0
 62
         3
100
AcDbLine
 10
41.7700729927
 20
-38.1365653938
 30
0.0
 11
41.7700729927
 21
-52.1365653938
 31
0.0
  0
LINE
  5
9E
100
AcDbEntity
  8
LAYER0
 62
         3
100
AcDbLine
 10
12.3700729927
 20
-62.6365653938
 30
0.0
 11
12.3700729927
 21
-64.1365653938
 31
0.0
  0
LINE
  5
9F
100
AcDbEntity
  8
LAYER0
 62
         3
100
AcDbLine
 10
12.3700729927
 20
-64.1365653938
 30
0.0
 11
18.1090089626
 21
-64.1365653938
 31
0.0
  0
LINE
  5
A0
100
AcDbEntity
  8
LAYER0
 62
         3
100
AcDbLine
 10
40.2700729927
 20
-38.1365653938
 30
0.0
 11
41.7700729927
 21
-38.1365653938
 31
0.0
  0
LINE
  5
A1
100
AcDbEntity
  8
LAYER0
 62
         3
100
AcDbLine
 10
39.7700729927
 20
-38.6365653938
 30
0.0
 11
39.7700729927
 21
-52.1365653938
 31
0.0
  0
LINE
  5
A2
100
AcDbEntity
  8
LAYER0
 62
         3
100
AcDbLine
 10
12.8700729927
 20
-62.1365653938
 30
0.0
 11
18.1090089626
 21
-62.1365653938
 31
0.0
  0
ARC
  5
A3
100
AcDbEntity
  8
LAYER0
 62
         3
100
AcDbCircle
 10
18.1090089626
 20
-40.1365653938
 30
0.0
 40
24.0
210
0.0
220
0.0
230
1.0
100
AcDbArc
 50
269.9999984648
 51
303.6900665654
  0
LINE
  5
A4
100
AcDbEntity
  8
LAYER0
 62
         3
100
AcDbLine
 10
40.8794733852
 20
-53.8006659825
 30
0.0
 11
31.421813672
 21
-60.1057724579
 31
0.0
  0
ARC
  5
A5
100
AcDbEntity
  8
LAYER0
 62
         3
100
AcDbCircle
 10
18.1090089626
 20
-40.1365653938
 30
0.0
 40
22.0
210
0.0
220
0.0
230
1.0
100
AcDbArc
 50
269.9999984648
 51
303.6900665654
  0
LINE
  5
A6
100
AcDbEntity
  8
LAYER0
 62
         5
100
AcDbLine
 10
39.7700729927
 20
-50.4365653938
 30
0.0
 11
41.7700729927
 21
-50.4365653938
 31
0.0
  0
LINE
  5
A7
100
AcDbEntity
  8
LAYER0
 62
         5
100
AcDbLine
 10
39.7700729927
 20
-50.6365653938
 30
0.0
 11
41.7700729927
 21
-50.6365653938
 31
0.0
  0
ARC
  5
A8
100
AcDbEntity
  8
LAYER0
 62
         3
100
AcDbCircle
 10
-41.2421255197
 20
-62.9451627465
 30
0.0
 40
0.1878014876
210
0.0
220
0.0
230
1.0
100
AcDbArc
 50
180.0000030705
 51
261.0421393442
  0
ARC
  5
A9
100
AcDbEntity
  8
LAYER0
 62
         3
100
AcDbCircle
 10
-41.2421255197
 20
-60.9451627465
 30
0.0
 40
0.1878014876
210
0.0
220
0.0
230
1.0
100
AcDbArc
 50
180.0000030705
 51
261.0421393442
  0
LINE
  5
AA
100
AcDbEntity
  8
LAYER3
 62
         4
100
AcDbLine
 10
-41.4299270073
 20
-26.8556452865
 30
0.0
 11
-38.4954842051
 21
-26.2319102141
 31
0.0
  0
LINE
  5
AB
100
AcDbEntity
  8
LAYER3
 62
         4
100
AcDbLine
 10
-41.4299270073
 20
-26.8556452865
 30
0.0
 11
-38.4954842051
 21
-27.479380359
 31
0.0
  0
LINE
  5
AC
100
AcDbEntity
  8
LAYER3
 62
         4
100
AcDbLine
 10
-41.4299270073
 20
-40.1365653938
 30
0.0
 11
-41.4299270073
 21
-25.8556452865
 31
0.0
  0
ARC
  5
AD
100
AcDbEntity
  8
LAYER0
 62
         3
100
AcDbCircle
 10
-23.8407325144
 20
-61.0481886069
 30
0.0
 40
1.4108055071
210
-0.0
220
0.0
230
1.0
100
AcDbArc
 50
298.6468399976
 51
61.3531600024
  0
ARC
  5
AE
100
AcDbEntity
  8
LAYER0
 62
         3
100
AcDbCircle
 10
-28.4299270073
 20
-71.1298050849
 30
0.0
 40
10.9834041425
210
0.0
220
-0.0
230
1.0
100
AcDbArc
 50
61.3531600024
 51
90.0000015352
  0
ARC
  5
AF
100
AcDbEntity
  8
LAYER0
 62
         3
100
AcDbCircle
 10
-23.8407325144
 20
-62.7289754508
 30
0.0
 40
1.4108055071
210
0.0
220
0.0
230
1.0
100
AcDbArc
 50
57.7845021737
 51
61.3531600024
  0
ARC
  5
B0
100
AcDbEntity
  8
LAYER0
 62
         3
100
AcDbCircle
 10
-22.723377193
 20
-61.0481886069
 30
0.0
 40
0.2934501857
210
-0.0
220
0.0
230
1.0
100
AcDbArc
 50
285.4029031914
 51
0.0
  0
ARC
  5
B1
100
AcDbEntity
  8
LAYER0
 62
         3
100
AcDbCircle
 10
-28.4299270073
 20
-40.3347914932
 30
0.0
 40
21.7785503897
210
0.0
220
0.0
230
1.0
100
AcDbArc
 50
269.9999919065
 51
285.4029031914
  0
ARC
  5
B2
100
AcDbEntity
  8
LAYER0
 62
         3
100
AcDbCircle
 10
-28.4299270073
 20
-69.449018241
 30
0.0
 40
10.9834041425
210
0.0
220
-0.0
230
1.0
100
AcDbArc
 50
61.3531600024
 51
90.0000015352
  0
ARC
  5
B3
100
AcDbEntity
  8
LAYER0
 62
         3
100
AcDbCircle
 10
-23.8407325144
 20
-61.0481886069
 30
0.0
 40
1.4108055071
210
0.0
220
0.0
230
1.0
100
AcDbArc
 50
0.0
 51
61.3531600024
  0
LINE
  5
B4
100
AcDbEntity
  8
LAYER0
 62
         3
100
AcDbLine
 10
-15.4299270073
 20
-41.1365653938
 30
0.0
 11
-15.4299270073
 21
-62.9451627465
 31
0.0
  0
ARC
  5
B5
100
AcDbEntity
  8
LAYER0
 62
         3
100
AcDbCircle
 10
-18.4299270073
 20
-41.1365653938
 30
0.0
 40
3.0
210
0.0
220
-0.0
230
1.0
100
AcDbArc
 50
0.0
 51
90.0000015352
  0
LINE
  5
B6
100
AcDbEntity
  8
LAYER0
  6
CENTER
100
AcDbLine
 10
-28.4299270073
 20
-33.2967238425
 30
0.0
 11
-28.4299270073
 21
-68.5931506675
 31
0.0
  0
LINE
  5
B7
100
AcDbEntity
  8
LAYER0
 62
         3
100
AcDbLine
 10
-15.4299270073
 20
-52.1365653938
 30
0.0
 11
-28.4299270073
 21
-52.1365653938
 31
0.0
  0
LINE
  5
B8
100
AcDbEntity
  8
LAYER0
 62
         3
100
AcDbLine
 10
-18.4299270073
 20
-38.1365653938
 30
0.0
 11
-28.4299270073
 21
-38.1365653938
 31
0.0
  0
CIRCLE
  5
B9
100
AcDbEntity
  8
LAYER0
 62
         3
100
AcDbCircle
 10
-28.4299270073
 20
-48.1365653938
 30
0.0
 40
2.3
210
0.0
220
0.0
230
1.0
  0
CIRCLE
  5
BA
100
AcDbEntity
  8
LAYER0
 62
         4
100
AcDbCircle
 10
-28.4299270073
 20
-48.1365653938
 30
0.0
 40
2.5
210
0.0
220
0.0
230
1.0
  0
ARC
  5
BB
100
AcDbEntity
  8
LAYER0
 62
         3
100
AcDbCircle
 10
-15.6177284949
 20
-62.9451627465
 30
0.0
 40
0.1878014876
210
-0.0
220
0.0
230
1.0
100
AcDbArc
 50
278.9578575854
 51
0.0
  0
ARC
  5
BC
100
AcDbEntity
  8
LAYER0
 62
         3
100
AcDbCircle
 10
-15.6177284949
 20
-60.9451627465
 30
0.0
 40
0.1878014876
210
-0.0
220
0.0
230
1.0
100
AcDbArc
 50
278.9578575854
 51
0.0
  0
MTEXT
  5
BD
100
AcDbEntity
  8
LAYER3
100
AcDbMText
 10
-2.4999813864
 20
-52.5365654685
 30
0.0
 40
2.1473683357
 41
2.5646459961
 71
         1
 72
         1
  1
\W0.8;24
 11
-0.0000000268
 21
1.0
 31
0.0
  0
LINE
  5
BE
100
AcDbEntity
  8
LAYER3
 62
         4
100
AcDbLine
 10
1.287677305
 20
-62.1365653938
 30
0.0
 11
0.6639422325
 21
-59.2021225916
 31
0.0
  0
LINE
  5
BF
100
AcDbEntity
  8
LAYER3
 62
         4
100
AcDbLine
 10
1.287677305
 20
-62.1365653938
 30
0.0
 11
1.9114123774
 21
-59.2021225916
 31
0.0
  0
LINE
  5
C0
100
AcDbEntity
  8
LAYER3
 62
         4
100
AcDbLine
 10
1.287677305
 20
-38.1365653938
 30
0.0
 11
1.9114123774
 21
-41.071008196
 31
0.0
  0
INSERT
  5
C2
100
AcDbEntity
  8
0
100
AcDbBlockReference
  2
CLUMP4
 10
0.0
 20
0.0
 30
0.0
  0
MTEXT
  5
DE
100
AcDbEntity
  8
LAYER3
100
AcDbMText
 10
52.4369584515
 20
68.3005472608
 30
0.0
 40
2.281578958
 41
17.3714701357
 71
         1
 72
         1
  1
\W0.8;サイドポール
  0
LINE
  5
DF
100
AcDbEntity
  8
LAYER3
100
AcDbLine
 10
51.4369584515
 20
64.5386597697
 30
0.0
 11
67.7369584515
 21
64.5386597697
 31
0.0
  0
LINE
  5
E0
100
AcDbEntity
  8
LAYER3
100
AcDbLine
 10
44.1822221743
 20
71.9067513012
 30
0.0
 11
51.4369584515
 21
64.5386597697
 31
0.0
  0
MTEXT
  5
E1
100
AcDbEntity
  8
LAYER0
100
AcDbMText
 10
-35.7051459079
 20
-126.6461242782
 30
0.0
 40
2.1473683357
 41
6.4116149902
 71
         1
 72
         1
  1
\W0.8;Ｎｏ.
  0
ARC
  5
E2
100
AcDbEntity
  8
LAYER0
 62
         3
100
AcDbCircle
 10
-33.0191215002
 20
-62.7289754508
 30
0.0
 40
1.4108055071
210
0.0
220
0.0
230
1.0
100
AcDbArc
 50
118.6468430681
 51
122.2155008968
  0
ARC
  5
E3
100
AcDbEntity
  8
LAYER0
 62
         3
100
AcDbCircle
 10
-28.4299270073
 20
-40.3347914932
 30
0.0
 40
21.7785503897
210
0.0
220
0.0
230
1.0
100
AcDbArc
 50
254.5970937381
 51
270.000005023
  0
ARC
  5
E4
100
AcDbEntity
  8
LAYER0
 62
         3
100
AcDbCircle
 10
-34.1364768216
 20
-61.0481886069
 30
0.0
 40
0.2934501857
210
0.0
220
0.0
230
1.0
100
AcDbArc
 50
179.9999969295
 51
254.5970937381
  0
ARC
  5
E5
100
AcDbEntity
  8
LAYER0
 62
         3
100
AcDbCircle
 10
-28.4299270073
 20
-69.449018241
 30
0.0
 40
10.9834041425
210
0.0
220
0.0
230
1.0
100
AcDbArc
 50
90.0000015352
 51
118.6468430681
  0
ARC
  5
E6
100
AcDbEntity
  8
LAYER0
 62
         3
100
AcDbCircle
 10
-33.0191215002
 20
-61.0481886069
 30
0.0
 40
1.4108055071
210
0.0
220
0.0
230
1.0
100
AcDbArc
 50
118.6468430681
 51
180.0000030705
  0
ARC
  5
E7
100
AcDbEntity
  8
LAYER0
 62
         3
100
AcDbCircle
 10
-28.4299270073
 20
-71.1298050849
 30
0.0
 40
10.9834041425
210
0.0
220
-0.0
230
1.0
100
AcDbArc
 50
60.8810035524
 51
118.6468430681
  0
LINE
  5
E8
100
AcDbEntity
  8
LAYER0
 62
         3
100
AcDbLine
 10
-41.4299270073
 20
-52.1365653938
 30
0.0
 11
-28.4299270073
 21
-52.1365653938
 31
0.0
  0
LINE
  5
E9
100
AcDbEntity
  8
LAYER0
 62
         3
100
AcDbLine
 10
-38.4299270073
 20
-38.1365653938
 30
0.0
 11
-28.4299270073
 21
-38.1365653938
 31
0.0
  0
LINE
  5
EA
100
AcDbEntity
  8
LAYER0
  6
CENTER
100
AcDbLine
 10
-23.4299270073
 20
-48.1365653938
 30
0.0
 11
-33.4299270073
 21
-48.1365653938
 31
0.0
  0
ARC
  5
EB
100
AcDbEntity
  8
LAYER0
 62
         3
100
AcDbCircle
 10
-28.4299270073
 20
-71.1298050849
 30
0.0
 40
10.9834041425
210
0.0
220
0.0
230
1.0
100
AcDbArc
 50
90.0000015352
 51
119.1189995181
  0
ARC
  5
EC
100
AcDbEntity
  8
LAYER0
 62
         3
100
AcDbCircle
 10
-28.4299270073
 20
18.3347430537
 30
0.0
 40
82.4713084475
210
0.0
220
0.0
230
1.0
100
AcDbArc
 50
261.0421393442
 51
278.9578575854
  0
ARC
  5
ED
100
AcDbEntity
  8
LAYER0
 62
         3
100
AcDbCircle
 10
-28.4299270073
 20
20.3347430537
 30
0.0
 40
82.4713084475
210
0.0
220
0.0
230
1.0
100
AcDbArc
 50
261.0421393442
 51
278.9578575854
  0
LINE
  5
EE
100
AcDbEntity
  8
LAYER3
 62
         4
100
AcDbLine
 10
-41.4299270073
 20
-26.8556452865
 30
0.0
 11
-15.4299270073
 21
-26.8556452865
 31
0.0
  0
LINE
  5
EF
100
AcDbEntity
  8
LAYER3
 62
         4
100
AcDbLine
 10
53.6522187397
 20
-26.4593368525
 30
0.0
 11
41.7700729927
 21
-26.4593368525
 31
0.0
  0
LINE
  5
F0
100
AcDbEntity
  8
LAYER0
 62
         3
100
AcDbLine
 10
-40.0
 20
-138.5
 30
0.0
 11
-40.0
 21
-125.5
 31
0.0
  0
MTEXT
  5
F1
100
AcDbEntity
  8
LAYER0
100
AcDbMText
 10
-15.6501737419
 20
-132.5157576176
 30
0.0
 40
3.0922104359
 41
9.2327256828
 71
         1
 72
         1
  1
\W0.8;MR-22
  0
LINE
  5
F2
100
AcDbEntity
  8
LAYER0
 62
         3
100
AcDbLine
 10
-25.0
 20
-125.5
 30
0.0
 11
-25.0
 21
-138.5
 31
0.0
  0
MTEXT
  5
F3
100
AcDbEntity
  8
LAYER0
100
AcDbMText
 10
-10.6564309049
 20
-126.7970201517
 30
0.0
 40
2.1473683357
 41
7.6538653946
 71
         1
 72
         1
  1
\W0.8;品　番
  0
LINE
  5
F4
100
AcDbEntity
  8
LAYER0
 62
         3
100
AcDbLine
 10
-41.4299270073
 20
-41.1365653938
 30
0.0
 11
-41.4299270073
 21
-62.9451627465
 31
0.0
  0
ARC
  5
F5
100
AcDbEntity
  8
LAYER0
 62
         3
100
AcDbCircle
 10
-38.4299270073
 20
-41.1365653938
 30
0.0
 40
3.0
210
0.0
220
0.0
230
1.0
100
AcDbArc
 50
90.0000015352
 51
179.9999969295
  0
LINE
  5
F6
100
AcDbEntity
  8
LAYER0
  6
CENTER
100
AcDbLine
 10
25.2505967561
 20
-12.3001582156
 30
0.0
 11
25.2505967561
 21
3.6998417844
 31
0.0
  0
LINE
  5
F7
100
AcDbEntity
  8
LAYER0
 62
         3
100
AcDbLine
 10
39.7700729927
 20
8.1998417844
 30
0.0
 11
39.7700729927
 21
-16.8001582156
 31
0.0
  0
LINE
  5
F8
100
AcDbEntity
  8
LAYER0
  6
CENTER
100
AcDbLine
 10
48.4095020129
 20
-4.3001582156
 30
0.0
 11
8.3985962432
 21
-4.3001582156
 31
0.0
  0
LINE
  5
F9
100
AcDbEntity
  8
LAYER0
 62
         3
100
AcDbLine
 10
41.7700729927
 20
-17.3001582156
 30
0.0
 11
41.7700729927
 21
8.6998417844
 31
0.0
  0
ARC
  5
FA
100
AcDbEntity
  8
LAYER0
 62
         3
100
AcDbCircle
 10
25.1862527142
 20
-4.3001582156
 30
0.0
 40
5.6844882954
210
0.0
220
0.0
230
1.0
100
AcDbArc
 50
133.4532424319
 51
226.5467575681
  0
ARC
  5
FB
100
AcDbEntity
  8
LAYER0
 62
         3
100
AcDbCircle
 10
25.4416718959
 20
-4.3001582156
 30
0.0
 40
6.0297610515
210
0.0
220
0.0
230
1.0
100
AcDbArc
 50
135.1417490246
 51
224.8582509754
  0
ARC
  5
FC
100
AcDbEntity
  8
LAYER0
 62
         3
100
AcDbCircle
 10
24.4418139517
 20
-4.3001582156
 30
0.0
 40
6.4022481344
210
-0.0
220
0.0
230
1.0
100
AcDbArc
 50
316.8576499045
 51
43.1423500955
  0
ARC
  5
FD
100
AcDbEntity
  8
LAYER0
 62
         3
100
AcDbCircle
 10
25.3700729927
 20
-4.3001582156
 30
0.0
 40
13.0
210
0.0
220
0.0
230
1.0
100
AcDbArc
 50
179.9999969295
 51
269.9999984648
  0
ARC
  5
FE
100
AcDbEntity
  8
LAYER0
 62
         3
100
AcDbCircle
 10
25.3700729927
 20
-4.3001582156
 30
0.0
 40
13.0
210
0.0
220
0.0
230
1.0
100
AcDbArc
 50
90.0000015352
 51
180.0000030705
  0
LINE
  5
FF
100
AcDbEntity
  8
LAYER0
 62
         3
100
AcDbLine
 10
10.0
 20
-138.5
 30
0.0
 11
10.0
 21
-125.5
 31
0.0
  0
LINE
  5
100
100
AcDbEntity
  8
LAYER0
 62
         3
100
AcDbLine
 10
95.0
 20
-125.5
 30
0.0
 11
-40.0
 21
-125.5
 31
0.0
  0
LINE
  5
101
100
AcDbEntity
  8
LAYER0
 62
         3
100
AcDbLine
 10
95.0
 20
-130.5
 30
0.0
 11
-40.0
 21
-130.5
 31
0.0
  0
LINE
  5
102
100
AcDbEntity
  8
LAYER0
 62
         3
100
AcDbLine
 10
95.0
 20
-138.5
 30
0.0
 11
-40.0
 21
-138.5
 31
0.0
  0
LINE
  5
103
100
AcDbEntity
  8
LAYER3
 62
         4
100
AcDbLine
 10
39.2700729927
 20
-38.1365653938
 30
0.0
 11
0.287677305
 21
-38.1365653938
 31
0.0
  0
LINE
  5
104
100
AcDbEntity
  8
LAYER3
 62
         4
100
AcDbLine
 10
11.8700729927
 20
-62.1365653938
 30
0.0
 11
0.287677305
 21
-62.1365653938
 31
0.0
  0
POINT
  5
105
100
AcDbEntity
  8
LAYER0
100
AcDbPoint
 10
9.5318111804
 20
49.5051314772
 30
0.0
  0
LINE
  5
106
100
AcDbEntity
  8
LAYER0
100
AcDbLine
 10
18.4717142537
 20
42.2015982679
 30
0.0
 11
9.5318111804
 21
49.5051314772
 31
0.0
  0
INSERT
  5
108
100
AcDbEntity
  8
0
100
AcDbBlockReference
  2
CLUMP6
 10
0.0
 20
0.0
 30
0.0
  0
INSERT
  5
132
100
AcDbEntity
  8
0
100
AcDbBlockReference
  2
CLUMP8
 10
0.0
 20
0.0
 30
0.0
  0
INSERT
  5
143
100
AcDbEntity
  8
0
100
AcDbBlockReference
  2
CLUMP10
 10
0.0
 20
0.0
 30
0.0
  0
LINE
  5
1C3
100
AcDbEntity
  8
LAYER3
100
AcDbLine
 10
0.5168112208
 20
90.8431903541
 30
0.0
 11
13.4629482504
 21
105.006485566
 31
0.0
  0
INSERT
  5
1C5
100
AcDbEntity
  8
0
100
AcDbBlockReference
  2
CLUMP12
 10
0.0
 20
0.0
 30
0.0
  0
LINE
  5
1E1
100
AcDbEntity
  8
LAYER0
  6
CENTER
100
AcDbLine
 10
-4.0864652151
 20
107.34019039
 30
0.0
 11
-4.0864652151
 21
40.7262202796
 31
0.0
  0
INSERT
  5
1E3
100
AcDbEntity
  8
0
100
AcDbBlockReference
  2
CLUMP14
 10
0.0
 20
0.0
 30
0.0
  0
INSERT
  5
20D
100
AcDbEntity
  8
0
100
AcDbBlockReference
  2
CLUMP16
 10
0.0
 20
0.0
 30
0.0
  0
ENDSEC
  0
SECTION
  2
OBJECTS
  0
DICTIONARY
  5
19
100
AcDbDictionary
280
         0
281
         1
  3
ACAD_GROUP
350
1A
  3
ACAD_MLINESTYLE
350
1B
  3
ACAD_LAYOUT
350
1E
  3
ACAD_PLOTSETTINGS
350
22
  3
ACAD_PLOTSTYLENAME
350
1F
  3
ACAD_WIPEOUT_VARS
350
23
  0
DICTIONARY
  5
1A
102
{ACAD_REACTORS
330
19
102
}
100
AcDbDictionary
280
         0
281
         1
  0
DICTIONARY
  5
1B
102
{ACAD_REACTORS
330
19
102
}
100
AcDbDictionary
280
         0
281
         1
  3
Standard
350
1C
  0
MLINESTYLE
  5
1C
102
{ACAD_REACTORS
330
1B
102
}
100
AcDbMlineStyle
  2
Standard
 70
         0
  3

 62
         0
 51
90.0
 52
90.0
 71
         2
 49
0.5
 62
       256
  6
BYLAYER
 49
-0.5
 62
       256
  6
BYLAYER
  0
ACDBDICTIONARYWDFLT
  5
1F
102
{ACAD_REACTORS
330
19
102
}
100
AcDbDictionary
281
         1
  3
Normal
350
1D
100
AcDbDictionaryWithDefault
340
1D
  0
ACDBPLACEHOLDER
  5
1D
102
{ACAD_REACTORS
330
1F
102
}
  0
LAYOUT
  5
20
102
{ACAD_REACTORS
330
1E
102
}
100
AcDbPlotSettings
  1

  2

  4

  6

 40
0.0
 41
0.0
 42
0.0
 43
0.0
 44
0.0
 45
0.0
 46
0.0
 47
0.0
 48
0.0
 49
0.0
140
0.0
141
0.0
142
1.0
143
1.0
 70
         0
 72
         0
 73
         0
 74
         0
  7

 75
         0
147
1.0
148
0.0
149
0.0
100
AcDbLayout
  1
Model
 70
         0
 71
         0
 10
0.0
 20
0.0
 11
0.0
 21
0.0
 12
0.0
 22
0.0
 32
0.0
 14
0.0
 24
0.0
 34
0.0
 15
0.0
 25
0.0
 35
0.0
146
0.0
 13
0.0
 23
0.0
 33
0.0
 16
0.0
 26
0.0
 36
0.0
 17
0.0
 27
0.0
 37
0.0
 76
         0
330
A
331
0
345
0
346
0
  0
LAYOUT
  5
21
102
{ACAD_REACTORS
330
1E
102
}
100
AcDbPlotSettings
  1

  2

  4

  6

 40
0.0
 41
0.0
 42
0.0
 43
0.0
 44
0.0
 45
0.0
 46
0.0
 47
0.0
 48
0.0
 49
0.0
140
0.0
141
0.0
142
1.0
143
1.0
 70
         0
 72
         0
 73
         0
 74
         0
  7

 75
         0
147
1.0
148
0.0
149
0.0
100
AcDbLayout
  1
Layout1
 70
         0
 71
         0
 10
0.0
 20
0.0
 11
0.0
 21
0.0
 12
0.0
 22
0.0
 32
0.0
 14
0.0
 24
0.0
 34
0.0
 15
0.0
 25
0.0
 35
0.0
146
0.0
 13
0.0
 23
0.0
 33
0.0
 16
0.0
 26
0.0
 36
0.0
 17
0.0
 27
0.0
 37
0.0
 76
         0
330
B
331
0
345
0
346
0
  0
DICTIONARY
  5
1E
102
{ACAD_REACTORS
330
19
102
}
100
AcDbDictionary
280
         0
281
         1
  3
Layout1
350
21
  3
Model
350
20
  0
DICTIONARY
  5
22
102
{ACAD_REACTORS
330
19
102
}
100
AcDbDictionary
280
         0
281
         1
  0
WIPEOUTVARIABLES
  5
23
100
AcDbWipeoutVariables
 70
         1
  0
ENDSEC
  0
EOF
