  0
SECTION
  2
HEADER
  9
$ACADVER
  1
AC1015
  9
$ACADMAINTVER
 70
         6
  9
$DWGCODEPAGE
  3
ANSI_932
  9
$INSBASE
 10
0.0
 20
0.0
 30
0.0
  9
$EXTMIN
 10
1.0000000000E+20
 20
1.0000000000E+20
 30
1.0000000000E+20
  9
$EXTMAX
 10
-1.0000000000E+20
 20
-1.0000000000E+20
 30
-1.0000000000E+20
  9
$LIMMIN
 10
0.0
 20
0.0
  9
$LIMMAX
 10
0.0
 20
0.0
  9
$ORTHOMODE
 70
         0
  9
$REGENMODE
 70
         1
  9
$FILLMODE
 70
         1
  9
$QTEXTMODE
 70
         0
  9
$MIRRTEXT
 70
         1
  9
$LTSCALE
 40
1.0
  9
$ATTMODE
 70
         1
  9
$TEXTSIZE
 40
0.2
  9
$TRACEWID
 40
0.05
  9
$TEXTSTYLE
  7
Standard
  9
$CLAYER
  8
0
  9
$CELTYPE
  6
Continuous
  9
$CECOLOR
 62
       256
  9
$CELTSCALE
 40
1.0
  9
$DISPSILH
 70
         0
  9
$DIMSCALE
 40
1.0
  9
$DIMASZ
 40
0.18
  9
$DIMEXO
 40
0.0625
  9
$DIMDLI
 40
0.38
  9
$DIMRND
 40
0.0
  9
$DIMDLE
 40
0.0
  9
$DIMEXE
 40
0.18
  9
$DIMTP
 40
0.0
  9
$DIMTM
 40
0.0
  9
$DIMTXT
 40
0.18
  9
$DIMCEN
 40
0.09
  9
$DIMTSZ
 40
0.0
  9
$DIMTOL
 70
         0
  9
$DIMLIM
 70
         0
  9
$DIMTIH
 70
         1
  9
$DIMTOH
 70
         1
  9
$DIMSE1
 70
         0
  9
$DIMSE2
 70
         0
  9
$DIMTAD
 70
         0
  9
$DIMZIN
 70
         0
  9
$DIMBLK
  1

  9
$DIMASO
 70
         1
  9
$DIMSHO
 70
         1
  9
$DIMPOST
  1

  9
$DIMAPOST
  1

  9
$DIMALT
 70
         0
  9
$DIMALTD
 70
         2
  9
$DIMALTF
 40
25.4
  9
$DIMLFAC
 40
1.0
  9
$DIMTOFL
 70
         0
  9
$DIMTVP
 40
0.0
  9
$DIMTIX
 70
         0
  9
$DIMSOXD
 70
         0
  9
$DIMSAH
 70
         0
  9
$DIMBLK1
  1

  9
$DIMBLK2
  1

  9
$DIMSTYLE
  2
Standard
  9
$DIMCLRD
 70
         0
  9
$DIMCLRE
 70
         0
  9
$DIMCLRT
 70
         0
  9
$DIMTFAC
 40
1.0
  9
$DIMGAP
 40
0.09
  9
$DIMJUST
 70
         0
  9
$DIMSD1
 70
         0
  9
$DIMSD2
 70
         0
  9
$DIMTOLJ
 70
         1
  9
$DIMTZIN
 70
         0
  9
$DIMALTZ
 70
         0
  9
$DIMALTTZ
 70
         0
  9
$DIMUPT
 70
         0
  9
$DIMDEC
 70
         4
  9
$DIMTDEC
 70
         4
  9
$DIMALTU
 70
         2
  9
$DIMALTTD
 70
         2
  9
$DIMTXSTY
  7
Standard
  9
$DIMAUNIT
 70
         0
  9
$DIMADEC
 70
         0
  9
$DIMALTRND
 40
0.0
  9
$DIMAZIN
 70
         0
  9
$DIMDSEP
 70
         0
  9
$DIMATFIT
 70
         3
  9
$DIMFRAC
 70
         0
  9
$DIMLDRBLK
  1

  9
$DIMLUNIT
 70
         2
  9
$DIMLWD
 70
         0
  9
$DIMLWE
 70
         0
  9
$DIMTMOVE
 70
         0
  9
$LUNITS
 70
         2
  9
$LUPREC
 70
         4
  9
$SKETCHINC
 40
0.1
  9
$FILLETRAD
 40
0.0
  9
$AUNITS
 70
         0
  9
$AUPREC
 70
         0
  9
$MENU
  1
acad
  9
$ELEVATION
 40
0.0
  9
$PELEVATION
 40
0.0
  9
$THICKNESS
 40
0.0
  9
$LIMCHECK
 70
         0
  9
$CHAMFERA
 40
0.0
  9
$CHAMFERB
 40
0.0
  9
$CHAMFERC
 40
0.0
  9
$CHAMFERD
 40
0.0
  9
$SKPOLY
 70
         0
  9
$TDCREATE
 40
0.000000000
  9
$TDUCREATE
 40
0.000000000
  9
$TDUPDATE
 40
0.000000000
  9
$TDUUPDATE
 40
0.000000000
  9
$TDINDWG
 40
0.0000000000
  9
$TDUSRTIMER
 40
0.0000000000
  9
$USRTIMER
 70
         1
  9
$ANGBASE
 50
0.0
  9
$ANGDIR
 70
         0
  9
$PDMODE
 70
         3
  9
$PDSIZE
 40
-1.0
  9
$PLINEWID
 40
0.0
  9
$SPLFRAME
 70
         0
  9
$SPLINETYPE
 70
         6
  9
$SPLINESEGS
 70
         8
  9
$HANDSEED
  5
6A9
  9
$SURFTAB1
 70
         6
  9
$SURFTAB2
 70
         6
  9
$SURFTYPE
 70
         6
  9
$SURFU
 70
         6
  9
$SURFV
 70
         6
  9
$UCSBASE
  2

  9
$UCSNAME
  2

  9
$UCSORG
 10
0.0
 20
0.0
 30
0.0
  9
$UCSXDIR
 10
1.0
 20
0.0
 30
0.0
  9
$UCSYDIR
 10
0.0
 20
1.0
 30
0.0
  9
$UCSORTHOREF
  2

  9
$UCSORTHOVIEW
 70
         0
  9
$UCSORGTOP
 10
0.0
 20
0.0
 30
0.0
  9
$UCSORGBOTTOM
 10
0.0
 20
0.0
 30
0.0
  9
$UCSORGLEFT
 10
0.0
 20
0.0
 30
0.0
  9
$UCSORGRIGHT
 10
0.0
 20
0.0
 30
0.0
  9
$UCSORGFRONT
 10
0.0
 20
0.0
 30
0.0
  9
$UCSORGBACK
 10
0.0
 20
0.0
 30
0.0
  9
$PUCSBASE
  2

  9
$PUCSNAME
  2

  9
$PUCSORG
 10
0.0
 20
0.0
 30
0.0
  9
$PUCSXDIR
 10
1.0
 20
0.0
 30
0.0
  9
$PUCSYDIR
 10
0.0
 20
1.0
 30
0.0
  9
$PUCSORTHOREF
  2

  9
$PUCSORTHOVIEW
 70
         0
  9
$PUCSORGTOP
 10
0.0
 20
0.0
 30
0.0
  9
$PUCSORGBOTTOM
 10
0.0
 20
0.0
 30
0.0
  9
$PUCSORGLEFT
 10
0.0
 20
0.0
 30
0.0
  9
$PUCSORGRIGHT
 10
0.0
 20
0.0
 30
0.0
  9
$PUCSORGFRONT
 10
0.0
 20
0.0
 30
0.0
  9
$PUCSORGBACK
 10
0.0
 20
0.0
 30
0.0
  9
$USERI1
 70
         0
  9
$USERI2
 70
         0
  9
$USERI3
 70
         0
  9
$USERI4
 70
         0
  9
$USERI5
 70
         0
  9
$USERR1
 40
0.0
  9
$USERR2
 40
0.0
  9
$USERR3
 40
0.0
  9
$USERR4
 40
0.0
  9
$USERR5
 40
0.0
  9
$WORLDVIEW
 70
         1
  9
$SHADEDGE
 70
         3
  9
$SHADEDIF
 70
        70
  9
$TILEMODE
 70
         1
  9
$MAXACTVP
 70
        16
  9
$PINSBASE
 10
0.0
 20
0.0
 30
0.0
  9
$PLIMCHECK
 70
         0
  9
$PEXTMIN
 10
1.0000000000E+20
 20
1.0000000000E+20
 30
1.0000000000E+20
  9
$PEXTMAX
 10
-1.0000000000E+20
 20
-1.0000000000E+20
 30
-1.0000000000E+20
  9
$PLIMMIN
 10
0.0
 20
0.0
  9
$PLIMMAX
 10
12.0
 20
9.0
  9
$UNITMODE
 70
         0
  9
$VISRETAIN
 70
         0
  9
$PLINEGEN
 70
         1
  9
$PSLTSCALE
 70
         0
  9
$TREEDEPTH
 70
      3020
  9
$CMLSTYLE
  2
Standard
  9
$CMLJUST
 70
         0
  9
$CMLSCALE
 40
1.0
  9
$PROXYGRAPHICS
 70
         0
  9
$MEASUREMENT
 70
         0
  9
$CELWEIGHT
370
         0
  9
$ENDCAPS
280
         0
  9
$JOINSTYLE
280
         0
  9
$LWDISPLAY
290
         0
  9
$INSUNITS
 70
         0
  9
$HYPERLINKBASE
  1

  9
$XEDIT
290
         1
  9
$CEPSNTYPE
380
         0
  9
$PSTYLEMODE
290
         0
  9
$FINGERPRINTGUID
  2

  9
$VERSIONGUID
  2

  9
$EXTNAMES
290
         1
  9
$PSVPSCALE
 40
0.0
  0
ENDSEC
  0
SECTION
  2
CLASSES
  0
CLASS
  1
LWPOLYLINE
  2
AcDbPolyline
  3
"AutoCAD"
 90
        0
280
         0
281
         1
  0
CLASS
  1
IMAGE
  2
AcDbRasterImage
  3
ISM
 90
      127
280
         0
281
         1
  0
CLASS
  1
OLE2FRAME
  2
AcDbOle2Frame
  3
""
 90
        0
280
         0
281
         1
  0
CLASS
  1
HATCH
  2
AcDbHatch
  3
"ACAD_SEDONA"
 90
        0
280
         0
281
         1
  0
CLASS
  1
DICTIONARYVAR
  2
AcDbDictionaryVar
  3
"AutoCAD"
 90
        0
280
         0
281
         0
  0
CLASS
  1
RASTERVARIABLES
  2
AcDbRasterVariables
  3
ISM
 90
        0
280
         0
281
         0
  0
CLASS
  1
IMAGEDEF
  2
AcDbRasterImageDef
  3
ISM
 90
        0
280
         0
281
         0
  0
CLASS
  1
IMAGEDEF_REACTOR
  2
AcDbRasterImageDefReactor
  3
ISM
 90
        1
280
         0
281
         0
  0
CLASS
  1
IDBUFFER
  2
AcDbIdBuffer
  3
"Acad"
 90
        0
280
         0
281
         0
  0
CLASS
  1
SPATIAL_FILTER
  2
AcDbSpatialFilter
  3
"Acad"
 90
        0
280
         0
281
         0
  0
CLASS
  1
XRECORD
  2
AcDbXrecord
  3
"<Built In>"
 90
        0
280
         0
281
         0
  0
CLASS
  1
SORTENTSTABLE
  2
AcDbSortentsTable
  3
"AutoCAD"
 90
        0
280
         0
281
         0
  0
CLASS
  1
LAYER_INDEX
  2
AcDbLayerIndex
  3
"Acad"
 90
        0
280
         0
281
         0
  0
CLASS
  1
SPATIAL_INDEX
  2
AcDbSpatialIndex
  3
"Acad"
 90
        0
280
         0
281
         0
  0
CLASS
  1
OBJECT_PTR
  2
CAseDLPNTableRecord
  3
"ASE-LPNTableRecord"
 90
        1
280
         0
281
         0
  0
CLASS
  1
LAYOUT
  2
AcDbLayout
  3
"AutoCAD 2000"
 90
        1
280
         0
281
         0
  0
CLASS
  1
PLOTSETTINGS
  2
AcDbPlotSettings
  3
"AutoCAD 2000"
 90
        1
280
         0
281
         0
  0
CLASS
  1
ACDBDICTIONARYWDFLT
  2
AcDbDictionaryWithDefault
  3
"AutoCAD 2000"
 90
        1
280
         0
281
         0
  0
CLASS
  1
ACDBPLACEHOLDER
  2
AcDbPlaceHolder
  3
"AutoCAD 2000"
 90
        1
280
         0
281
         0
  0
CLASS
  1
VBA_PROJECT
  2
AcDbVbaProject
  3
"acadvba"
 90
        1
280
         0
281
         0
  0
CLASS
  1
WIPEOUT
  2
AcDbWipeout
  3
WipeOut|AutoCAD Express Tool|expresstools@autodesk.com
 90
      127
280
         0
281
         1
  0
CLASS
  1
WIPEOUTVARIABLES
  2
AcDbWipeoutVariables
  3
WipeOut|AutoCAD Express Tool|expresstools@autodesk.com
 90
        0
280
         0
281
         0
  0
CLASS
  1
RTEXT
  2
RText
  3
RText|AutoCAD Express Tool|expresstools@autodesk.com
 90
        0
280
         0
281
         1
  0
CLASS
  1
ARCALIGNEDTEXT
  2
AcDbArcAlignedText
  3
ATEXT|AutoCAD Express Tool|expresstools@autodesk.com
 90
        0
280
         0
281
         1
  0
ENDSEC
  0
SECTION
  2
TABLES
  0
TABLE
  2
VPORT
  5
7
100
AcDbSymbolTable
 70
         1
  0
VPORT
  5
15
100
AcDbSymbolTableRecord
100
AcDbViewportTableRecord
  2
*ACTIVE
 70
         0
 10
0.0
 20
0.0
 11
1.0
 21
1.0
 12
6.591288
 22
4.579184
 13
0.0
 23
0.0
 14
1.0
 24
1.0
 15
0.0
 25
0.0
 16
0.0
 26
0.0
 36
1.0
 17
0.0
 27
0.0
 37
0.0
 40
9.158369
 41
0.688564
 42
50.0
 43
0.0
 44
0.0
 50
0.0
 51
0.0
 71
         0
 72
       100
 73
         1
 74
         1
 75
         0
 76
         0
 77
         0
 78
         0
281
         0
 65
         0
110
0.0
120
0.0
130
0.0
111
1.0
121
0.0
131
0.0
112
0.0
122
1.0
132
0.0
345
0
346
0
 79
         0
146
0.0
  0
ENDTAB
  0
TABLE
  2
LTYPE
  5
4
100
AcDbSymbolTable
 70
        13
  0
LTYPE
  5
11
100
AcDbSymbolTableRecord
100
AcDbLinetypeTableRecord
  2
ByBlock
 70
        64
  3

 72
        65
 73
         0
 40
0.0
  0
LTYPE
  5
12
100
AcDbSymbolTableRecord
100
AcDbLinetypeTableRecord
  2
ByLayer
 70
        64
  3

 72
        65
 73
         0
 40
0.0
  0
LTYPE
  5
13
100
AcDbSymbolTableRecord
100
AcDbLinetypeTableRecord
  2
Continuous
 70
        64
  3
Solid line
 72
        65
 73
         0
 40
0.0
  0
LTYPE
  5
24
100
AcDbSymbolTableRecord
100
AcDbLinetypeTableRecord
  2
DOT
 70
        64
  3
. . . . . . . . 
 72
        65
 73
         2
 40
1.0
 49
0.0
 74
         0
 49
-1.0
 74
         0
  0
LTYPE
  5
25
100
AcDbSymbolTableRecord
100
AcDbLinetypeTableRecord
  2
DASHED
 70
        64
  3
___  ___  ___  ___  
 72
        65
 73
         2
 40
4.0
 49
3.0
 74
         0
 49
-1.0
 74
         0
  0
LTYPE
  5
26
100
AcDbSymbolTableRecord
100
AcDbLinetypeTableRecord
  2
HIDDEN
 70
        64
  3
__ __ __ __ 
 72
        65
 73
         2
 40
3.0
 49
2.0
 74
         0
 49
-1.0
 74
         0
  0
LTYPE
  5
27
100
AcDbSymbolTableRecord
100
AcDbLinetypeTableRecord
  2
STITCH
 70
        64
  3
_ _ _ _ 
 72
        65
 73
         2
 40
2.0
 49
1.0
 74
         0
 49
-1.0
 74
         0
  0
LTYPE
  5
28
100
AcDbSymbolTableRecord
100
AcDbLinetypeTableRecord
  2
CENTER
 70
        64
  3
______  __  ______  __  
 72
        65
 73
         4
 40
43.0
 49
40.0
 74
         0
 49
-1.0
 74
         0
 49
1.0
 74
         0
 49
-1.0
 74
         0
  0
LTYPE
  5
29
100
AcDbSymbolTableRecord
100
AcDbLinetypeTableRecord
  2
DASHDOT
 70
        64
  3
____ . ____ . 
 72
        65
 73
         4
 40
32.0
 49
30.0
 74
         0
 49
-1.0
 74
         0
 49
0.0
 74
         0
 49
-1.0
 74
         0
  0
LTYPE
  5
2A
100
AcDbSymbolTableRecord
100
AcDbLinetypeTableRecord
  2
BORDER
 70
        64
  3
__ . __ . 
 72
        65
 73
         4
 40
22.0
 49
20.0
 74
         0
 49
-1.0
 74
         0
 49
0.0
 74
         0
 49
-1.0
 74
         0
  0
LTYPE
  5
2B
100
AcDbSymbolTableRecord
100
AcDbLinetypeTableRecord
  2
CUTTING
 70
        64
  3
________   ___   ___   
 72
        65
 73
         6
 40
45.0
 49
40.0
 74
         0
 49
-1.0
 74
         0
 49
1.0
 74
         0
 49
-1.0
 74
         0
 49
1.0
 74
         0
 49
-1.0
 74
         0
  0
LTYPE
  5
2C
100
AcDbSymbolTableRecord
100
AcDbLinetypeTableRecord
  2
PHANTOM
 70
        64
  3
______  __  __  
 72
        65
 73
         6
 40
35.0
 49
30.0
 74
         0
 49
-1.0
 74
         0
 49
1.0
 74
         0
 49
-1.0
 74
         0
 49
1.0
 74
         0
 49
-1.0
 74
         0
  0
LTYPE
  5
2D
100
AcDbSymbolTableRecord
100
AcDbLinetypeTableRecord
  2
DIVIDE
 70
        64
  3
____ . . ____ . . 
 72
        65
 73
         6
 40
23.0
 49
20.0
 74
         0
 49
-1.0
 74
         0
 49
0.0
 74
         0
 49
-1.0
 74
         0
 49
0.0
 74
         0
 49
-1.0
 74
         0
  0
ENDTAB
  0
TABLE
  2
LAYER
  5
2
100
AcDbSymbolTable
 70
         5
  0
LAYER
  5
14
100
AcDbSymbolTableRecord
100
AcDbLayerTableRecord
  2
0
 70
         0
 62
         7
  6
Continuous
290
         1
370
        -3
390
1D
  0
LAYER
  5
2E
100
AcDbSymbolTableRecord
100
AcDbLayerTableRecord
  2
LAYER0
 70
         0
 62
         7
  6
Continuous
290
         1
370
        -3
390
1F
  0
LAYER
  5
34
100
AcDbSymbolTableRecord
100
AcDbLayerTableRecord
  2
LAYER4
 70
         0
 62
         7
  6
Continuous
290
         1
370
        -3
390
1F
  0
LAYER
  5
3A
100
AcDbSymbolTableRecord
100
AcDbLayerTableRecord
  2
LAYER3
 70
         0
 62
         7
  6
Continuous
290
         1
370
        -3
390
1F
  0
LAYER
  5
349
100
AcDbSymbolTableRecord
100
AcDbLayerTableRecord
  2
LAYER1
 70
         0
 62
         7
  6
Continuous
290
         1
370
        -3
390
1F
  0
ENDTAB
  0
TABLE
  2
STYLE
  5
3
100
AcDbSymbolTable
 70
         1
  0
STYLE
  5
17
100
AcDbSymbolTableRecord
100
AcDbTextStyleTableRecord
  2
Standard
 70
         0
 40
0.0
 41
1.0
 50
0.0
 71
         0
 42
0.0
  3
txt
  4
extfont
  0
ENDTAB
  0
TABLE
  2
VIEW
  5
5
100
AcDbSymbolTable
 70
         0
  0
ENDTAB
  0
TABLE
  2
UCS
  5
6
100
AcDbSymbolTable
 70
         0
  0
ENDTAB
  0
TABLE
  2
APPID
  5
8
100
AcDbSymbolTable
 70
         1
  0
APPID
  5
16
100
AcDbSymbolTableRecord
100
AcDbRegAppTableRecord
  2
ACAD
 70
         0
  0
ENDTAB
  0
TABLE
  2
DIMSTYLE
  5
9
100
AcDbSymbolTable
 70
         1
100
AcDbDimStyleTable
 71
         0
  0
DIMSTYLE
105
18
100
AcDbSymbolTableRecord
100
AcDbDimStyleTableRecord
  2
Standard
 70
         0
  3

  4

 40
1.0
 41
0.18
 42
0.0625
 43
0.38
 44
0.18
 45
0.0
 46
0.0
 47
0.0
 48
0.0
 71
         0
 72
         0
 73
         1
 74
         1
 75
         0
 76
         0
 77
         0
 78
         0
 79
         0
140
0.18
141
0.09
142
0.0
143
25.4
144
1.0
145
0.0
146
1.0
147
0.09
148
0.0
170
         0
171
         2
172
         0
173
         0
174
         0
175
         0
176
         0
177
         0
178
         0
179
         0
271
         4
272
         4
273
         2
274
         2
275
         0
276
         0
277
         2
278
        46
279
         0
280
         0
281
         0
282
         0
283
         1
284
         0
285
         0
286
         0
288
         0
340
17
341
0
342
0
343
0
344
0
371
        -2
372
        -2
  0
ENDTAB
  0
TABLE
  2
BLOCK_RECORD
  5
1
100
AcDbSymbolTable
 70
        46
  0
BLOCK_RECORD
  5
A
100
AcDbSymbolTableRecord
100
AcDbBlockTableRecord
  2
*MODEL_SPACE
340
20
  0
BLOCK_RECORD
  5
B
100
AcDbSymbolTableRecord
100
AcDbBlockTableRecord
  2
*PAPER_SPACE
340
21
  0
BLOCK_RECORD
  5
74
100
AcDbSymbolTableRecord
100
AcDbBlockTableRecord
  2
CLUMP0
340
0
  0
BLOCK_RECORD
  5
77
100
AcDbSymbolTableRecord
100
AcDbBlockTableRecord
  2
CLUMP1
340
0
  0
BLOCK_RECORD
  5
94
100
AcDbSymbolTableRecord
100
AcDbBlockTableRecord
  2
CLUMP2
340
0
  0
BLOCK_RECORD
  5
97
100
AcDbSymbolTableRecord
100
AcDbBlockTableRecord
  2
CLUMP3
340
0
  0
BLOCK_RECORD
  5
122
100
AcDbSymbolTableRecord
100
AcDbBlockTableRecord
  2
CLUMP4
340
0
  0
BLOCK_RECORD
  5
125
100
AcDbSymbolTableRecord
100
AcDbBlockTableRecord
  2
CLUMP5
340
0
  0
BLOCK_RECORD
  5
141
100
AcDbSymbolTableRecord
100
AcDbBlockTableRecord
  2
CLUMP6
340
0
  0
BLOCK_RECORD
  5
144
100
AcDbSymbolTableRecord
100
AcDbBlockTableRecord
  2
CLUMP7
340
0
  0
BLOCK_RECORD
  5
169
100
AcDbSymbolTableRecord
100
AcDbBlockTableRecord
  2
CLUMP8
340
0
  0
BLOCK_RECORD
  5
16C
100
AcDbSymbolTableRecord
100
AcDbBlockTableRecord
  2
CLUMP9
340
0
  0
BLOCK_RECORD
  5
196
100
AcDbSymbolTableRecord
100
AcDbBlockTableRecord
  2
CLUMP10
340
0
  0
BLOCK_RECORD
  5
199
100
AcDbSymbolTableRecord
100
AcDbBlockTableRecord
  2
CLUMP11
340
0
  0
BLOCK_RECORD
  5
1A8
100
AcDbSymbolTableRecord
100
AcDbBlockTableRecord
  2
CLUMP12
340
0
  0
BLOCK_RECORD
  5
1AB
100
AcDbSymbolTableRecord
100
AcDbBlockTableRecord
  2
CLUMP13
340
0
  0
BLOCK_RECORD
  5
1DF
100
AcDbSymbolTableRecord
100
AcDbBlockTableRecord
  2
CLUMP14
340
0
  0
BLOCK_RECORD
  5
1E2
100
AcDbSymbolTableRecord
100
AcDbBlockTableRecord
  2
CLUMP15
340
0
  0
BLOCK_RECORD
  5
23C
100
AcDbSymbolTableRecord
100
AcDbBlockTableRecord
  2
CLUMP16
340
0
  0
BLOCK_RECORD
  5
23F
100
AcDbSymbolTableRecord
100
AcDbBlockTableRecord
  2
CLUMP17
340
0
  0
BLOCK_RECORD
  5
251
100
AcDbSymbolTableRecord
100
AcDbBlockTableRecord
  2
CLUMP18
340
0
  0
BLOCK_RECORD
  5
254
100
AcDbSymbolTableRecord
100
AcDbBlockTableRecord
  2
CLUMP19
340
0
  0
BLOCK_RECORD
  5
2C8
100
AcDbSymbolTableRecord
100
AcDbBlockTableRecord
  2
CLUMP20
340
0
  0
BLOCK_RECORD
  5
2CB
100
AcDbSymbolTableRecord
100
AcDbBlockTableRecord
  2
CLUMP21
340
0
  0
BLOCK_RECORD
  5
2E0
100
AcDbSymbolTableRecord
100
AcDbBlockTableRecord
  2
CLUMP22
340
0
  0
BLOCK_RECORD
  5
2E3
100
AcDbSymbolTableRecord
100
AcDbBlockTableRecord
  2
CLUMP23
340
0
  0
BLOCK_RECORD
  5
376
100
AcDbSymbolTableRecord
100
AcDbBlockTableRecord
  2
CLUMP24
340
0
  0
BLOCK_RECORD
  5
379
100
AcDbSymbolTableRecord
100
AcDbBlockTableRecord
  2
CLUMP25
340
0
  0
BLOCK_RECORD
  5
3BF
100
AcDbSymbolTableRecord
100
AcDbBlockTableRecord
  2
CLUMP26
340
0
  0
BLOCK_RECORD
  5
3C2
100
AcDbSymbolTableRecord
100
AcDbBlockTableRecord
  2
CLUMP27
340
0
  0
BLOCK_RECORD
  5
3D7
100
AcDbSymbolTableRecord
100
AcDbBlockTableRecord
  2
CLUMP28
340
0
  0
BLOCK_RECORD
  5
3DA
100
AcDbSymbolTableRecord
100
AcDbBlockTableRecord
  2
CLUMP29
340
0
  0
BLOCK_RECORD
  5
42B
100
AcDbSymbolTableRecord
100
AcDbBlockTableRecord
  2
CLUMP30
340
0
  0
BLOCK_RECORD
  5
42E
100
AcDbSymbolTableRecord
100
AcDbBlockTableRecord
  2
CLUMP31
340
0
  0
BLOCK_RECORD
  5
470
100
AcDbSymbolTableRecord
100
AcDbBlockTableRecord
  2
CLUMP32
340
0
  0
BLOCK_RECORD
  5
473
100
AcDbSymbolTableRecord
100
AcDbBlockTableRecord
  2
CLUMP33
340
0
  0
BLOCK_RECORD
  5
53A
100
AcDbSymbolTableRecord
100
AcDbBlockTableRecord
  2
CLUMP34
340
0
  0
BLOCK_RECORD
  5
53D
100
AcDbSymbolTableRecord
100
AcDbBlockTableRecord
  2
CLUMP35
340
0
  0
BLOCK_RECORD
  5
54F
100
AcDbSymbolTableRecord
100
AcDbBlockTableRecord
  2
CLUMP36
340
0
  0
BLOCK_RECORD
  5
552
100
AcDbSymbolTableRecord
100
AcDbBlockTableRecord
  2
CLUMP37
340
0
  0
BLOCK_RECORD
  5
564
100
AcDbSymbolTableRecord
100
AcDbBlockTableRecord
  2
CLUMP38
340
0
  0
BLOCK_RECORD
  5
567
100
AcDbSymbolTableRecord
100
AcDbBlockTableRecord
  2
CLUMP39
340
0
  0
BLOCK_RECORD
  5
579
100
AcDbSymbolTableRecord
100
AcDbBlockTableRecord
  2
CLUMP40
340
0
  0
BLOCK_RECORD
  5
57C
100
AcDbSymbolTableRecord
100
AcDbBlockTableRecord
  2
CLUMP41
340
0
  0
BLOCK_RECORD
  5
67C
100
AcDbSymbolTableRecord
100
AcDbBlockTableRecord
  2
CLUMP42
340
0
  0
BLOCK_RECORD
  5
67F
100
AcDbSymbolTableRecord
100
AcDbBlockTableRecord
  2
CLUMP43
340
0
  0
BLOCK_RECORD
  5
691
100
AcDbSymbolTableRecord
100
AcDbBlockTableRecord
  2
CLUMP44
340
0
  0
BLOCK_RECORD
  5
694
100
AcDbSymbolTableRecord
100
AcDbBlockTableRecord
  2
CLUMP45
340
0
  0
ENDTAB
  0
ENDSEC
  0
SECTION
  2
BLOCKS
  0
BLOCK
  5
D
100
AcDbEntity
  8
0
100
AcDbBlockBegin
  2
*MODEL_SPACE
 70
         0
 10
0.0
 20
0.0
 30
0.0
  3
*MODEL_SPACE
  1

  0
ENDBLK
  5
E
100
AcDbEntity
  8
0
100
AcDbBlockEnd
  0
BLOCK
  5
F
100
AcDbEntity
 67
         1
  8
0
100
AcDbBlockBegin
  2
*PAPER_SPACE
 70
         0
 10
0.0
 20
0.0
 30
0.0
  3
*PAPER_SPACE
  1

  0
ENDBLK
  5
10
100
AcDbEntity
 67
         1
  8
0
100
AcDbBlockEnd
  0
BLOCK
  5
76
100
AcDbEntity
  8
0
100
AcDbBlockBegin
  2
CLUMP0
 70
         0
 10
0.0
 20
0.0
 30
0.0
  3

  1

  0
INSERT
  5
78
100
AcDbEntity
  8
0
100
AcDbBlockReference
  2
CLUMP1
 10
0.0
 20
0.0
 30
0.0
  0
ENDBLK
  5
89
100
AcDbEntity
  8
0
100
AcDbBlockEnd
  0
BLOCK
  5
79
100
AcDbEntity
  8
0
100
AcDbBlockBegin
  2
CLUMP1
 70
         0
 10
0.0
 20
0.0
 30
0.0
  3

  1

  0
LINE
  5
7A
100
AcDbEntity
  8
LAYER0
 62
         2
100
AcDbLine
 10
-1.4210507446
 20
119.3700040974
 30
0.0
 11
-1.4210507446
 21
110.4700040974
 31
0.0
  0
LINE
  5
7B
100
AcDbEntity
  8
LAYER0
 62
         2
100
AcDbLine
 10
-0.4210507446
 20
110.4700040974
 30
0.0
 11
-0.4210507446
 21
119.3700040974
 31
0.0
  0
ARC
  5
7C
100
AcDbEntity
  8
LAYER0
 62
         2
100
AcDbCircle
 10
-1.4210507446
 20
119.3700040974
 30
0.0
 40
1.0
210
0.0
220
-0.0
230
1.0
100
AcDbArc
 50
0.0
 51
90.0000015352
  0
LINE
  5
7D
100
AcDbEntity
  8
LAYER0
 62
         2
100
AcDbLine
 10
-1.1710507446
 20
110.4700040974
 30
0.0
 11
-1.1710507446
 21
119.6200040974
 31
0.0
  0
LINE
  5
7E
100
AcDbEntity
  8
LAYER0
 62
         2
100
AcDbLine
 10
-1.4210507446
 20
119.3700040974
 30
0.0
 11
-1.1710507446
 21
119.6200040974
 31
0.0
  0
LINE
  5
7F
100
AcDbEntity
  8
LAYER0
 62
         2
100
AcDbLine
 10
-0.3210507446
 20
116.9700040974
 30
0.0
 11
-0.4210507446
 21
116.9700040974
 31
0.0
  0
LINE
  5
80
100
AcDbEntity
  8
LAYER0
 62
         2
100
AcDbLine
 10
-0.1710507446
 20
116.8200040974
 30
0.0
 11
-0.1710507446
 21
110.4700040974
 31
0.0
  0
ARC
  5
81
100
AcDbEntity
  8
LAYER0
 62
         2
100
AcDbCircle
 10
-0.3210507446
 20
116.8200040974
 30
0.0
 40
0.15
210
0.0
220
-0.0
230
1.0
100
AcDbArc
 50
0.0
 51
90.0000015352
  0
LINE
  5
82
100
AcDbEntity
  8
LAYER0
 62
         2
100
AcDbLine
 10
-1.1710507446
 20
119.6200040974
 30
0.0
 11
-6.0515971083
 21
119.6200040974
 31
0.0
  0
LINE
  5
83
100
AcDbEntity
  8
LAYER0
 62
         2
100
AcDbLine
 10
-12.9210507446
 20
120.3700040974
 30
0.0
 11
-12.9210507446
 21
119.3700040974
 31
0.0
  0
LINE
  5
84
100
AcDbEntity
  8
LAYER0
 62
         2
100
AcDbLine
 10
-12.9210507446
 20
120.3700040974
 30
0.0
 11
-6.0385058096
 21
120.3700040974
 31
0.0
  0
LINE
  5
85
100
AcDbEntity
  8
LAYER0
 62
         2
100
AcDbLine
 10
-6.0385058096
 20
120.3700040974
 30
0.0
 11
-1.4210507446
 21
120.3700040974
 31
0.0
  0
LINE
  5
86
100
AcDbEntity
  8
LAYER0
 62
         2
100
AcDbLine
 10
-12.9210507446
 20
119.3700040974
 30
0.0
 11
-6.0559608745
 21
119.3700040974
 31
0.0
  0
LINE
  5
87
100
AcDbEntity
  8
LAYER0
 62
         2
100
AcDbLine
 10
-6.0559608745
 20
119.3700040974
 30
0.0
 11
-1.4210507446
 21
119.3700040974
 31
0.0
  0
ENDBLK
  5
88
100
AcDbEntity
  8
0
100
AcDbBlockEnd
  0
BLOCK
  5
96
100
AcDbEntity
  8
0
100
AcDbBlockBegin
  2
CLUMP2
 70
         0
 10
0.0
 20
0.0
 30
0.0
  3

  1

  0
INSERT
  5
98
100
AcDbEntity
  8
0
100
AcDbBlockReference
  2
CLUMP3
 10
0.0
 20
0.0
 30
0.0
  0
ENDBLK
  5
114
100
AcDbEntity
  8
0
100
AcDbBlockEnd
  0
BLOCK
  5
99
100
AcDbEntity
  8
0
100
AcDbBlockBegin
  2
CLUMP3
 70
         0
 10
0.0
 20
0.0
 30
0.0
  3

  1

  0
LINE
  5
9A
100
AcDbEntity
  8
LAYER0
 62
         6
100
AcDbLine
 10
-4.3781575556
 20
104.9574409942
 30
0.0
 11
-3.1038934199
 21
103.6831768585
 31
0.0
  0
LINE
  5
9B
100
AcDbEntity
  8
LAYER0
 62
         6
100
AcDbLine
 10
-5.9210509383
 20
118.4700041346
 30
0.0
 11
-3.9170662182
 21
118.4700041346
 31
0.0
  0
LINE
  5
9C
100
AcDbEntity
  8
LAYER0
 62
         6
100
AcDbLine
 10
-4.9084876415
 20
116.5128972864
 30
0.0
 11
-3.6342235057
 21
117.7871614221
 31
0.0
  0
LINE
  5
9D
100
AcDbEntity
  8
LAYER0
 62
         6
100
AcDbLine
 10
-2.4210507074
 20
114.9700039037
 30
0.0
 11
-2.4210507074
 21
116.9739886238
 31
0.0
  0
LINE
  5
9E
100
AcDbEntity
  8
LAYER0
 62
         6
100
AcDbLine
 10
-4.3781575556
 20
115.9825672005
 30
0.0
 11
-3.1038934199
 21
117.2568313363
 31
0.0
  0
LINE
  5
9F
100
AcDbEntity
  8
LAYER0
 62
         6
100
AcDbLine
 10
-10.1210507446
 20
116.2200040676
 30
0.0
 11
-5.6155944227
 21
116.2200040676
 31
0.0
  0
LINE
  5
A0
100
AcDbEntity
  8
LAYER0
 62
         6
100
AcDbLine
 10
-5.9210509383
 20
118.4700041346
 30
0.0
 11
-5.9210509383
 21
118.9700045593
 31
0.0
  0
ARC
  5
A1
100
AcDbEntity
  8
LAYER0
 62
         6
100
AcDbCircle
 10
-5.6710507446
 20
118.9700040974
 30
0.0
 40
0.25
210
0.0
220
0.0
230
1.0
100
AcDbArc
 50
90.0000015352
 51
180.0
  0
LINE
  5
A2
100
AcDbEntity
  8
LAYER0
 62
         6
100
AcDbLine
 10
-5.6710508974
 20
119.2200041346
 30
0.0
 11
-3.4210507074
 21
119.2200041346
 31
0.0
  0
LINE
  5
A3
100
AcDbEntity
  8
LAYER0
 62
         6
100
AcDbLine
 10
-5.6155944227
 20
104.7200041272
 30
0.0
 11
-10.1210507446
 21
104.7200041272
 31
0.0
  0
LINE
  5
A4
100
AcDbEntity
  8
LAYER0
 62
         6
100
AcDbLine
 10
-1.6710507074
 20
117.4700041346
 30
0.0
 11
-1.6710507074
 21
115.2200039446
 31
0.0
  0
ARC
  5
A5
100
AcDbEntity
  8
LAYER0
 62
         6
100
AcDbCircle
 10
-1.9210507446
 20
115.2200040974
 30
0.0
 40
0.25
210
-0.0
220
0.0
230
1.0
100
AcDbArc
 50
269.9999984648
 51
0.0000030705
  0
LINE
  5
A6
100
AcDbEntity
  8
LAYER0
 62
         6
100
AcDbLine
 10
-1.9210502827
 20
114.9700039037
 30
0.0
 11
-2.4210507074
 21
114.9700039037
 31
0.0
  0
LINE
  5
A7
100
AcDbEntity
  8
LAYER0
 62
         6
100
AcDbLine
 10
-4.6710507744
 20
115.2754604193
 30
0.0
 11
-4.6710507744
 21
110.7700040974
 31
0.0
  0
LINE
  5
A8
100
AcDbEntity
  8
LAYER0
 62
         6
100
AcDbLine
 10
-4.6710507744
 20
110.7700040974
 30
0.0
 11
-4.9210508154
 21
110.4700040974
 31
0.0
  0
LINE
  5
A9
100
AcDbEntity
  8
LAYER0
 62
         6
100
AcDbLine
 10
-4.9210508154
 20
110.4700040974
 30
0.0
 11
-4.6710507744
 21
110.1700040974
 31
0.0
  0
LINE
  5
AA
100
AcDbEntity
  8
LAYER0
 62
         6
100
AcDbLine
 10
-5.9210509383
 20
102.4700040601
 30
0.0
 11
-5.9210509383
 21
101.9700036354
 31
0.0
  0
ARC
  5
AB
100
AcDbEntity
  8
LAYER0
 62
         6
100
AcDbCircle
 10
-5.6710507446
 20
101.9700040974
 30
0.0
 40
0.25
210
0.0
220
0.0
230
1.0
100
AcDbArc
 50
180.0
 51
269.9999984648
  0
LINE
  5
AC
100
AcDbEntity
  8
LAYER0
 62
         6
100
AcDbLine
 10
-5.6710508974
 20
101.7200040601
 30
0.0
 11
-3.4210507074
 21
101.7200040601
 31
0.0
  0
LINE
  5
AD
100
AcDbEntity
  8
LAYER0
 62
         6
100
AcDbLine
 10
-1.6710507074
 20
103.4700040601
 30
0.0
 11
-1.6710507074
 21
105.7200042501
 31
0.0
  0
ARC
  5
AE
100
AcDbEntity
  8
LAYER0
 62
         6
100
AcDbCircle
 10
-1.9210507446
 20
105.7200040974
 30
0.0
 40
0.25
210
0.0
220
-0.0
230
1.0
100
AcDbArc
 50
0.0000030705
 51
90.0000015352
  0
LINE
  5
AF
100
AcDbEntity
  8
LAYER0
 62
         6
100
AcDbLine
 10
-10.4210507446
 20
115.9700040266
 30
0.0
 11
-10.1210507446
 21
116.2200040676
 31
0.0
  0
LINE
  5
B0
100
AcDbEntity
  8
LAYER0
 62
         6
100
AcDbLine
 10
-15.2265070666
 20
104.7200041272
 30
0.0
 11
-10.7210507446
 21
104.7200041272
 31
0.0
  0
LINE
  5
B1
100
AcDbEntity
  8
LAYER0
 62
         6
100
AcDbLine
 10
-15.4032837619
 20
116.2200040676
 30
0.0
 11
-10.7210507446
 21
116.2200040676
 31
0.0
  0
LINE
  5
B2
100
AcDbEntity
  8
LAYER0
 62
         6
100
AcDbLine
 10
-4.6710507744
 20
105.6645477754
 30
0.0
 11
-4.6710507744
 21
110.1700040974
 31
0.0
  0
ARC
  5
B3
100
AcDbEntity
  8
LAYER0
 62
         6
100
AcDbCircle
 10
-5.6155944227
 20
117.2200040676
 30
0.0
 40
1.0
210
0.0
220
0.0
230
1.0
100
AcDbArc
 50
269.9999984648
 51
315.0000007676
  0
ARC
  5
B4
100
AcDbEntity
  8
LAYER0
 62
         6
100
AcDbCircle
 10
-3.6710507744
 20
115.2754604193
 30
0.0
 40
1.0
210
0.0
220
0.0
230
1.0
100
AcDbArc
 50
134.9999976971
 51
180.0
  0
ARC
  5
B5
100
AcDbEntity
  8
LAYER0
 62
         6
100
AcDbCircle
 10
-3.6710507744
 20
105.6645477754
 30
0.0
 40
1.0
210
0.0
220
0.0
230
1.0
100
AcDbArc
 50
180.0
 51
224.9999961619
  0
ARC
  5
B6
100
AcDbEntity
  8
LAYER0
 62
         6
100
AcDbCircle
 10
-5.6155944227
 20
103.7200041272
 30
0.0
 40
1.0
210
0.0
220
-0.0
230
1.0
100
AcDbArc
 50
45.0000053733
 51
90.0000015352
  0
ARC
  5
B7
100
AcDbEntity
  8
LAYER0
 62
         6
100
AcDbCircle
 10
-3.9170662182
 20
102.8700040601
 30
0.0
 40
0.4
210
-0.0
220
0.0
230
1.0
100
AcDbArc
 50
269.9999984648
 51
45.0000053733
  0
ARC
  5
B8
100
AcDbEntity
  8
LAYER0
 62
         6
100
AcDbCircle
 10
-2.8210507074
 20
103.966019571
 30
0.0
 40
0.4
210
-0.0
220
0.0
230
1.0
100
AcDbArc
 50
224.9999961619
 51
0.0000030705
  0
ARC
  5
B9
100
AcDbEntity
  8
LAYER0
 62
         6
100
AcDbCircle
 10
-3.9170662182
 20
118.0700041346
 30
0.0
 40
0.4
210
-0.0
220
-0.0
230
1.0
100
AcDbArc
 50
315.0000007676
 51
90.0000015352
  0
ARC
  5
BA
100
AcDbEntity
  8
LAYER0
 62
         6
100
AcDbCircle
 10
-2.8210507074
 20
116.9739886238
 30
0.0
 40
0.4
210
0.0
220
-0.0
230
1.0
100
AcDbArc
 50
0.0000030705
 51
134.9999976971
  0
LINE
  5
BB
100
AcDbEntity
  8
LAYER0
 62
         6
100
AcDbLine
 10
-16.925035271
 20
102.4700040601
 30
0.0
 11
-14.9210505509
 21
102.4700040601
 31
0.0
  0
LINE
  5
BC
100
AcDbEntity
  8
LAYER0
 62
         6
100
AcDbLine
 10
-16.925035271
 20
118.4700041346
 30
0.0
 11
-14.9210505509
 21
118.4700041346
 31
0.0
  0
LINE
  5
BD
100
AcDbEntity
  8
LAYER0
 62
         6
100
AcDbLine
 10
-14.9210505509
 20
118.4700041346
 30
0.0
 11
-14.9210505509
 21
118.9700045593
 31
0.0
  0
ARC
  5
BE
100
AcDbEntity
  8
LAYER0
 62
         6
100
AcDbCircle
 10
-15.1710507446
 20
118.9700040974
 30
0.0
 40
0.25
210
0.0
220
-0.0
230
1.0
100
AcDbArc
 50
0.0000030705
 51
90.0000015352
  0
LINE
  5
BF
100
AcDbEntity
  8
LAYER0
 62
         6
100
AcDbLine
 10
-15.1710505919
 20
119.2200041346
 30
0.0
 11
-19.6710507819
 21
119.2200041346
 31
0.0
  0
LINE
  5
C0
100
AcDbEntity
  8
LAYER0
 62
         6
100
AcDbLine
 10
-14.9210505509
 20
102.4700040601
 30
0.0
 11
-14.9210505509
 21
101.9700036354
 31
0.0
  0
ARC
  5
C1
100
AcDbEntity
  8
LAYER0
 62
         6
100
AcDbCircle
 10
-15.1710507446
 20
101.9700040974
 30
0.0
 40
0.25
210
-0.0
220
0.0
230
1.0
100
AcDbArc
 50
269.9999984648
 51
0.0000030705
  0
LINE
  5
C2
100
AcDbEntity
  8
LAYER0
 62
         6
100
AcDbLine
 10
-15.1710505919
 20
101.7200040601
 30
0.0
 11
-16.9210507446
 21
101.7200040601
 31
0.0
  0
LINE
  5
C3
100
AcDbEntity
  8
LAYER0
 62
         6
100
AcDbLine
 10
-25.6710507819
 20
113.2200041346
 30
0.0
 11
-25.6710507819
 21
111.2200040974
 31
0.0
  0
POINT
  5
C4
100
AcDbEntity
  8
LAYER0
 62
         6
100
AcDbPoint
 10
-10.4210507446
 20
110.4700040974
 30
0.0
  0
LINE
  5
C5
100
AcDbEntity
  8
LAYER0
 62
         6
100
AcDbLine
 10
-5.9210509383
 20
102.4700040601
 30
0.0
 11
-3.9170662182
 21
102.4700040601
 31
0.0
  0
LINE
  5
C6
100
AcDbEntity
  8
LAYER0
 62
         6
100
AcDbLine
 10
-2.4210507074
 20
105.9700042911
 30
0.0
 11
-2.4210507074
 21
103.966019571
 31
0.0
  0
LINE
  5
C7
100
AcDbEntity
  8
LAYER0
 62
         6
100
AcDbLine
 10
-4.9084876415
 20
104.4271109084
 30
0.0
 11
-3.6342235057
 21
103.1528467726
 31
0.0
  0
LINE
  5
C8
100
AcDbEntity
  8
LAYER0
 62
         6
100
AcDbLine
 10
-25.4210507819
 20
110.9700040974
 30
0.0
 11
-21.2210507819
 21
110.9700040974
 31
0.0
  0
LINE
  5
C9
100
AcDbEntity
  8
LAYER0
 62
         6
100
AcDbLine
 10
-20.6210507819
 20
110.9700040974
 30
0.0
 11
-16.3210506329
 21
110.9700040974
 31
0.0
  0
LINE
  5
CA
100
AcDbEntity
  8
LAYER0
 62
         6
100
AcDbLine
 10
-16.1710506329
 20
105.4574410762
 30
0.0
 11
-16.1710506329
 21
110.8200040974
 31
0.0
  0
ARC
  5
CB
100
AcDbEntity
  8
LAYER0
 62
         6
100
AcDbCircle
 10
-16.925035271
 20
102.8700040601
 30
0.0
 40
0.4
210
0.0
220
0.0
230
1.0
100
AcDbArc
 50
134.9999976971
 51
269.9999984648
  0
LINE
  5
CC
100
AcDbEntity
  8
LAYER0
 62
         6
100
AcDbLine
 10
-15.9336138478
 20
104.4271109084
 30
0.0
 11
-17.2078779835
 21
103.1528467726
 31
0.0
  0
LINE
  5
CD
100
AcDbEntity
  8
LAYER0
 62
         6
100
AcDbLine
 10
-15.1710506329
 20
115.7200040676
 30
0.0
 11
-12.6710507446
 21
115.7200040676
 31
0.0
  0
LINE
  5
CE
100
AcDbEntity
  8
LAYER0
 62
         6
100
AcDbLine
 10
-16.1710506329
 20
111.6200040974
 30
0.0
 11
-16.1710506329
 21
115.8361205091
 31
0.0
  0
LINE
  5
CF
100
AcDbEntity
  8
LAYER0
 62
         6
100
AcDbLine
 10
-18.9210507819
 20
111.4700040974
 30
0.0
 11
-16.3210506329
 21
111.4700040974
 31
0.0
  0
LINE
  5
D0
100
AcDbEntity
  8
LAYER0
 62
         6
100
AcDbLine
 10
-19.6710507819
 20
118.7200041346
 30
0.0
 11
-18.0710507446
 21
118.7200041346
 31
0.0
  0
LINE
  5
D1
100
AcDbEntity
  8
LAYER0
 62
         6
100
AcDbLine
 10
-24.9210507819
 20
111.4700040974
 30
0.0
 11
-22.9210507819
 21
111.4700040974
 31
0.0
  0
LINE
  5
D2
100
AcDbEntity
  8
LAYER0
 62
         6
100
AcDbLine
 10
-25.1710507819
 20
113.2200041346
 30
0.0
 11
-25.1710507819
 21
111.7200040974
 31
0.0
  0
LINE
  5
D3
100
AcDbEntity
  8
LAYER0
 62
         6
100
AcDbLine
 10
-15.1710506329
 20
105.2200041272
 30
0.0
 11
-12.6710507446
 21
105.2200041272
 31
0.0
  0
LINE
  5
D4
100
AcDbEntity
  8
LAYER0
 62
         6
100
AcDbLine
 10
-5.6710507744
 20
115.7200040676
 30
0.0
 11
-8.1710507446
 21
115.7200040676
 31
0.0
  0
LINE
  5
D5
100
AcDbEntity
  8
LAYER0
 62
         6
100
AcDbLine
 10
-5.6710507744
 20
105.2200041272
 30
0.0
 11
-8.1710507446
 21
105.2200041272
 31
0.0
  0
LINE
  5
D6
100
AcDbEntity
  8
LAYER0
 62
         6
100
AcDbLine
 10
-5.1710507744
 20
105.7200041272
 30
0.0
 11
-5.1710507744
 21
108.2200040974
 31
0.0
  0
LINE
  5
D7
100
AcDbEntity
  8
LAYER0
 62
         6
100
AcDbLine
 10
-5.1710507744
 20
112.7200040974
 30
0.0
 11
-5.1710507744
 21
115.2200040676
 31
0.0
  0
ARC
  5
D8
100
AcDbEntity
  8
LAYER0
 62
         6
100
AcDbCircle
 10
-5.6710507744
 20
105.7200041272
 30
0.0
 40
0.5
210
-0.0
220
0.0
230
1.0
100
AcDbArc
 50
269.9999984648
 51
0.0000015352
  0
ARC
  5
D9
100
AcDbEntity
  8
LAYER0
 62
         6
100
AcDbCircle
 10
-5.6710507744
 20
115.2200040676
 30
0.0
 40
0.5
210
0.0
220
0.0
230
1.0
100
AcDbArc
 50
0.0000015352
 51
89.9999984648
  0
LINE
  5
DA
100
AcDbEntity
  8
LAYER0
 62
         6
100
AcDbLine
 10
-15.7871672383
 20
116.366450677
 30
0.0
 11
-17.2078779835
 21
117.7871614221
 31
0.0
  0
ARC
  5
DB
100
AcDbEntity
  8
LAYER0
 62
         6
100
AcDbCircle
 10
-15.4336138478
 20
116.7200040676
 30
0.0
 40
0.5
210
0.0
220
0.0
230
1.0
100
AcDbArc
 50
224.9999992324
 51
270.0000015352
  0
ARC
  5
DC
100
AcDbEntity
  8
LAYER0
 62
         6
100
AcDbCircle
 10
-16.925035271
 20
118.0700041346
 30
0.0
 40
0.4
210
0.0
220
-0.0
230
1.0
100
AcDbArc
 50
89.9999984648
 51
224.9999992324
  0
LINE
  5
DD
100
AcDbEntity
  8
LAYER0
 62
         6
100
AcDbLine
 10
-1.9210502827
 20
105.9700042911
 30
0.0
 11
-2.4210507074
 21
105.9700042911
 31
0.0
  0
LINE
  5
DE
100
AcDbEntity
  8
LAYER0
 62
         6
100
AcDbLine
 10
-10.1210507446
 20
104.7200041272
 30
0.0
 11
-10.4210507446
 21
104.9700041681
 31
0.0
  0
LINE
  5
DF
100
AcDbEntity
  8
LAYER0
 62
         6
100
AcDbLine
 10
-10.4210507446
 20
104.9700041681
 30
0.0
 11
-10.7210507446
 21
104.7200041272
 31
0.0
  0
LINE
  5
E0
100
AcDbEntity
  8
LAYER0
 62
         6
100
AcDbLine
 10
-10.7210507446
 20
116.2200040676
 30
0.0
 11
-10.4210507446
 21
115.9700040266
 31
0.0
  0
LINE
  5
E1
100
AcDbEntity
  8
LAYER0
 62
         6
100
AcDbLine
 10
-15.6710506329
 20
105.7200041272
 30
0.0
 11
-15.6710506329
 21
115.2200040676
 31
0.0
  0
ARC
  5
E2
100
AcDbEntity
  8
LAYER0
 62
         6
100
AcDbCircle
 10
-16.6710506329
 20
115.8361205091
 30
0.0
 40
0.5
210
0.0
220
0.0
230
1.0
100
AcDbArc
 50
0.0000015352
 51
45.0000030705
  0
ARC
  5
E3
100
AcDbEntity
  8
LAYER0
 62
         6
100
AcDbCircle
 10
-16.6710506329
 20
105.4574410762
 30
0.0
 40
0.5
210
-0.0
220
0.0
230
1.0
100
AcDbArc
 50
315.0
 51
0.0000015352
  0
ARC
  5
E4
100
AcDbEntity
  8
LAYER0
 62
         6
100
AcDbCircle
 10
-19.6710507819
 20
113.2200041346
 30
0.0
 40
6.0
210
0.0
220
-0.0
230
1.0
100
AcDbArc
 50
89.9999984648
 51
180.0000015352
  0
ARC
  5
E5
100
AcDbEntity
  8
LAYER0
 62
         6
100
AcDbCircle
 10
-19.6710507819
 20
113.2200041346
 30
0.0
 40
5.5
210
0.0
220
-0.0
230
1.0
100
AcDbArc
 50
89.9999984648
 51
180.0000015352
  0
ARC
  5
E6
100
AcDbEntity
  8
LAYER0
 62
         6
100
AcDbCircle
 10
-16.9210507446
 20
102.8700040601
 30
0.0
 40
1.15
210
0.0
220
0.0
230
1.0
100
AcDbArc
 50
180.0000015352
 51
269.9999984648
  0
LINE
  5
E7
100
AcDbEntity
  8
LAYER0
 62
         6
100
AcDbLine
 10
-18.0710507446
 20
102.8700040601
 30
0.0
 11
-18.0710507446
 21
103.0396740115
 31
0.0
  0
ARC
  5
E8
100
AcDbEntity
  8
LAYER0
 62
         6
100
AcDbCircle
 10
-17.3210507446
 20
103.0396740115
 30
0.0
 40
0.75
210
0.0
220
0.0
230
1.0
100
AcDbArc
 50
135.0
 51
180.0000015352
  0
LINE
  5
E9
100
AcDbEntity
  8
LAYER0
 62
         6
100
AcDbLine
 10
-17.8210507446
 20
118.4700041346
 30
0.0
 11
-17.8210507446
 21
118.0660196082
 31
0.0
  0
ARC
  5
EA
100
AcDbEntity
  8
LAYER0
 62
         6
100
AcDbCircle
 10
-16.9210507446
 20
118.0660196082
 30
0.0
 40
0.9
210
0.0
220
0.0
230
1.0
100
AcDbArc
 50
180.0000015352
 51
224.9999969295
  0
ARC
  5
EB
100
AcDbEntity
  8
LAYER0
 62
         6
100
AcDbCircle
 10
-24.9210507819
 20
111.7200040974
 30
0.0
 40
0.25
210
0.0
220
0.0
230
1.0
100
AcDbArc
 50
180.0000015352
 51
269.9999984648
  0
ARC
  5
EC
100
AcDbEntity
  8
LAYER0
 62
         6
100
AcDbCircle
 10
-18.0710507446
 20
118.4700041346
 30
0.0
 40
0.25
210
0.0
220
0.0
230
1.0
100
AcDbArc
 50
0.0000015352
 51
89.9999984648
  0
ARC
  5
ED
100
AcDbEntity
  8
LAYER0
 62
         6
100
AcDbCircle
 10
-3.4210507074
 20
117.4700041346
 30
0.0
 40
1.75
210
0.0
220
0.0
230
1.0
100
AcDbArc
 50
0.0000015352
 51
89.9999984648
  0
ARC
  5
EE
100
AcDbEntity
  8
LAYER0
 62
         6
100
AcDbCircle
 10
-3.4210507074
 20
103.4700040601
 30
0.0
 40
1.75
210
-0.0
220
0.0
230
1.0
100
AcDbArc
 50
269.9999984648
 51
0.0000015352
  0
ARC
  5
EF
100
AcDbEntity
  8
LAYER0
 62
         6
100
AcDbCircle
 10
-16.3210506329
 20
110.8200040974
 30
0.0
 40
0.15
210
0.0
220
0.0
230
1.0
100
AcDbArc
 50
0.0000015352
 51
89.9999984648
  0
ARC
  5
F0
100
AcDbEntity
  8
LAYER0
 62
         6
100
AcDbCircle
 10
-16.3210506329
 20
111.6200040974
 30
0.0
 40
0.15
210
-0.0
220
0.0
230
1.0
100
AcDbArc
 50
269.9999984648
 51
0.0000015352
  0
LINE
  5
F1
100
AcDbEntity
  8
LAYER0
 62
         6
100
AcDbLine
 10
-19.9341365764
 20
112.0700040974
 30
0.0
 11
-21.9079649874
 21
112.0700040974
 31
0.0
  0
LINE
  5
F2
100
AcDbEntity
  8
LAYER0
 62
         6
100
AcDbLine
 10
-22.9210507819
 20
111.4700040974
 30
0.0
 11
-22.376486273
 21
111.9056557045
 31
0.0
  0
LINE
  5
F3
100
AcDbEntity
  8
LAYER0
 62
         6
100
AcDbLine
 10
-19.4656152907
 20
111.9056557045
 30
0.0
 11
-18.9210507819
 21
111.4700040974
 31
0.0
  0
ARC
  5
F4
100
AcDbEntity
  8
LAYER0
 62
         6
100
AcDbCircle
 10
-21.9079649874
 20
111.3200040974
 30
0.0
 40
0.75
210
0.0
220
-0.0
230
1.0
100
AcDbArc
 50
89.9999984648
 51
128.6598080378
  0
ARC
  5
F5
100
AcDbEntity
  8
LAYER0
 62
         6
100
AcDbCircle
 10
-19.9341365764
 20
111.3200040974
 30
0.0
 40
0.75
210
0.0
220
0.0
230
1.0
100
AcDbArc
 50
51.3401950327
 51
89.9999984648
  0
LINE
  5
F6
100
AcDbEntity
  8
LAYER0
 62
         6
100
AcDbLine
 10
-16.3174972423
 20
105.1038876856
 30
0.0
 11
-17.8513808305
 21
103.5700040974
 31
0.0
  0
ARC
  5
F7
100
AcDbEntity
  8
LAYER0
 62
         6
100
AcDbCircle
 10
-25.4210507819
 20
111.2200040974
 30
0.0
 40
0.25
210
0.0
220
0.0
230
1.0
100
AcDbArc
 50
180.0
 51
269.9999984648
  0
LINE
  5
F8
100
AcDbEntity
  8
LAYER0
 62
         6
100
AcDbLine
 10
-20.6210507819
 20
110.9700040974
 30
0.0
 11
-20.9210507819
 21
111.2200041383
 31
0.0
  0
LINE
  5
F9
100
AcDbEntity
  8
LAYER0
 62
         6
100
AcDbLine
 10
-20.9210507819
 20
111.2200041383
 30
0.0
 11
-21.2210507819
 21
110.9700040974
 31
0.0
  0
LINE
  5
FA
100
AcDbEntity
  8
LAYER0
 62
         6
100
AcDbLine
 10
-12.1264862358
 20
115.2843524605
 30
0.0
 11
-12.6710507446
 21
115.7200040676
 31
0.0
  0
ARC
  5
FB
100
AcDbEntity
  8
LAYER0
 62
         6
100
AcDbCircle
 10
-11.6579649501
 20
115.8700040676
 30
0.0
 40
0.75
210
0.0
220
0.0
230
1.0
100
AcDbArc
 50
231.3401888917
 51
269.9999984648
  0
LINE
  5
FC
100
AcDbEntity
  8
LAYER0
 62
         6
100
AcDbLine
 10
-10.1210507446
 20
115.1200040676
 30
0.0
 11
-10.4210507446
 21
115.3700041085
 31
0.0
  0
LINE
  5
FD
100
AcDbEntity
  8
LAYER0
 62
         6
100
AcDbLine
 10
-10.4210507446
 20
115.3700041085
 30
0.0
 11
-10.7210507446
 21
115.1200040676
 31
0.0
  0
LINE
  5
FE
100
AcDbEntity
  8
LAYER0
 62
         6
100
AcDbLine
 10
-11.6579649501
 20
115.1200040676
 30
0.0
 11
-10.7210507446
 21
115.1200040676
 31
0.0
  0
LINE
  5
FF
100
AcDbEntity
  8
LAYER0
 62
         6
100
AcDbLine
 10
-10.1210507446
 20
115.1200040676
 30
0.0
 11
-9.1841365392
 21
115.1200040676
 31
0.0
  0
ARC
  5
100
100
AcDbEntity
  8
LAYER0
 62
         6
100
AcDbCircle
 10
-9.1841365392
 20
115.8700040676
 30
0.0
 40
0.75
210
0.0
220
0.0
230
1.0
100
AcDbArc
 50
269.9999984648
 51
308.6598080378
  0
LINE
  5
101
100
AcDbEntity
  8
LAYER0
 62
         6
100
AcDbLine
 10
-8.7156152535
 20
115.2843524605
 30
0.0
 11
-8.1710507446
 21
115.7200040676
 31
0.0
  0
LINE
  5
102
100
AcDbEntity
  8
LAYER0
 62
         6
100
AcDbLine
 10
-5.7710507744
 20
111.7069183029
 30
0.0
 11
-5.7710507744
 21
109.2330898919
 31
0.0
  0
LINE
  5
103
100
AcDbEntity
  8
LAYER0
 62
         6
100
AcDbLine
 10
-5.6067023815
 20
108.7645686062
 30
0.0
 11
-5.1710507744
 21
108.2200040974
 31
0.0
  0
LINE
  5
104
100
AcDbEntity
  8
LAYER0
 62
         6
100
AcDbLine
 10
-5.6067023815
 20
112.1754395885
 30
0.0
 11
-5.1710507744
 21
112.7200040974
 31
0.0
  0
ARC
  5
105
100
AcDbEntity
  8
LAYER0
 62
         6
100
AcDbCircle
 10
-5.0210507744
 20
111.7069183029
 30
0.0
 40
0.75
210
0.0
220
0.0
230
1.0
100
AcDbArc
 50
141.3401919622
 51
180.0000015352
  0
ARC
  5
106
100
AcDbEntity
  8
LAYER0
 62
         6
100
AcDbCircle
 10
-5.0210507744
 20
109.2330898919
 30
0.0
 40
0.75
210
0.0
220
0.0
230
1.0
100
AcDbArc
 50
180.0000015352
 51
218.6598049673
  0
LINE
  5
107
100
AcDbEntity
  8
LAYER0
 62
         6
100
AcDbLine
 10
-12.1264862358
 20
105.6556557343
 30
0.0
 11
-12.6710507446
 21
105.2200041272
 31
0.0
  0
ARC
  5
108
100
AcDbEntity
  8
LAYER0
 62
         6
100
AcDbCircle
 10
-11.6579649501
 20
105.0700041272
 30
0.0
 40
0.75
210
0.0
220
-0.0
230
1.0
100
AcDbArc
 50
89.9999984648
 51
128.6598080378
  0
LINE
  5
109
100
AcDbEntity
  8
LAYER0
 62
         6
100
AcDbLine
 10
-10.1210507446
 20
105.8200041272
 30
0.0
 11
-10.4210507446
 21
105.5700040862
 31
0.0
  0
LINE
  5
10A
100
AcDbEntity
  8
LAYER0
 62
         6
100
AcDbLine
 10
-10.4210507446
 20
105.5700040862
 30
0.0
 11
-10.7210507446
 21
105.8200041272
 31
0.0
  0
LINE
  5
10B
100
AcDbEntity
  8
LAYER0
 62
         6
100
AcDbLine
 10
-11.6579649501
 20
105.8200041272
 30
0.0
 11
-10.7210507446
 21
105.8200041272
 31
0.0
  0
LINE
  5
10C
100
AcDbEntity
  8
LAYER0
 62
         6
100
AcDbLine
 10
-10.1210507446
 20
105.8200041272
 30
0.0
 11
-9.1841365392
 21
105.8200041272
 31
0.0
  0
ARC
  5
10D
100
AcDbEntity
  8
LAYER0
 62
         6
100
AcDbCircle
 10
-9.1841365392
 20
105.0700041272
 30
0.0
 40
0.75
210
0.0
220
0.0
230
1.0
100
AcDbArc
 50
51.3401950327
 51
89.9999984648
  0
LINE
  5
10E
100
AcDbEntity
  8
LAYER0
 62
         6
100
AcDbLine
 10
-8.7156152535
 20
105.6556557343
 30
0.0
 11
-8.1710507446
 21
105.2200041272
 31
0.0
  0
LINE
  5
10F
100
AcDbEntity
  8
LAYER0
 62
         6
100
AcDbLine
 10
-17.5574468477
 20
117.4296235051
 30
0.0
 11
-16.3174972423
 21
116.1896738997
 31
0.0
  0
ARC
  5
110
100
AcDbEntity
  8
LAYER0
 62
         6
100
AcDbCircle
 10
-15.2265070666
 20
103.7200041272
 30
0.0
 40
1.0
210
0.0
220
0.0
230
1.0
100
AcDbArc
 50
90.0000015352
 51
134.9999976971
  0
ARC
  5
111
100
AcDbEntity
  8
LAYER0
 62
         6
100
AcDbCircle
 10
-15.1710506329
 20
105.7200041272
 30
0.0
 40
0.5
210
0.0
220
0.0
230
1.0
100
AcDbArc
 50
180.0000015352
 51
269.9999984648
  0
ARC
  5
112
100
AcDbEntity
  8
LAYER0
 62
         6
100
AcDbCircle
 10
-15.1710506329
 20
115.2200040676
 30
0.0
 40
0.5
210
0.0
220
-0.0
230
1.0
100
AcDbArc
 50
89.9999984648
 51
180.0000015352
  0
ENDBLK
  5
113
100
AcDbEntity
  8
0
100
AcDbBlockEnd
  0
BLOCK
  5
124
100
AcDbEntity
  8
0
100
AcDbBlockBegin
  2
CLUMP4
 70
         0
 10
0.0
 20
0.0
 30
0.0
  3

  1

  0
INSERT
  5
126
100
AcDbEntity
  8
0
100
AcDbBlockReference
  2
CLUMP5
 10
0.0
 20
0.0
 30
0.0
  0
ENDBLK
  5
140
100
AcDbEntity
  8
0
100
AcDbBlockEnd
  0
BLOCK
  5
127
100
AcDbEntity
  8
0
100
AcDbBlockBegin
  2
CLUMP5
 70
         0
 10
0.0
 20
0.0
 30
0.0
  3

  1

  0
LINE
  5
128
100
AcDbEntity
  8
LAYER0
 62
         3
100
AcDbLine
 10
-14.2860644508
 20
97.0700040974
 30
0.0
 11
-6.5560370385
 21
97.0700040974
 31
0.0
  0
LINE
  5
129
100
AcDbEntity
  8
LAYER0
 62
         3
100
AcDbLine
 10
-13.5460505509
 20
104.5700040974
 30
0.0
 11
-13.5460505509
 21
98.8200040974
 31
0.0
  0
LINE
  5
12A
100
AcDbEntity
  8
LAYER0
 62
         3
100
AcDbLine
 10
-12.2960505509
 20
104.5700040974
 30
0.0
 11
-12.2960505509
 21
98.8200040974
 31
0.0
  0
LINE
  5
12B
100
AcDbEntity
  8
LAYER0
 62
         3
100
AcDbLine
 10
-11.0460505509
 20
104.5700040974
 30
0.0
 11
-11.0460505509
 21
98.8200040974
 31
0.0
  0
LINE
  5
12C
100
AcDbEntity
  8
LAYER0
 62
         3
100
AcDbLine
 10
-9.7960505509
 20
104.5700040974
 30
0.0
 11
-9.7960505509
 21
98.8200040974
 31
0.0
  0
LINE
  5
12D
100
AcDbEntity
  8
LAYER0
 62
         3
100
AcDbLine
 10
-8.5460505509
 20
104.5700040974
 30
0.0
 11
-8.5460505509
 21
98.8200040974
 31
0.0
  0
LINE
  5
12E
100
AcDbEntity
  8
LAYER0
 62
         3
100
AcDbLine
 10
-7.2960505509
 20
104.5700040974
 30
0.0
 11
-7.2960505509
 21
98.8200040974
 31
0.0
  0
LINE
  5
12F
100
AcDbEntity
  8
LAYER0
 62
         3
100
AcDbLine
 10
-7.2960505509
 20
98.8200040974
 30
0.0
 11
-8.5460505509
 21
98.8200040974
 31
0.0
  0
LINE
  5
130
100
AcDbEntity
  8
LAYER0
 62
         3
100
AcDbLine
 10
-9.7960505509
 20
98.8200040974
 30
0.0
 11
-11.0460505509
 21
98.8200040974
 31
0.0
  0
LINE
  5
131
100
AcDbEntity
  8
LAYER0
 62
         3
100
AcDbLine
 10
-12.2960505509
 20
98.8200040974
 30
0.0
 11
-13.5460505509
 21
98.8200040974
 31
0.0
  0
LINE
  5
132
100
AcDbEntity
  8
LAYER0
 62
         4
100
AcDbLine
 10
-14.8210507446
 20
99.5700040974
 30
0.0
 11
-13.5460505509
 21
99.5700040974
 31
0.0
  0
LINE
  5
133
100
AcDbEntity
  8
LAYER0
 62
         4
100
AcDbLine
 10
-12.2960505509
 20
99.5700040974
 30
0.0
 11
-11.0460505509
 21
99.5700040974
 31
0.0
  0
LINE
  5
134
100
AcDbEntity
  8
LAYER0
 62
         4
100
AcDbLine
 10
-9.7960505509
 20
99.5700040974
 30
0.0
 11
-8.5460505509
 21
99.5700040974
 31
0.0
  0
LINE
  5
135
100
AcDbEntity
  8
LAYER0
 62
         4
100
AcDbLine
 10
-7.2960505509
 20
99.5700040974
 30
0.0
 11
-6.0210507446
 21
99.5700040974
 31
0.0
  0
LINE
  5
136
100
AcDbEntity
  8
LAYER0
 62
         3
100
AcDbLine
 10
-14.2424267884
 20
104.5700040974
 30
0.0
 11
-6.5996747008
 21
104.5700040974
 31
0.0
  0
LINE
  5
137
100
AcDbEntity
  8
LAYER0
 62
         3
100
AcDbLine
 10
-14.8210507446
 20
99.5700040974
 30
0.0
 11
-14.742350636
 21
104.0787303006
 31
0.0
  0
LINE
  5
138
100
AcDbEntity
  8
LAYER0
 62
         3
100
AcDbLine
 10
-6.0210507446
 20
99.5700040974
 30
0.0
 11
-6.0997508533
 21
104.0787303006
 31
0.0
  0
ARC
  5
139
100
AcDbEntity
  8
LAYER0
 62
         3
100
AcDbCircle
 10
-14.2424267884
 20
104.0700040974
 30
0.0
 40
0.5
210
0.0
220
0.0
230
1.0
100
AcDbArc
 50
90.0000015352
 51
179.0000030534
  0
ARC
  5
13A
100
AcDbEntity
  8
LAYER0
 62
         3
100
AcDbCircle
 10
-6.5996747008
 20
104.0700040974
 30
0.0
 40
0.5
210
0.0
220
-0.0
230
1.0
100
AcDbArc
 50
1.0000000171
 51
90.0000015352
  0
LINE
  5
13B
100
AcDbEntity
  8
LAYER0
 62
         3
100
AcDbLine
 10
-6.0210507446
 20
99.5700040974
 30
0.0
 11
-6.0561131909
 21
97.5612778942
 31
0.0
  0
LINE
  5
13C
100
AcDbEntity
  8
LAYER0
 62
         3
100
AcDbLine
 10
-14.8210507446
 20
99.5700040974
 30
0.0
 11
-14.7859882983
 21
97.5612778942
 31
0.0
  0
ARC
  5
13D
100
AcDbEntity
  8
LAYER0
 62
         3
100
AcDbCircle
 10
-14.2860644508
 20
97.5700040974
 30
0.0
 40
0.5
210
0.0
220
0.0
230
1.0
100
AcDbArc
 50
180.9999969466
 51
269.9999984648
  0
ARC
  5
13E
100
AcDbEntity
  8
LAYER0
 62
         3
100
AcDbCircle
 10
-6.5560370385
 20
97.5700040974
 30
0.0
 40
0.5
210
0.0
220
0.0
230
1.0
100
AcDbArc
 50
269.9999984648
 51
358.9999999829
  0
ENDBLK
  5
13F
100
AcDbEntity
  8
0
100
AcDbBlockEnd
  0
BLOCK
  5
143
100
AcDbEntity
  8
0
100
AcDbBlockBegin
  2
CLUMP6
 70
         0
 10
0.0
 20
0.0
 30
0.0
  3

  1

  0
INSERT
  5
145
100
AcDbEntity
  8
0
100
AcDbBlockReference
  2
CLUMP7
 10
0.0
 20
0.0
 30
0.0
  0
ENDBLK
  5
152
100
AcDbEntity
  8
0
100
AcDbBlockEnd
  0
BLOCK
  5
146
100
AcDbEntity
  8
0
100
AcDbBlockBegin
  2
CLUMP7
 70
         0
 10
0.0
 20
0.0
 30
0.0
  3

  1

  0
LINE
  5
147
100
AcDbEntity
  8
LAYER0
 62
         5
100
AcDbLine
 10
-12.4210507446
 20
98.4200040974
 30
0.0
 11
-8.4210507446
 21
98.4200040974
 31
0.0
  0
LINE
  5
148
100
AcDbEntity
  8
LAYER0
 62
         5
100
AcDbLine
 10
-10.4210507446
 20
98.4200040974
 30
0.0
 11
-10.4210507446
 21
98.9950040974
 31
0.0
  0
LINE
  5
149
100
AcDbEntity
  8
LAYER0
 62
         5
100
AcDbLine
 10
-11.2960507446
 20
99.5700040974
 30
0.0
 11
-11.2960507446
 21
103.4200040974
 31
0.0
  0
LINE
  5
14A
100
AcDbEntity
  8
LAYER0
 62
         5
100
AcDbLine
 10
-9.5460507446
 20
99.5700040974
 30
0.0
 11
-9.5460507446
 21
103.4200040974
 31
0.0
  0
LINE
  5
14B
100
AcDbEntity
  8
LAYER0
 62
         5
100
AcDbLine
 10
-11.4210507446
 20
99.5700040974
 30
0.0
 11
-9.4210507446
 21
99.5700040974
 31
0.0
  0
LINE
  5
14C
100
AcDbEntity
  8
LAYER0
 62
         5
100
AcDbLine
 10
-12.4210507446
 20
98.4200040974
 30
0.0
 11
-11.4210507446
 21
99.5700040974
 31
0.0
  0
LINE
  5
14D
100
AcDbEntity
  8
LAYER0
 62
         5
100
AcDbLine
 10
-8.4210507446
 20
98.4200040974
 30
0.0
 11
-9.4210507446
 21
99.5700040974
 31
0.0
  0
LINE
  5
14E
100
AcDbEntity
  8
LAYER0
 62
         5
100
AcDbLine
 10
-11.4210507446
 20
99.5700040974
 30
0.0
 11
-11.4210507446
 21
103.4200040974
 31
0.0
  0
LINE
  5
14F
100
AcDbEntity
  8
LAYER0
 62
         5
100
AcDbLine
 10
-9.4210507446
 20
99.5700040974
 30
0.0
 11
-9.4210507446
 21
103.4200040974
 31
0.0
  0
LINE
  5
150
100
AcDbEntity
  8
LAYER0
 62
         5
100
AcDbLine
 10
-11.4210507446
 20
103.4200040974
 30
0.0
 11
-9.4210507446
 21
103.4200040974
 31
0.0
  0
ENDBLK
  5
151
100
AcDbEntity
  8
0
100
AcDbBlockEnd
  0
BLOCK
  5
16B
100
AcDbEntity
  8
0
100
AcDbBlockBegin
  2
CLUMP8
 70
         0
 10
0.0
 20
0.0
 30
0.0
  3

  1

  0
INSERT
  5
16D
100
AcDbEntity
  8
0
100
AcDbBlockReference
  2
CLUMP9
 10
0.0
 20
0.0
 30
0.0
  0
ENDBLK
  5
17E
100
AcDbEntity
  8
0
100
AcDbBlockEnd
  0
BLOCK
  5
16E
100
AcDbEntity
  8
0
100
AcDbBlockBegin
  2
CLUMP9
 70
         0
 10
0.0
 20
0.0
 30
0.0
  3

  1

  0
LINE
  5
16F
100
AcDbEntity
  8
LAYER0
 62
         2
100
AcDbLine
 10
-1.4210507446
 20
101.5700040974
 30
0.0
 11
-1.4210507446
 21
110.4700040974
 31
0.0
  0
LINE
  5
170
100
AcDbEntity
  8
LAYER0
 62
         2
100
AcDbLine
 10
-0.4210507446
 20
110.4700040974
 30
0.0
 11
-0.4210507446
 21
101.5700040974
 31
0.0
  0
ARC
  5
171
100
AcDbEntity
  8
LAYER0
 62
         2
100
AcDbCircle
 10
-1.4210507446
 20
101.5700040974
 30
0.0
 40
1.0
210
-0.0
220
0.0
230
1.0
100
AcDbArc
 50
269.9999984648
 51
0.0
  0
LINE
  5
172
100
AcDbEntity
  8
LAYER0
 62
         2
100
AcDbLine
 10
-1.1710507446
 20
110.4700040974
 30
0.0
 11
-1.1710507446
 21
101.3200040974
 31
0.0
  0
LINE
  5
173
100
AcDbEntity
  8
LAYER0
 62
         2
100
AcDbLine
 10
-1.4210507446
 20
101.5700040974
 30
0.0
 11
-1.1710507446
 21
101.3200040974
 31
0.0
  0
LINE
  5
174
100
AcDbEntity
  8
LAYER0
 62
         2
100
AcDbLine
 10
-0.3210507446
 20
103.9700040974
 30
0.0
 11
-0.4210507446
 21
103.9700040974
 31
0.0
  0
LINE
  5
175
100
AcDbEntity
  8
LAYER0
 62
         2
100
AcDbLine
 10
-0.1710507446
 20
104.1200040974
 30
0.0
 11
-0.1710507446
 21
110.4700040974
 31
0.0
  0
ARC
  5
176
100
AcDbEntity
  8
LAYER0
 62
         2
100
AcDbCircle
 10
-0.3210507446
 20
104.1200040974
 30
0.0
 40
0.15
210
-0.0
220
0.0
230
1.0
100
AcDbArc
 50
269.9999984648
 51
0.0
  0
LINE
  5
177
100
AcDbEntity
  8
LAYER0
 62
         2
100
AcDbLine
 10
-1.1710507446
 20
101.3200040974
 30
0.0
 11
-6.0515971083
 21
101.3200040974
 31
0.0
  0
LINE
  5
178
100
AcDbEntity
  8
LAYER0
 62
         2
100
AcDbLine
 10
-12.9210507446
 20
100.5700040974
 30
0.0
 11
-12.9210507446
 21
101.5700040974
 31
0.0
  0
LINE
  5
179
100
AcDbEntity
  8
LAYER0
 62
         2
100
AcDbLine
 10
-12.9210507446
 20
100.5700040974
 30
0.0
 11
-6.0385058096
 21
100.5700040974
 31
0.0
  0
LINE
  5
17A
100
AcDbEntity
  8
LAYER0
 62
         2
100
AcDbLine
 10
-6.0385058096
 20
100.5700040974
 30
0.0
 11
-1.4210507446
 21
100.5700040974
 31
0.0
  0
LINE
  5
17B
100
AcDbEntity
  8
LAYER0
 62
         2
100
AcDbLine
 10
-12.9210507446
 20
101.5700040974
 30
0.0
 11
-6.0559608745
 21
101.5700040974
 31
0.0
  0
LINE
  5
17C
100
AcDbEntity
  8
LAYER0
 62
         2
100
AcDbLine
 10
-6.0559608745
 20
101.5700040974
 30
0.0
 11
-1.4210507446
 21
101.5700040974
 31
0.0
  0
ENDBLK
  5
17D
100
AcDbEntity
  8
0
100
AcDbBlockEnd
  0
BLOCK
  5
198
100
AcDbEntity
  8
0
100
AcDbBlockBegin
  2
CLUMP10
 70
         0
 10
0.0
 20
0.0
 30
0.0
  3

  1

  0
INSERT
  5
19A
100
AcDbEntity
  8
0
100
AcDbBlockReference
  2
CLUMP11
 10
0.0
 20
0.0
 30
0.0
  0
ENDBLK
  5
1A7
100
AcDbEntity
  8
0
100
AcDbBlockEnd
  0
BLOCK
  5
19B
100
AcDbEntity
  8
0
100
AcDbBlockBegin
  2
CLUMP11
 70
         0
 10
0.0
 20
0.0
 30
0.0
  3

  1

  0
LINE
  5
19C
100
AcDbEntity
  8
LAYER0
 62
         5
100
AcDbLine
 10
-12.4210507446
 20
122.5200040974
 30
0.0
 11
-8.4210507446
 21
122.5200040974
 31
0.0
  0
LINE
  5
19D
100
AcDbEntity
  8
LAYER0
 62
         5
100
AcDbLine
 10
-10.4210507446
 20
122.5200040974
 30
0.0
 11
-10.4210507446
 21
121.9450040974
 31
0.0
  0
LINE
  5
19E
100
AcDbEntity
  8
LAYER0
 62
         5
100
AcDbLine
 10
-11.2960507446
 20
121.3700040974
 30
0.0
 11
-11.2960507446
 21
117.5200040974
 31
0.0
  0
LINE
  5
19F
100
AcDbEntity
  8
LAYER0
 62
         5
100
AcDbLine
 10
-9.5460507446
 20
121.3700040974
 30
0.0
 11
-9.5460507446
 21
117.5200040974
 31
0.0
  0
LINE
  5
1A0
100
AcDbEntity
  8
LAYER0
 62
         5
100
AcDbLine
 10
-11.4210507446
 20
121.3700040974
 30
0.0
 11
-9.4210507446
 21
121.3700040974
 31
0.0
  0
LINE
  5
1A1
100
AcDbEntity
  8
LAYER0
 62
         5
100
AcDbLine
 10
-12.4210507446
 20
122.5200040974
 30
0.0
 11
-11.4210507446
 21
121.3700040974
 31
0.0
  0
LINE
  5
1A2
100
AcDbEntity
  8
LAYER0
 62
         5
100
AcDbLine
 10
-8.4210507446
 20
122.5200040974
 30
0.0
 11
-9.4210507446
 21
121.3700040974
 31
0.0
  0
LINE
  5
1A3
100
AcDbEntity
  8
LAYER0
 62
         5
100
AcDbLine
 10
-11.4210507446
 20
121.3700040974
 30
0.0
 11
-11.4210507446
 21
117.5200040974
 31
0.0
  0
LINE
  5
1A4
100
AcDbEntity
  8
LAYER0
 62
         5
100
AcDbLine
 10
-9.4210507446
 20
121.3700040974
 30
0.0
 11
-9.4210507446
 21
117.5200040974
 31
0.0
  0
LINE
  5
1A5
100
AcDbEntity
  8
LAYER0
 62
         5
100
AcDbLine
 10
-11.4210507446
 20
117.5200040974
 30
0.0
 11
-9.4210507446
 21
117.5200040974
 31
0.0
  0
ENDBLK
  5
1A6
100
AcDbEntity
  8
0
100
AcDbBlockEnd
  0
BLOCK
  5
1AA
100
AcDbEntity
  8
0
100
AcDbBlockBegin
  2
CLUMP12
 70
         0
 10
0.0
 20
0.0
 30
0.0
  3

  1

  0
INSERT
  5
1AC
100
AcDbEntity
  8
0
100
AcDbBlockReference
  2
CLUMP13
 10
0.0
 20
0.0
 30
0.0
  0
ENDBLK
  5
1C6
100
AcDbEntity
  8
0
100
AcDbBlockEnd
  0
BLOCK
  5
1AD
100
AcDbEntity
  8
0
100
AcDbBlockBegin
  2
CLUMP13
 70
         0
 10
0.0
 20
0.0
 30
0.0
  3

  1

  0
LINE
  5
1AE
100
AcDbEntity
  8
LAYER0
 62
         3
100
AcDbLine
 10
-14.2860644508
 20
123.8700040974
 30
0.0
 11
-6.5560370385
 21
123.8700040974
 31
0.0
  0
LINE
  5
1AF
100
AcDbEntity
  8
LAYER0
 62
         3
100
AcDbLine
 10
-13.5460505509
 20
116.3700040974
 30
0.0
 11
-13.5460505509
 21
122.1200040974
 31
0.0
  0
LINE
  5
1B0
100
AcDbEntity
  8
LAYER0
 62
         3
100
AcDbLine
 10
-12.2960505509
 20
116.3700040974
 30
0.0
 11
-12.2960505509
 21
122.1200040974
 31
0.0
  0
LINE
  5
1B1
100
AcDbEntity
  8
LAYER0
 62
         3
100
AcDbLine
 10
-11.0460505509
 20
116.3700040974
 30
0.0
 11
-11.0460505509
 21
122.1200040974
 31
0.0
  0
LINE
  5
1B2
100
AcDbEntity
  8
LAYER0
 62
         3
100
AcDbLine
 10
-9.7960505509
 20
116.3700040974
 30
0.0
 11
-9.7960505509
 21
122.1200040974
 31
0.0
  0
LINE
  5
1B3
100
AcDbEntity
  8
LAYER0
 62
         3
100
AcDbLine
 10
-8.5460505509
 20
116.3700040974
 30
0.0
 11
-8.5460505509
 21
122.1200040974
 31
0.0
  0
LINE
  5
1B4
100
AcDbEntity
  8
LAYER0
 62
         3
100
AcDbLine
 10
-7.2960505509
 20
116.3700040974
 30
0.0
 11
-7.2960505509
 21
122.1200040974
 31
0.0
  0
LINE
  5
1B5
100
AcDbEntity
  8
LAYER0
 62
         3
100
AcDbLine
 10
-7.2960505509
 20
122.1200040974
 30
0.0
 11
-8.5460505509
 21
122.1200040974
 31
0.0
  0
LINE
  5
1B6
100
AcDbEntity
  8
LAYER0
 62
         3
100
AcDbLine
 10
-9.7960505509
 20
122.1200040974
 30
0.0
 11
-11.0460505509
 21
122.1200040974
 31
0.0
  0
LINE
  5
1B7
100
AcDbEntity
  8
LAYER0
 62
         3
100
AcDbLine
 10
-12.2960505509
 20
122.1200040974
 30
0.0
 11
-13.5460505509
 21
122.1200040974
 31
0.0
  0
LINE
  5
1B8
100
AcDbEntity
  8
LAYER0
 62
         4
100
AcDbLine
 10
-14.8210507446
 20
121.3700040974
 30
0.0
 11
-13.5460505509
 21
121.3700040974
 31
0.0
  0
LINE
  5
1B9
100
AcDbEntity
  8
LAYER0
 62
         4
100
AcDbLine
 10
-12.2960505509
 20
121.3700040974
 30
0.0
 11
-11.0460505509
 21
121.3700040974
 31
0.0
  0
LINE
  5
1BA
100
AcDbEntity
  8
LAYER0
 62
         4
100
AcDbLine
 10
-9.7960505509
 20
121.3700040974
 30
0.0
 11
-8.5460505509
 21
121.3700040974
 31
0.0
  0
LINE
  5
1BB
100
AcDbEntity
  8
LAYER0
 62
         4
100
AcDbLine
 10
-7.2960505509
 20
121.3700040974
 30
0.0
 11
-6.0210507446
 21
121.3700040974
 31
0.0
  0
LINE
  5
1BC
100
AcDbEntity
  8
LAYER0
 62
         3
100
AcDbLine
 10
-14.2424267884
 20
116.3700040974
 30
0.0
 11
-6.5996747008
 21
116.3700040974
 31
0.0
  0
LINE
  5
1BD
100
AcDbEntity
  8
LAYER0
 62
         3
100
AcDbLine
 10
-14.8210507446
 20
121.3700040974
 30
0.0
 11
-14.742350636
 21
116.8612778942
 31
0.0
  0
LINE
  5
1BE
100
AcDbEntity
  8
LAYER0
 62
         3
100
AcDbLine
 10
-6.0210507446
 20
121.3700040974
 30
0.0
 11
-6.0997508533
 21
116.8612778942
 31
0.0
  0
ARC
  5
1BF
100
AcDbEntity
  8
LAYER0
 62
         3
100
AcDbCircle
 10
-14.2424267884
 20
116.8700040974
 30
0.0
 40
0.5
210
0.0
220
0.0
230
1.0
100
AcDbArc
 50
180.9999969466
 51
269.9999984648
  0
ARC
  5
1C0
100
AcDbEntity
  8
LAYER0
 62
         3
100
AcDbCircle
 10
-6.5996747008
 20
116.8700040974
 30
0.0
 40
0.5
210
0.0
220
0.0
230
1.0
100
AcDbArc
 50
269.9999984648
 51
358.9999999829
  0
LINE
  5
1C1
100
AcDbEntity
  8
LAYER0
 62
         3
100
AcDbLine
 10
-6.0210507446
 20
121.3700040974
 30
0.0
 11
-6.0561131909
 21
123.3787303006
 31
0.0
  0
LINE
  5
1C2
100
AcDbEntity
  8
LAYER0
 62
         3
100
AcDbLine
 10
-14.8210507446
 20
121.3700040974
 30
0.0
 11
-14.7859882983
 21
123.3787303006
 31
0.0
  0
ARC
  5
1C3
100
AcDbEntity
  8
LAYER0
 62
         3
100
AcDbCircle
 10
-14.2860644508
 20
123.3700040974
 30
0.0
 40
0.5
210
0.0
220
0.0
230
1.0
100
AcDbArc
 50
90.0000015352
 51
179.0000030534
  0
ARC
  5
1C4
100
AcDbEntity
  8
LAYER0
 62
         3
100
AcDbCircle
 10
-6.5560370385
 20
123.3700040974
 30
0.0
 40
0.5
210
0.0
220
-0.0
230
1.0
100
AcDbArc
 50
1.0000000171
 51
90.0000015352
  0
ENDBLK
  5
1C5
100
AcDbEntity
  8
0
100
AcDbBlockEnd
  0
BLOCK
  5
1E1
100
AcDbEntity
  8
0
100
AcDbBlockBegin
  2
CLUMP14
 70
         0
 10
0.0
 20
0.0
 30
0.0
  3

  1

  0
INSERT
  5
1E3
100
AcDbEntity
  8
0
100
AcDbBlockReference
  2
CLUMP15
 10
0.0
 20
0.0
 30
0.0
  0
ENDBLK
  5
1EB
100
AcDbEntity
  8
0
100
AcDbBlockEnd
  0
BLOCK
  5
1E4
100
AcDbEntity
  8
0
100
AcDbBlockBegin
  2
CLUMP15
 70
         0
 10
0.0
 20
0.0
 30
0.0
  3

  1

  0
MTEXT
  5
1E5
100
AcDbEntity
  8
LAYER0
100
AcDbMText
 10
-61.6635103926
 20
93.5444213256
 30
0.0
 40
3.2210527062
 41
15.3878769447
 71
         1
 72
         1
  1
\W0.8;両開き時
  0
LINE
  5
1E6
100
AcDbEntity
  8
LAYER0
100
AcDbLine
 10
-62.1135103926
 20
88.9129330254
 30
0.0
 11
-46.8135103926
 21
88.9129330254
 31
0.0
  0
LINE
  5
1E7
100
AcDbEntity
  8
LAYER0
100
AcDbLine
 10
-46.8135103926
 20
88.9129330254
 30
0.0
 11
-46.8135103926
 21
94.3129330254
 31
0.0
  0
LINE
  5
1E8
100
AcDbEntity
  8
LAYER0
100
AcDbLine
 10
-62.1135103926
 20
94.3129330254
 30
0.0
 11
-46.8135103926
 21
94.3129330254
 31
0.0
  0
LINE
  5
1E9
100
AcDbEntity
  8
LAYER0
100
AcDbLine
 10
-62.1135103926
 20
88.9129330254
 30
0.0
 11
-62.1135103926
 21
94.3129330254
 31
0.0
  0
ENDBLK
  5
1EA
100
AcDbEntity
  8
0
100
AcDbBlockEnd
  0
BLOCK
  5
23E
100
AcDbEntity
  8
0
100
AcDbBlockBegin
  2
CLUMP16
 70
         0
 10
0.0
 20
0.0
 30
0.0
  3

  1

  0
INSERT
  5
240
100
AcDbEntity
  8
0
100
AcDbBlockReference
  2
CLUMP17
 10
0.0
 20
0.0
 30
0.0
  0
ENDBLK
  5
250
100
AcDbEntity
  8
0
100
AcDbBlockEnd
  0
BLOCK
  5
241
100
AcDbEntity
  8
0
100
AcDbBlockBegin
  2
CLUMP17
 70
         0
 10
0.0
 20
0.0
 30
0.0
  3

  1

  0
LINE
  5
242
100
AcDbEntity
  8
LAYER0
 62
         5
100
AcDbLine
 10
-3.9210507074
 20
43.8200040974
 30
0.0
 11
-3.9210507074
 21
47.1200040974
 31
0.0
  0
LINE
  5
243
100
AcDbEntity
  8
LAYER0
 62
         5
100
AcDbLine
 10
-3.9210507074
 20
43.8200040974
 30
0.0
 11
-3.3218729865
 21
43.8514056711
 31
0.0
  0
LINE
  5
244
100
AcDbEntity
  8
LAYER0
 62
         5
100
AcDbLine
 10
-3.9210507074
 20
47.1200040974
 30
0.0
 11
-3.3218729865
 21
47.0886025236
 31
0.0
  0
ARC
  5
245
100
AcDbEntity
  8
LAYER0
 62
         5
100
AcDbCircle
 10
-3.3445031327
 20
44.2832145828
 30
0.0
 40
0.4324015029
210
0.0
220
0.0
230
1.0
100
AcDbArc
 50
272.9999985159
 51
345.1140872246
  0
ARC
  5
246
100
AcDbEntity
  8
LAYER0
 62
         5
100
AcDbCircle
 10
-3.3445031327
 20
46.6567936119
 30
0.0
 40
0.4324015029
210
0.0
220
0.0
230
1.0
100
AcDbArc
 50
14.8859127754
 51
87.0000014841
  0
ARC
  5
247
100
AcDbEntity
  8
LAYER0
 62
         5
100
AcDbCircle
 10
-6.9210507074
 20
45.4700040974
 30
0.0
 40
4.2
210
-0.0
220
0.0
230
1.0
100
AcDbArc
 50
341.999999693
 51
18.000000307
  0
LINE
  5
248
100
AcDbEntity
  8
LAYER0
 62
         5
100
AcDbLine
 10
-2.7210507074
 20
45.4700040974
 30
0.0
 11
-3.9210507074
 21
45.4700040974
 31
0.0
  0
LINE
  5
249
100
AcDbEntity
  8
LAYER0
 62
         5
100
AcDbLine
 10
-3.9210507074
 20
44.5950040974
 30
0.0
 11
-9.5460507074
 21
44.5950040974
 31
0.0
  0
LINE
  5
24A
100
AcDbEntity
  8
LAYER0
 62
         5
100
AcDbLine
 10
-9.5460507074
 20
46.3450040974
 30
0.0
 11
-3.9210507074
 21
46.3450040974
 31
0.0
  0
LINE
  5
24B
100
AcDbEntity
  8
LAYER0
 62
         5
100
AcDbLine
 10
-10.4210507074
 20
45.4700040974
 30
0.0
 11
-7.9210507074
 21
45.4700040974
 31
0.0
  0
LINE
  5
24C
100
AcDbEntity
  8
LAYER0
 62
         5
100
AcDbLine
 10
-10.4210507074
 20
45.4700040974
 30
0.0
 11
-9.5460507074
 21
44.5950040974
 31
0.0
  0
LINE
  5
24D
100
AcDbEntity
  8
LAYER0
 62
         5
100
AcDbLine
 10
-10.4210507074
 20
45.4700040974
 30
0.0
 11
-9.5460507074
 21
46.3450040974
 31
0.0
  0
LINE
  5
24E
100
AcDbEntity
  8
LAYER0
 62
         5
100
AcDbLine
 10
-7.9210507074
 20
45.4700040974
 30
0.0
 11
-7.9210507074
 21
46.3450040974
 31
0.0
  0
ENDBLK
  5
24F
100
AcDbEntity
  8
0
100
AcDbBlockEnd
  0
BLOCK
  5
253
100
AcDbEntity
  8
0
100
AcDbBlockBegin
  2
CLUMP18
 70
         0
 10
0.0
 20
0.0
 30
0.0
  3

  1

  0
INSERT
  5
255
100
AcDbEntity
  8
0
100
AcDbBlockReference
  2
CLUMP19
 10
0.0
 20
0.0
 30
0.0
  0
ENDBLK
  5
265
100
AcDbEntity
  8
0
100
AcDbBlockEnd
  0
BLOCK
  5
256
100
AcDbEntity
  8
0
100
AcDbBlockBegin
  2
CLUMP19
 70
         0
 10
0.0
 20
0.0
 30
0.0
  3

  1

  0
LINE
  5
257
100
AcDbEntity
  8
LAYER0
 62
         5
100
AcDbLine
 10
-3.9210507074
 20
13.8200040974
 30
0.0
 11
-3.9210507074
 21
17.1200040974
 31
0.0
  0
LINE
  5
258
100
AcDbEntity
  8
LAYER0
 62
         5
100
AcDbLine
 10
-3.9210507074
 20
13.8200040974
 30
0.0
 11
-3.3218729865
 21
13.8514056711
 31
0.0
  0
LINE
  5
259
100
AcDbEntity
  8
LAYER0
 62
         5
100
AcDbLine
 10
-3.9210507074
 20
17.1200040974
 30
0.0
 11
-3.3218729865
 21
17.0886025236
 31
0.0
  0
ARC
  5
25A
100
AcDbEntity
  8
LAYER0
 62
         5
100
AcDbCircle
 10
-3.3445031327
 20
14.2832145828
 30
0.0
 40
0.4324015029
210
0.0
220
0.0
230
1.0
100
AcDbArc
 50
272.9999985159
 51
345.1140872246
  0
ARC
  5
25B
100
AcDbEntity
  8
LAYER0
 62
         5
100
AcDbCircle
 10
-3.3445031327
 20
16.6567936119
 30
0.0
 40
0.4324015029
210
0.0
220
0.0
230
1.0
100
AcDbArc
 50
14.8859127754
 51
87.0000014841
  0
ARC
  5
25C
100
AcDbEntity
  8
LAYER0
 62
         5
100
AcDbCircle
 10
-6.9210507074
 20
15.4700040974
 30
0.0
 40
4.2
210
-0.0
220
0.0
230
1.0
100
AcDbArc
 50
341.999999693
 51
18.000000307
  0
LINE
  5
25D
100
AcDbEntity
  8
LAYER0
 62
         5
100
AcDbLine
 10
-2.7210507074
 20
15.4700040974
 30
0.0
 11
-3.9210507074
 21
15.4700040974
 31
0.0
  0
LINE
  5
25E
100
AcDbEntity
  8
LAYER0
 62
         5
100
AcDbLine
 10
-3.9210507074
 20
14.5950040974
 30
0.0
 11
-9.5460507074
 21
14.5950040974
 31
0.0
  0
LINE
  5
25F
100
AcDbEntity
  8
LAYER0
 62
         5
100
AcDbLine
 10
-9.5460507074
 20
16.3450040974
 30
0.0
 11
-3.9210507074
 21
16.3450040974
 31
0.0
  0
LINE
  5
260
100
AcDbEntity
  8
LAYER0
 62
         5
100
AcDbLine
 10
-10.4210507074
 20
15.4700040974
 30
0.0
 11
-7.9210507074
 21
15.4700040974
 31
0.0
  0
LINE
  5
261
100
AcDbEntity
  8
LAYER0
 62
         5
100
AcDbLine
 10
-10.4210507074
 20
15.4700040974
 30
0.0
 11
-9.5460507074
 21
14.5950040974
 31
0.0
  0
LINE
  5
262
100
AcDbEntity
  8
LAYER0
 62
         5
100
AcDbLine
 10
-10.4210507074
 20
15.4700040974
 30
0.0
 11
-9.5460507074
 21
16.3450040974
 31
0.0
  0
LINE
  5
263
100
AcDbEntity
  8
LAYER0
 62
         5
100
AcDbLine
 10
-7.9210507074
 20
15.4700040974
 30
0.0
 11
-7.9210507074
 21
16.3450040974
 31
0.0
  0
ENDBLK
  5
264
100
AcDbEntity
  8
0
100
AcDbBlockEnd
  0
BLOCK
  5
2CA
100
AcDbEntity
  8
0
100
AcDbBlockBegin
  2
CLUMP20
 70
         0
 10
0.0
 20
0.0
 30
0.0
  3

  1

  0
INSERT
  5
2CC
100
AcDbEntity
  8
0
100
AcDbBlockReference
  2
CLUMP21
 10
0.0
 20
0.0
 30
0.0
  0
ENDBLK
  5
2DF
100
AcDbEntity
  8
0
100
AcDbBlockEnd
  0
BLOCK
  5
2CD
100
AcDbEntity
  8
0
100
AcDbBlockBegin
  2
CLUMP21
 70
         0
 10
0.0
 20
0.0
 30
0.0
  3

  1

  0
LINE
  5
2CE
100
AcDbEntity
  8
LAYER0
 62
         5
100
AcDbLine
 10
-53.9210509309
 20
44.2200040974
 30
0.0
 11
-54.4210509309
 21
44.2200040974
 31
0.0
  0
LINE
  5
2CF
100
AcDbEntity
  8
LAYER0
 62
         5
100
AcDbLine
 10
-53.9210509309
 20
46.7200040974
 30
0.0
 11
-54.4210509309
 21
46.7200040974
 31
0.0
  0
LINE
  5
2D0
100
AcDbEntity
  8
LAYER0
 62
         5
100
AcDbLine
 10
-55.4210509309
 20
45.7200040974
 30
0.0
 11
-55.4210509309
 21
45.2200040974
 31
0.0
  0
LINE
  5
2D1
100
AcDbEntity
  8
LAYER0
 62
         5
100
AcDbLine
 10
-52.9210509309
 20
45.7200040974
 30
0.0
 11
-52.9210509309
 21
45.2200040974
 31
0.0
  0
LINE
  5
2D2
100
AcDbEntity
  8
LAYER0
 62
         5
100
AcDbLine
 10
-52.9210509309
 20
45.7200040974
 30
0.0
 11
-53.7710509309
 21
45.7200040974
 31
0.0
  0
LINE
  5
2D3
100
AcDbEntity
  8
LAYER0
 62
         5
100
AcDbLine
 10
-54.5710509309
 20
45.7200040974
 30
0.0
 11
-55.4210509309
 21
45.7200040974
 31
0.0
  0
LINE
  5
2D4
100
AcDbEntity
  8
LAYER0
 62
         5
100
AcDbLine
 10
-55.4210509309
 20
45.2200040974
 30
0.0
 11
-54.5710509309
 21
45.2200040974
 31
0.0
  0
LINE
  5
2D5
100
AcDbEntity
  8
LAYER0
 62
         5
100
AcDbLine
 10
-53.7710509309
 20
45.2200040974
 30
0.0
 11
-52.9210509309
 21
45.2200040974
 31
0.0
  0
LINE
  5
2D6
100
AcDbEntity
  8
LAYER0
 62
         5
100
AcDbLine
 10
-53.9210509309
 20
46.7200040974
 30
0.0
 11
-53.9210509309
 21
45.8700040974
 31
0.0
  0
LINE
  5
2D7
100
AcDbEntity
  8
LAYER0
 62
         5
100
AcDbLine
 10
-53.9210509309
 20
45.0700040974
 30
0.0
 11
-53.9210509309
 21
44.2200040974
 31
0.0
  0
LINE
  5
2D8
100
AcDbEntity
  8
LAYER0
 62
         5
100
AcDbLine
 10
-54.4210509309
 20
44.2200040974
 30
0.0
 11
-54.4210509309
 21
45.0700040974
 31
0.0
  0
LINE
  5
2D9
100
AcDbEntity
  8
LAYER0
 62
         5
100
AcDbLine
 10
-54.4210509309
 20
45.8700040974
 30
0.0
 11
-54.4210509309
 21
46.7200040974
 31
0.0
  0
ARC
  5
2DA
100
AcDbEntity
  8
LAYER0
 62
         5
100
AcDbCircle
 10
-54.5710509309
 20
45.0700040974
 30
0.0
 40
0.15
210
0.0
220
-0.0
230
1.0
100
AcDbArc
 50
0.0
 51
90.0000015352
  0
ARC
  5
2DB
100
AcDbEntity
  8
LAYER0
 62
         5
100
AcDbCircle
 10
-53.7710509309
 20
45.0700040974
 30
0.0
 40
0.15
210
0.0
220
0.0
230
1.0
100
AcDbArc
 50
90.0000015352
 51
180.0000030705
  0
ARC
  5
2DC
100
AcDbEntity
  8
LAYER0
 62
         5
100
AcDbCircle
 10
-53.7710509309
 20
45.8700040974
 30
0.0
 40
0.15
210
0.0
220
0.0
230
1.0
100
AcDbArc
 50
180.0000030705
 51
269.9999984648
  0
ARC
  5
2DD
100
AcDbEntity
  8
LAYER0
 62
         5
100
AcDbCircle
 10
-54.5710509309
 20
45.8700040974
 30
0.0
 40
0.15
210
-0.0
220
0.0
230
1.0
100
AcDbArc
 50
269.9999984648
 51
0.0
  0
ENDBLK
  5
2DE
100
AcDbEntity
  8
0
100
AcDbBlockEnd
  0
BLOCK
  5
2E2
100
AcDbEntity
  8
0
100
AcDbBlockBegin
  2
CLUMP22
 70
         0
 10
0.0
 20
0.0
 30
0.0
  3

  1

  0
INSERT
  5
2E4
100
AcDbEntity
  8
0
100
AcDbBlockReference
  2
CLUMP23
 10
0.0
 20
0.0
 30
0.0
  0
ENDBLK
  5
2F7
100
AcDbEntity
  8
0
100
AcDbBlockEnd
  0
BLOCK
  5
2E5
100
AcDbEntity
  8
0
100
AcDbBlockBegin
  2
CLUMP23
 70
         0
 10
0.0
 20
0.0
 30
0.0
  3

  1

  0
LINE
  5
2E6
100
AcDbEntity
  8
LAYER0
 62
         5
100
AcDbLine
 10
-53.9210509309
 20
14.2200040974
 30
0.0
 11
-54.4210509309
 21
14.2200040974
 31
0.0
  0
LINE
  5
2E7
100
AcDbEntity
  8
LAYER0
 62
         5
100
AcDbLine
 10
-53.9210509309
 20
16.7200040974
 30
0.0
 11
-54.4210509309
 21
16.7200040974
 31
0.0
  0
LINE
  5
2E8
100
AcDbEntity
  8
LAYER0
 62
         5
100
AcDbLine
 10
-55.4210509309
 20
15.7200040974
 30
0.0
 11
-55.4210509309
 21
15.2200040974
 31
0.0
  0
LINE
  5
2E9
100
AcDbEntity
  8
LAYER0
 62
         5
100
AcDbLine
 10
-52.9210509309
 20
15.7200040974
 30
0.0
 11
-52.9210509309
 21
15.2200040974
 31
0.0
  0
LINE
  5
2EA
100
AcDbEntity
  8
LAYER0
 62
         5
100
AcDbLine
 10
-52.9210509309
 20
15.7200040974
 30
0.0
 11
-53.7710509309
 21
15.7200040974
 31
0.0
  0
LINE
  5
2EB
100
AcDbEntity
  8
LAYER0
 62
         5
100
AcDbLine
 10
-54.5710509309
 20
15.7200040974
 30
0.0
 11
-55.4210509309
 21
15.7200040974
 31
0.0
  0
LINE
  5
2EC
100
AcDbEntity
  8
LAYER0
 62
         5
100
AcDbLine
 10
-55.4210509309
 20
15.2200040974
 30
0.0
 11
-54.5710509309
 21
15.2200040974
 31
0.0
  0
LINE
  5
2ED
100
AcDbEntity
  8
LAYER0
 62
         5
100
AcDbLine
 10
-53.7710509309
 20
15.2200040974
 30
0.0
 11
-52.9210509309
 21
15.2200040974
 31
0.0
  0
LINE
  5
2EE
100
AcDbEntity
  8
LAYER0
 62
         5
100
AcDbLine
 10
-53.9210509309
 20
16.7200040974
 30
0.0
 11
-53.9210509309
 21
15.8700040974
 31
0.0
  0
LINE
  5
2EF
100
AcDbEntity
  8
LAYER0
 62
         5
100
AcDbLine
 10
-53.9210509309
 20
15.0700040974
 30
0.0
 11
-53.9210509309
 21
14.2200040974
 31
0.0
  0
LINE
  5
2F0
100
AcDbEntity
  8
LAYER0
 62
         5
100
AcDbLine
 10
-54.4210509309
 20
14.2200040974
 30
0.0
 11
-54.4210509309
 21
15.0700040974
 31
0.0
  0
LINE
  5
2F1
100
AcDbEntity
  8
LAYER0
 62
         5
100
AcDbLine
 10
-54.4210509309
 20
15.8700040974
 30
0.0
 11
-54.4210509309
 21
16.7200040974
 31
0.0
  0
ARC
  5
2F2
100
AcDbEntity
  8
LAYER0
 62
         5
100
AcDbCircle
 10
-54.5710509309
 20
15.0700040974
 30
0.0
 40
0.15
210
0.0
220
-0.0
230
1.0
100
AcDbArc
 50
0.0
 51
90.0000015352
  0
ARC
  5
2F3
100
AcDbEntity
  8
LAYER0
 62
         5
100
AcDbCircle
 10
-53.7710509309
 20
15.0700040974
 30
0.0
 40
0.15
210
0.0
220
0.0
230
1.0
100
AcDbArc
 50
90.0000015352
 51
180.0000030705
  0
ARC
  5
2F4
100
AcDbEntity
  8
LAYER0
 62
         5
100
AcDbCircle
 10
-53.7710509309
 20
15.8700040974
 30
0.0
 40
0.15
210
0.0
220
0.0
230
1.0
100
AcDbArc
 50
180.0000030705
 51
269.9999984648
  0
ARC
  5
2F5
100
AcDbEntity
  8
LAYER0
 62
         5
100
AcDbCircle
 10
-54.5710509309
 20
15.8700040974
 30
0.0
 40
0.15
210
-0.0
220
0.0
230
1.0
100
AcDbArc
 50
269.9999984648
 51
0.0
  0
ENDBLK
  5
2F6
100
AcDbEntity
  8
0
100
AcDbBlockEnd
  0
BLOCK
  5
378
100
AcDbEntity
  8
0
100
AcDbBlockBegin
  2
CLUMP24
 70
         0
 10
0.0
 20
0.0
 30
0.0
  3

  1

  0
INSERT
  5
37A
100
AcDbEntity
  8
0
100
AcDbBlockReference
  2
CLUMP25
 10
0.0
 20
0.0
 30
0.0
  0
ENDBLK
  5
38A
100
AcDbEntity
  8
0
100
AcDbBlockEnd
  0
BLOCK
  5
37B
100
AcDbEntity
  8
0
100
AcDbBlockBegin
  2
CLUMP25
 70
         0
 10
0.0
 20
0.0
 30
0.0
  3

  1

  0
LINE
  5
37C
100
AcDbEntity
  8
LAYER0
 62
         5
100
AcDbLine
 10
-3.9210507074
 20
-61.6143754741
 30
0.0
 11
-3.9210507074
 21
-58.3143754741
 31
0.0
  0
LINE
  5
37D
100
AcDbEntity
  8
LAYER0
 62
         5
100
AcDbLine
 10
-3.9210507074
 20
-61.6143754741
 30
0.0
 11
-3.3218729865
 21
-61.5829739004
 31
0.0
  0
LINE
  5
37E
100
AcDbEntity
  8
LAYER0
 62
         5
100
AcDbLine
 10
-3.9210507074
 20
-58.3143754741
 30
0.0
 11
-3.3218729865
 21
-58.3457770479
 31
0.0
  0
ARC
  5
37F
100
AcDbEntity
  8
LAYER0
 62
         5
100
AcDbCircle
 10
-3.3445031327
 20
-61.1511649887
 30
0.0
 40
0.4324015029
210
0.0
220
0.0
230
1.0
100
AcDbArc
 50
272.9999985159
 51
345.1140872246
  0
ARC
  5
380
100
AcDbEntity
  8
LAYER0
 62
         5
100
AcDbCircle
 10
-3.3445031327
 20
-58.7775859596
 30
0.0
 40
0.4324015029
210
0.0
220
0.0
230
1.0
100
AcDbArc
 50
14.8859127754
 51
87.0000014841
  0
ARC
  5
381
100
AcDbEntity
  8
LAYER0
 62
         5
100
AcDbCircle
 10
-6.9210507074
 20
-59.9643754741
 30
0.0
 40
4.2
210
-0.0
220
0.0
230
1.0
100
AcDbArc
 50
341.999999693
 51
18.000000307
  0
LINE
  5
382
100
AcDbEntity
  8
LAYER0
 62
         5
100
AcDbLine
 10
-2.7210507074
 20
-59.9643754741
 30
0.0
 11
-3.9210507074
 21
-59.9643754741
 31
0.0
  0
LINE
  5
383
100
AcDbEntity
  8
LAYER0
 62
         5
100
AcDbLine
 10
-3.9210507074
 20
-60.8393754741
 30
0.0
 11
-9.5460507074
 21
-60.8393754741
 31
0.0
  0
LINE
  5
384
100
AcDbEntity
  8
LAYER0
 62
         5
100
AcDbLine
 10
-9.5460507074
 20
-59.0893754741
 30
0.0
 11
-3.9210507074
 21
-59.0893754741
 31
0.0
  0
LINE
  5
385
100
AcDbEntity
  8
LAYER0
 62
         5
100
AcDbLine
 10
-10.4210507074
 20
-59.9643754741
 30
0.0
 11
-7.9210507074
 21
-59.9643754741
 31
0.0
  0
LINE
  5
386
100
AcDbEntity
  8
LAYER0
 62
         5
100
AcDbLine
 10
-10.4210507074
 20
-59.9643754741
 30
0.0
 11
-9.5460507074
 21
-60.8393754741
 31
0.0
  0
LINE
  5
387
100
AcDbEntity
  8
LAYER0
 62
         5
100
AcDbLine
 10
-10.4210507074
 20
-59.9643754741
 30
0.0
 11
-9.5460507074
 21
-59.0893754741
 31
0.0
  0
LINE
  5
388
100
AcDbEntity
  8
LAYER0
 62
         5
100
AcDbLine
 10
-7.9210507074
 20
-59.9643754741
 30
0.0
 11
-7.9210507074
 21
-59.0893754741
 31
0.0
  0
ENDBLK
  5
389
100
AcDbEntity
  8
0
100
AcDbBlockEnd
  0
BLOCK
  5
3C1
100
AcDbEntity
  8
0
100
AcDbBlockBegin
  2
CLUMP26
 70
         0
 10
0.0
 20
0.0
 30
0.0
  3

  1

  0
INSERT
  5
3C3
100
AcDbEntity
  8
0
100
AcDbBlockReference
  2
CLUMP27
 10
0.0
 20
0.0
 30
0.0
  0
ENDBLK
  5
3D6
100
AcDbEntity
  8
0
100
AcDbBlockEnd
  0
BLOCK
  5
3C4
100
AcDbEntity
  8
0
100
AcDbBlockBegin
  2
CLUMP27
 70
         0
 10
0.0
 20
0.0
 30
0.0
  3

  1

  0
LINE
  5
3C5
100
AcDbEntity
  8
LAYER0
 62
         5
100
AcDbLine
 10
-53.9210509309
 20
-61.2143754741
 30
0.0
 11
-54.4210509309
 21
-61.2143754741
 31
0.0
  0
LINE
  5
3C6
100
AcDbEntity
  8
LAYER0
 62
         5
100
AcDbLine
 10
-53.9210509309
 20
-58.7143754741
 30
0.0
 11
-54.4210509309
 21
-58.7143754741
 31
0.0
  0
LINE
  5
3C7
100
AcDbEntity
  8
LAYER0
 62
         5
100
AcDbLine
 10
-55.4210509309
 20
-59.7143754741
 30
0.0
 11
-55.4210509309
 21
-60.2143754741
 31
0.0
  0
LINE
  5
3C8
100
AcDbEntity
  8
LAYER0
 62
         5
100
AcDbLine
 10
-52.9210509309
 20
-59.7143754741
 30
0.0
 11
-52.9210509309
 21
-60.2143754741
 31
0.0
  0
LINE
  5
3C9
100
AcDbEntity
  8
LAYER0
 62
         5
100
AcDbLine
 10
-52.9210509309
 20
-59.7143754741
 30
0.0
 11
-53.7710509309
 21
-59.7143754741
 31
0.0
  0
LINE
  5
3CA
100
AcDbEntity
  8
LAYER0
 62
         5
100
AcDbLine
 10
-54.5710509309
 20
-59.7143754741
 30
0.0
 11
-55.4210509309
 21
-59.7143754741
 31
0.0
  0
LINE
  5
3CB
100
AcDbEntity
  8
LAYER0
 62
         5
100
AcDbLine
 10
-55.4210509309
 20
-60.2143754741
 30
0.0
 11
-54.5710509309
 21
-60.2143754741
 31
0.0
  0
LINE
  5
3CC
100
AcDbEntity
  8
LAYER0
 62
         5
100
AcDbLine
 10
-53.7710509309
 20
-60.2143754741
 30
0.0
 11
-52.9210509309
 21
-60.2143754741
 31
0.0
  0
LINE
  5
3CD
100
AcDbEntity
  8
LAYER0
 62
         5
100
AcDbLine
 10
-53.9210509309
 20
-58.7143754741
 30
0.0
 11
-53.9210509309
 21
-59.5643754741
 31
0.0
  0
LINE
  5
3CE
100
AcDbEntity
  8
LAYER0
 62
         5
100
AcDbLine
 10
-53.9210509309
 20
-60.3643754741
 30
0.0
 11
-53.9210509309
 21
-61.2143754741
 31
0.0
  0
LINE
  5
3CF
100
AcDbEntity
  8
LAYER0
 62
         5
100
AcDbLine
 10
-54.4210509309
 20
-61.2143754741
 30
0.0
 11
-54.4210509309
 21
-60.3643754741
 31
0.0
  0
LINE
  5
3D0
100
AcDbEntity
  8
LAYER0
 62
         5
100
AcDbLine
 10
-54.4210509309
 20
-59.5643754741
 30
0.0
 11
-54.4210509309
 21
-58.7143754741
 31
0.0
  0
ARC
  5
3D1
100
AcDbEntity
  8
LAYER0
 62
         5
100
AcDbCircle
 10
-54.5710509309
 20
-60.3643754741
 30
0.0
 40
0.15
210
0.0
220
-0.0
230
1.0
100
AcDbArc
 50
0.0
 51
90.0000015352
  0
ARC
  5
3D2
100
AcDbEntity
  8
LAYER0
 62
         5
100
AcDbCircle
 10
-53.7710509309
 20
-60.3643754741
 30
0.0
 40
0.15
210
0.0
220
0.0
230
1.0
100
AcDbArc
 50
90.0000015352
 51
180.0000030705
  0
ARC
  5
3D3
100
AcDbEntity
  8
LAYER0
 62
         5
100
AcDbCircle
 10
-53.7710509309
 20
-59.5643754741
 30
0.0
 40
0.15
210
0.0
220
0.0
230
1.0
100
AcDbArc
 50
180.0000030705
 51
269.9999984648
  0
ARC
  5
3D4
100
AcDbEntity
  8
LAYER0
 62
         5
100
AcDbCircle
 10
-54.5710509309
 20
-59.5643754741
 30
0.0
 40
0.15
210
-0.0
220
0.0
230
1.0
100
AcDbArc
 50
269.9999984648
 51
0.0
  0
ENDBLK
  5
3D5
100
AcDbEntity
  8
0
100
AcDbBlockEnd
  0
BLOCK
  5
3D9
100
AcDbEntity
  8
0
100
AcDbBlockBegin
  2
CLUMP28
 70
         0
 10
0.0
 20
0.0
 30
0.0
  3

  1

  0
INSERT
  5
3DB
100
AcDbEntity
  8
0
100
AcDbBlockReference
  2
CLUMP29
 10
0.0
 20
0.0
 30
0.0
  0
ENDBLK
  5
3E3
100
AcDbEntity
  8
0
100
AcDbBlockEnd
  0
BLOCK
  5
3DC
100
AcDbEntity
  8
0
100
AcDbBlockBegin
  2
CLUMP29
 70
         0
 10
0.0
 20
0.0
 30
0.0
  3

  1

  0
MTEXT
  5
3DD
100
AcDbEntity
  8
LAYER0
100
AcDbMText
 10
-61.6635103926
 20
-11.8899582459
 30
0.0
 40
3.2210527062
 41
15.3878769447
 71
         1
 72
         1
  1
\W0.8;片開き時
  0
LINE
  5
3DE
100
AcDbEntity
  8
LAYER0
100
AcDbLine
 10
-62.1135103926
 20
-16.5214465461
 30
0.0
 11
-46.8135103926
 21
-16.5214465461
 31
0.0
  0
LINE
  5
3DF
100
AcDbEntity
  8
LAYER0
100
AcDbLine
 10
-46.8135103926
 20
-16.5214465461
 30
0.0
 11
-46.8135103926
 21
-11.1214465461
 31
0.0
  0
LINE
  5
3E0
100
AcDbEntity
  8
LAYER0
100
AcDbLine
 10
-62.1135103926
 20
-11.1214465461
 30
0.0
 11
-46.8135103926
 21
-11.1214465461
 31
0.0
  0
LINE
  5
3E1
100
AcDbEntity
  8
LAYER0
100
AcDbLine
 10
-62.1135103926
 20
-16.5214465461
 30
0.0
 11
-62.1135103926
 21
-11.1214465461
 31
0.0
  0
ENDBLK
  5
3E2
100
AcDbEntity
  8
0
100
AcDbBlockEnd
  0
BLOCK
  5
42D
100
AcDbEntity
  8
0
100
AcDbBlockBegin
  2
CLUMP30
 70
         0
 10
0.0
 20
0.0
 30
0.0
  3

  1

  0
INSERT
  5
42F
100
AcDbEntity
  8
0
100
AcDbBlockReference
  2
CLUMP31
 10
0.0
 20
0.0
 30
0.0
  0
ENDBLK
  5
43F
100
AcDbEntity
  8
0
100
AcDbBlockEnd
  0
BLOCK
  5
430
100
AcDbEntity
  8
0
100
AcDbBlockBegin
  2
CLUMP31
 70
         0
 10
0.0
 20
0.0
 30
0.0
  3

  1

  0
LINE
  5
431
100
AcDbEntity
  8
LAYER0
 62
         5
100
AcDbLine
 10
-3.9210507074
 20
-91.6143754741
 30
0.0
 11
-3.9210507074
 21
-88.3143754741
 31
0.0
  0
LINE
  5
432
100
AcDbEntity
  8
LAYER0
 62
         5
100
AcDbLine
 10
-3.9210507074
 20
-91.6143754741
 30
0.0
 11
-3.3218729865
 21
-91.5829739004
 31
0.0
  0
LINE
  5
433
100
AcDbEntity
  8
LAYER0
 62
         5
100
AcDbLine
 10
-3.9210507074
 20
-88.3143754741
 30
0.0
 11
-3.3218729865
 21
-88.3457770479
 31
0.0
  0
ARC
  5
434
100
AcDbEntity
  8
LAYER0
 62
         5
100
AcDbCircle
 10
-3.3445031327
 20
-91.1511649887
 30
0.0
 40
0.4324015029
210
0.0
220
0.0
230
1.0
100
AcDbArc
 50
272.9999985159
 51
345.1140872246
  0
ARC
  5
435
100
AcDbEntity
  8
LAYER0
 62
         5
100
AcDbCircle
 10
-3.3445031327
 20
-88.7775859596
 30
0.0
 40
0.4324015029
210
0.0
220
0.0
230
1.0
100
AcDbArc
 50
14.8859127754
 51
87.0000014841
  0
ARC
  5
436
100
AcDbEntity
  8
LAYER0
 62
         5
100
AcDbCircle
 10
-6.9210507074
 20
-89.9643754741
 30
0.0
 40
4.2
210
-0.0
220
0.0
230
1.0
100
AcDbArc
 50
341.999999693
 51
18.000000307
  0
LINE
  5
437
100
AcDbEntity
  8
LAYER0
 62
         5
100
AcDbLine
 10
-2.7210507074
 20
-89.9643754741
 30
0.0
 11
-3.9210507074
 21
-89.9643754741
 31
0.0
  0
LINE
  5
438
100
AcDbEntity
  8
LAYER0
 62
         5
100
AcDbLine
 10
-3.9210507074
 20
-90.8393754741
 30
0.0
 11
-9.5460507074
 21
-90.8393754741
 31
0.0
  0
LINE
  5
439
100
AcDbEntity
  8
LAYER0
 62
         5
100
AcDbLine
 10
-9.5460507074
 20
-89.0893754741
 30
0.0
 11
-3.9210507074
 21
-89.0893754741
 31
0.0
  0
LINE
  5
43A
100
AcDbEntity
  8
LAYER0
 62
         5
100
AcDbLine
 10
-10.4210507074
 20
-89.9643754741
 30
0.0
 11
-7.9210507074
 21
-89.9643754741
 31
0.0
  0
LINE
  5
43B
100
AcDbEntity
  8
LAYER0
 62
         5
100
AcDbLine
 10
-10.4210507074
 20
-89.9643754741
 30
0.0
 11
-9.5460507074
 21
-90.8393754741
 31
0.0
  0
LINE
  5
43C
100
AcDbEntity
  8
LAYER0
 62
         5
100
AcDbLine
 10
-10.4210507074
 20
-89.9643754741
 30
0.0
 11
-9.5460507074
 21
-89.0893754741
 31
0.0
  0
LINE
  5
43D
100
AcDbEntity
  8
LAYER0
 62
         5
100
AcDbLine
 10
-7.9210507074
 20
-89.9643754741
 30
0.0
 11
-7.9210507074
 21
-89.0893754741
 31
0.0
  0
ENDBLK
  5
43E
100
AcDbEntity
  8
0
100
AcDbBlockEnd
  0
BLOCK
  5
472
100
AcDbEntity
  8
0
100
AcDbBlockBegin
  2
CLUMP32
 70
         0
 10
0.0
 20
0.0
 30
0.0
  3

  1

  0
INSERT
  5
474
100
AcDbEntity
  8
0
100
AcDbBlockReference
  2
CLUMP33
 10
0.0
 20
0.0
 30
0.0
  0
ENDBLK
  5
487
100
AcDbEntity
  8
0
100
AcDbBlockEnd
  0
BLOCK
  5
475
100
AcDbEntity
  8
0
100
AcDbBlockBegin
  2
CLUMP33
 70
         0
 10
0.0
 20
0.0
 30
0.0
  3

  1

  0
LINE
  5
476
100
AcDbEntity
  8
LAYER0
 62
         5
100
AcDbLine
 10
-53.9210509309
 20
-91.2143754741
 30
0.0
 11
-54.4210509309
 21
-91.2143754741
 31
0.0
  0
LINE
  5
477
100
AcDbEntity
  8
LAYER0
 62
         5
100
AcDbLine
 10
-53.9210509309
 20
-88.7143754741
 30
0.0
 11
-54.4210509309
 21
-88.7143754741
 31
0.0
  0
LINE
  5
478
100
AcDbEntity
  8
LAYER0
 62
         5
100
AcDbLine
 10
-55.4210509309
 20
-89.7143754741
 30
0.0
 11
-55.4210509309
 21
-90.2143754741
 31
0.0
  0
LINE
  5
479
100
AcDbEntity
  8
LAYER0
 62
         5
100
AcDbLine
 10
-52.9210509309
 20
-89.7143754741
 30
0.0
 11
-52.9210509309
 21
-90.2143754741
 31
0.0
  0
LINE
  5
47A
100
AcDbEntity
  8
LAYER0
 62
         5
100
AcDbLine
 10
-52.9210509309
 20
-89.7143754741
 30
0.0
 11
-53.7710509309
 21
-89.7143754741
 31
0.0
  0
LINE
  5
47B
100
AcDbEntity
  8
LAYER0
 62
         5
100
AcDbLine
 10
-54.5710509309
 20
-89.7143754741
 30
0.0
 11
-55.4210509309
 21
-89.7143754741
 31
0.0
  0
LINE
  5
47C
100
AcDbEntity
  8
LAYER0
 62
         5
100
AcDbLine
 10
-55.4210509309
 20
-90.2143754741
 30
0.0
 11
-54.5710509309
 21
-90.2143754741
 31
0.0
  0
LINE
  5
47D
100
AcDbEntity
  8
LAYER0
 62
         5
100
AcDbLine
 10
-53.7710509309
 20
-90.2143754741
 30
0.0
 11
-52.9210509309
 21
-90.2143754741
 31
0.0
  0
LINE
  5
47E
100
AcDbEntity
  8
LAYER0
 62
         5
100
AcDbLine
 10
-53.9210509309
 20
-88.7143754741
 30
0.0
 11
-53.9210509309
 21
-89.5643754741
 31
0.0
  0
LINE
  5
47F
100
AcDbEntity
  8
LAYER0
 62
         5
100
AcDbLine
 10
-53.9210509309
 20
-90.3643754741
 30
0.0
 11
-53.9210509309
 21
-91.2143754741
 31
0.0
  0
LINE
  5
480
100
AcDbEntity
  8
LAYER0
 62
         5
100
AcDbLine
 10
-54.4210509309
 20
-91.2143754741
 30
0.0
 11
-54.4210509309
 21
-90.3643754741
 31
0.0
  0
LINE
  5
481
100
AcDbEntity
  8
LAYER0
 62
         5
100
AcDbLine
 10
-54.4210509309
 20
-89.5643754741
 30
0.0
 11
-54.4210509309
 21
-88.7143754741
 31
0.0
  0
ARC
  5
482
100
AcDbEntity
  8
LAYER0
 62
         5
100
AcDbCircle
 10
-54.5710509309
 20
-90.3643754741
 30
0.0
 40
0.15
210
0.0
220
-0.0
230
1.0
100
AcDbArc
 50
0.0
 51
90.0000015352
  0
ARC
  5
483
100
AcDbEntity
  8
LAYER0
 62
         5
100
AcDbCircle
 10
-53.7710509309
 20
-90.3643754741
 30
0.0
 40
0.15
210
0.0
220
0.0
230
1.0
100
AcDbArc
 50
90.0000015352
 51
180.0000030705
  0
ARC
  5
484
100
AcDbEntity
  8
LAYER0
 62
         5
100
AcDbCircle
 10
-53.7710509309
 20
-89.5643754741
 30
0.0
 40
0.15
210
0.0
220
0.0
230
1.0
100
AcDbArc
 50
180.0000030705
 51
269.9999984648
  0
ARC
  5
485
100
AcDbEntity
  8
LAYER0
 62
         5
100
AcDbCircle
 10
-54.5710509309
 20
-89.5643754741
 30
0.0
 40
0.15
210
-0.0
220
0.0
230
1.0
100
AcDbArc
 50
269.9999984648
 51
0.0
  0
ENDBLK
  5
486
100
AcDbEntity
  8
0
100
AcDbBlockEnd
  0
BLOCK
  5
53C
100
AcDbEntity
  8
0
100
AcDbBlockBegin
  2
CLUMP34
 70
         0
 10
0.0
 20
0.0
 30
0.0
  3

  1

  0
INSERT
  5
53E
100
AcDbEntity
  8
0
100
AcDbBlockReference
  2
CLUMP35
 10
0.0
 20
0.0
 30
0.0
  0
ENDBLK
  5
54E
100
AcDbEntity
  8
0
100
AcDbBlockEnd
  0
BLOCK
  5
53F
100
AcDbEntity
  8
0
100
AcDbBlockBegin
  2
CLUMP35
 70
         0
 10
0.0
 20
0.0
 30
0.0
  3

  1

  0
LINE
  5
540
100
AcDbEntity
  8
LAYER0
 62
         5
100
AcDbLine
 10
1.5789493597
 20
17.0700040974
 30
0.0
 11
1.5789493597
 21
20.3700040974
 31
0.0
  0
LINE
  5
541
100
AcDbEntity
  8
LAYER0
 62
         5
100
AcDbLine
 10
1.5789493597
 20
17.0700040974
 30
0.0
 11
0.9797716388
 21
17.1014056711
 31
0.0
  0
LINE
  5
542
100
AcDbEntity
  8
LAYER0
 62
         5
100
AcDbLine
 10
1.5789493597
 20
20.3700040974
 30
0.0
 11
0.9797716388
 21
20.3386025236
 31
0.0
  0
ARC
  5
543
100
AcDbEntity
  8
LAYER0
 62
         5
100
AcDbCircle
 10
1.002401785
 20
17.5332145828
 30
0.0
 40
0.4324015029
210
0.0
220
0.0
230
1.0
100
AcDbArc
 50
194.885909705
 51
266.9999984136
  0
ARC
  5
544
100
AcDbEntity
  8
LAYER0
 62
         5
100
AcDbCircle
 10
1.002401785
 20
19.9067936119
 30
0.0
 40
0.4324015029
210
0.0
220
0.0
230
1.0
100
AcDbArc
 50
93.0000015864
 51
165.114090295
  0
ARC
  5
545
100
AcDbEntity
  8
LAYER0
 62
         5
100
AcDbCircle
 10
4.5789493597
 20
18.7200040974
 30
0.0
 40
4.2
210
0.0
220
0.0
230
1.0
100
AcDbArc
 50
162.0000027634
 51
197.9999972366
  0
LINE
  5
546
100
AcDbEntity
  8
LAYER0
 62
         5
100
AcDbLine
 10
0.3789493597
 20
18.7200040974
 30
0.0
 11
0.9789493597
 21
18.7200040974
 31
0.0
  0
LINE
  5
547
100
AcDbEntity
  8
LAYER0
 62
         5
100
AcDbLine
 10
1.5789493597
 20
17.8450040974
 30
0.0
 11
7.2039493597
 21
17.8450040974
 31
0.0
  0
LINE
  5
548
100
AcDbEntity
  8
LAYER0
 62
         5
100
AcDbLine
 10
7.2039493597
 20
19.5950040974
 30
0.0
 11
1.5789493597
 21
19.5950040974
 31
0.0
  0
LINE
  5
549
100
AcDbEntity
  8
LAYER0
 62
         5
100
AcDbLine
 10
8.0789493597
 20
18.7200040974
 30
0.0
 11
5.5789493597
 21
18.7200040974
 31
0.0
  0
LINE
  5
54A
100
AcDbEntity
  8
LAYER0
 62
         5
100
AcDbLine
 10
8.0789493597
 20
18.7200040974
 30
0.0
 11
7.2039493597
 21
17.8450040974
 31
0.0
  0
LINE
  5
54B
100
AcDbEntity
  8
LAYER0
 62
         5
100
AcDbLine
 10
8.0789493597
 20
18.7200040974
 30
0.0
 11
7.2039493597
 21
19.5950040974
 31
0.0
  0
LINE
  5
54C
100
AcDbEntity
  8
LAYER0
 62
         5
100
AcDbLine
 10
5.5789493597
 20
18.7200040974
 30
0.0
 11
5.5789493597
 21
19.5950040974
 31
0.0
  0
ENDBLK
  5
54D
100
AcDbEntity
  8
0
100
AcDbBlockEnd
  0
BLOCK
  5
551
100
AcDbEntity
  8
0
100
AcDbBlockBegin
  2
CLUMP36
 70
         0
 10
0.0
 20
0.0
 30
0.0
  3

  1

  0
INSERT
  5
553
100
AcDbEntity
  8
0
100
AcDbBlockReference
  2
CLUMP37
 10
0.0
 20
0.0
 30
0.0
  0
ENDBLK
  5
563
100
AcDbEntity
  8
0
100
AcDbBlockEnd
  0
BLOCK
  5
554
100
AcDbEntity
  8
0
100
AcDbBlockBegin
  2
CLUMP37
 70
         0
 10
0.0
 20
0.0
 30
0.0
  3

  1

  0
LINE
  5
555
100
AcDbEntity
  8
LAYER0
 62
         5
100
AcDbLine
 10
1.5789493597
 20
10.5700040974
 30
0.0
 11
1.5789493597
 21
13.8700040974
 31
0.0
  0
LINE
  5
556
100
AcDbEntity
  8
LAYER0
 62
         5
100
AcDbLine
 10
1.5789493597
 20
10.5700040974
 30
0.0
 11
0.9797716388
 21
10.6014056711
 31
0.0
  0
LINE
  5
557
100
AcDbEntity
  8
LAYER0
 62
         5
100
AcDbLine
 10
1.5789493597
 20
13.8700040974
 30
0.0
 11
0.9797716388
 21
13.8386025236
 31
0.0
  0
ARC
  5
558
100
AcDbEntity
  8
LAYER0
 62
         5
100
AcDbCircle
 10
1.002401785
 20
11.0332145828
 30
0.0
 40
0.4324015029
210
0.0
220
0.0
230
1.0
100
AcDbArc
 50
194.885909705
 51
266.9999984136
  0
ARC
  5
559
100
AcDbEntity
  8
LAYER0
 62
         5
100
AcDbCircle
 10
1.002401785
 20
13.4067936119
 30
0.0
 40
0.4324015029
210
0.0
220
0.0
230
1.0
100
AcDbArc
 50
93.0000015864
 51
165.114090295
  0
ARC
  5
55A
100
AcDbEntity
  8
LAYER0
 62
         5
100
AcDbCircle
 10
4.5789493597
 20
12.2200040974
 30
0.0
 40
4.2
210
0.0
220
0.0
230
1.0
100
AcDbArc
 50
162.0000027634
 51
197.9999972366
  0
LINE
  5
55B
100
AcDbEntity
  8
LAYER0
 62
         5
100
AcDbLine
 10
0.3789493597
 20
12.2200040974
 30
0.0
 11
0.9789493597
 21
12.2200040974
 31
0.0
  0
LINE
  5
55C
100
AcDbEntity
  8
LAYER0
 62
         5
100
AcDbLine
 10
1.5789493597
 20
11.3450040974
 30
0.0
 11
7.2039493597
 21
11.3450040974
 31
0.0
  0
LINE
  5
55D
100
AcDbEntity
  8
LAYER0
 62
         5
100
AcDbLine
 10
7.2039493597
 20
13.0950040974
 30
0.0
 11
1.5789493597
 21
13.0950040974
 31
0.0
  0
LINE
  5
55E
100
AcDbEntity
  8
LAYER0
 62
         5
100
AcDbLine
 10
8.0789493597
 20
12.2200040974
 30
0.0
 11
5.5789493597
 21
12.2200040974
 31
0.0
  0
LINE
  5
55F
100
AcDbEntity
  8
LAYER0
 62
         5
100
AcDbLine
 10
8.0789493597
 20
12.2200040974
 30
0.0
 11
7.2039493597
 21
11.3450040974
 31
0.0
  0
LINE
  5
560
100
AcDbEntity
  8
LAYER0
 62
         5
100
AcDbLine
 10
8.0789493597
 20
12.2200040974
 30
0.0
 11
7.2039493597
 21
13.0950040974
 31
0.0
  0
LINE
  5
561
100
AcDbEntity
  8
LAYER0
 62
         5
100
AcDbLine
 10
5.5789493597
 20
12.2200040974
 30
0.0
 11
5.5789493597
 21
13.0950040974
 31
0.0
  0
ENDBLK
  5
562
100
AcDbEntity
  8
0
100
AcDbBlockEnd
  0
BLOCK
  5
566
100
AcDbEntity
  8
0
100
AcDbBlockBegin
  2
CLUMP38
 70
         0
 10
0.0
 20
0.0
 30
0.0
  3

  1

  0
INSERT
  5
568
100
AcDbEntity
  8
0
100
AcDbBlockReference
  2
CLUMP39
 10
0.0
 20
0.0
 30
0.0
  0
ENDBLK
  5
578
100
AcDbEntity
  8
0
100
AcDbBlockEnd
  0
BLOCK
  5
569
100
AcDbEntity
  8
0
100
AcDbBlockBegin
  2
CLUMP39
 70
         0
 10
0.0
 20
0.0
 30
0.0
  3

  1

  0
LINE
  5
56A
100
AcDbEntity
  8
LAYER0
 62
         5
100
AcDbLine
 10
1.5789493597
 20
112.1200040974
 30
0.0
 11
1.5789493597
 21
108.8200040974
 31
0.0
  0
LINE
  5
56B
100
AcDbEntity
  8
LAYER0
 62
         5
100
AcDbLine
 10
1.5789493597
 20
112.1200040974
 30
0.0
 11
0.9797716388
 21
112.0886025236
 31
0.0
  0
LINE
  5
56C
100
AcDbEntity
  8
LAYER0
 62
         5
100
AcDbLine
 10
1.5789493597
 20
108.8200040974
 30
0.0
 11
0.9797716388
 21
108.8514056711
 31
0.0
  0
ARC
  5
56D
100
AcDbEntity
  8
LAYER0
 62
         5
100
AcDbCircle
 10
1.002401785
 20
111.6567936119
 30
0.0
 40
0.4324015029
210
0.0
220
0.0
230
1.0
100
AcDbArc
 50
93.0000015864
 51
165.114090295
  0
ARC
  5
56E
100
AcDbEntity
  8
LAYER0
 62
         5
100
AcDbCircle
 10
1.002401785
 20
109.2832145828
 30
0.0
 40
0.4324015029
210
0.0
220
0.0
230
1.0
100
AcDbArc
 50
194.885909705
 51
266.9999984136
  0
ARC
  5
56F
100
AcDbEntity
  8
LAYER0
 62
         5
100
AcDbCircle
 10
4.5789493597
 20
110.4700040974
 30
0.0
 40
4.2
210
0.0
220
0.0
230
1.0
100
AcDbArc
 50
162.0000027634
 51
197.9999972366
  0
LINE
  5
570
100
AcDbEntity
  8
LAYER0
 62
         5
100
AcDbLine
 10
0.3789493597
 20
110.4700040974
 30
0.0
 11
0.9789493597
 21
110.4700040974
 31
0.0
  0
LINE
  5
571
100
AcDbEntity
  8
LAYER0
 62
         5
100
AcDbLine
 10
1.5789493597
 20
111.3450040974
 30
0.0
 11
7.2039493597
 21
111.3450040974
 31
0.0
  0
LINE
  5
572
100
AcDbEntity
  8
LAYER0
 62
         5
100
AcDbLine
 10
7.2039493597
 20
109.5950040974
 30
0.0
 11
1.5789493597
 21
109.5950040974
 31
0.0
  0
LINE
  5
573
100
AcDbEntity
  8
LAYER0
 62
         5
100
AcDbLine
 10
8.0789493597
 20
110.4700040974
 30
0.0
 11
5.5789493597
 21
110.4700040974
 31
0.0
  0
LINE
  5
574
100
AcDbEntity
  8
LAYER0
 62
         5
100
AcDbLine
 10
8.0789493597
 20
110.4700040974
 30
0.0
 11
7.2039493597
 21
111.3450040974
 31
0.0
  0
LINE
  5
575
100
AcDbEntity
  8
LAYER0
 62
         5
100
AcDbLine
 10
8.0789493597
 20
110.4700040974
 30
0.0
 11
7.2039493597
 21
109.5950040974
 31
0.0
  0
LINE
  5
576
100
AcDbEntity
  8
LAYER0
 62
         5
100
AcDbLine
 10
5.5789493597
 20
110.4700040974
 30
0.0
 11
5.5789493597
 21
109.5950040974
 31
0.0
  0
ENDBLK
  5
577
100
AcDbEntity
  8
0
100
AcDbBlockEnd
  0
BLOCK
  5
57B
100
AcDbEntity
  8
0
100
AcDbBlockBegin
  2
CLUMP40
 70
         0
 10
0.0
 20
0.0
 30
0.0
  3

  1

  0
INSERT
  5
57D
100
AcDbEntity
  8
0
100
AcDbBlockReference
  2
CLUMP41
 10
0.0
 20
0.0
 30
0.0
  0
ENDBLK
  5
5F9
100
AcDbEntity
  8
0
100
AcDbBlockEnd
  0
BLOCK
  5
57E
100
AcDbEntity
  8
0
100
AcDbBlockBegin
  2
CLUMP41
 70
         0
 10
0.0
 20
0.0
 30
0.0
  3

  1

  0
LINE
  5
57F
100
AcDbEntity
  8
LAYER0
 62
         6
100
AcDbLine
 10
2.5360561409
 20
104.9574409942
 30
0.0
 11
1.2617920051
 21
103.6831768585
 31
0.0
  0
LINE
  5
580
100
AcDbEntity
  8
LAYER0
 62
         6
100
AcDbLine
 10
4.0789495236
 20
118.4700041346
 30
0.0
 11
2.0749648035
 21
118.4700041346
 31
0.0
  0
LINE
  5
581
100
AcDbEntity
  8
LAYER0
 62
         6
100
AcDbLine
 10
3.0663862267
 20
116.5128972864
 30
0.0
 11
1.792122091
 21
117.7871614221
 31
0.0
  0
LINE
  5
582
100
AcDbEntity
  8
LAYER0
 62
         6
100
AcDbLine
 10
0.5789492926
 20
114.9700039037
 30
0.0
 11
0.5789492926
 21
116.9739886238
 31
0.0
  0
LINE
  5
583
100
AcDbEntity
  8
LAYER0
 62
         6
100
AcDbLine
 10
2.5360561409
 20
115.9825672005
 30
0.0
 11
1.2617920051
 21
117.2568313363
 31
0.0
  0
LINE
  5
584
100
AcDbEntity
  8
LAYER0
 62
         6
100
AcDbLine
 10
8.2789493299
 20
116.2200040676
 30
0.0
 11
3.7734930079
 21
116.2200040676
 31
0.0
  0
LINE
  5
585
100
AcDbEntity
  8
LAYER0
 62
         6
100
AcDbLine
 10
4.0789495236
 20
118.4700041346
 30
0.0
 11
4.0789495236
 21
118.9700045593
 31
0.0
  0
ARC
  5
586
100
AcDbEntity
  8
LAYER0
 62
         6
100
AcDbCircle
 10
3.8289493299
 20
118.9700040974
 30
0.0
 40
0.25
210
0.0
220
-0.0
230
1.0
100
AcDbArc
 50
0.0000030705
 51
90.0000015352
  0
LINE
  5
587
100
AcDbEntity
  8
LAYER0
 62
         6
100
AcDbLine
 10
3.8289494826
 20
119.2200041346
 30
0.0
 11
1.5789492926
 21
119.2200041346
 31
0.0
  0
LINE
  5
588
100
AcDbEntity
  8
LAYER0
 62
         6
100
AcDbLine
 10
3.7734930079
 20
104.7200041272
 30
0.0
 11
8.2789493299
 21
104.7200041272
 31
0.0
  0
LINE
  5
589
100
AcDbEntity
  8
LAYER0
 62
         6
100
AcDbLine
 10
-0.1710507074
 20
117.4700041346
 30
0.0
 11
-0.1710507074
 21
115.2200039446
 31
0.0
  0
ARC
  5
58A
100
AcDbEntity
  8
LAYER0
 62
         6
100
AcDbCircle
 10
0.0789493299
 20
115.2200040974
 30
0.0
 40
0.25
210
0.0
220
0.0
230
1.0
100
AcDbArc
 50
180.0
 51
269.9999984648
  0
LINE
  5
58B
100
AcDbEntity
  8
LAYER0
 62
         6
100
AcDbLine
 10
0.0789488679
 20
114.9700039037
 30
0.0
 11
0.5789492926
 21
114.9700039037
 31
0.0
  0
LINE
  5
58C
100
AcDbEntity
  8
LAYER0
 62
         6
100
AcDbLine
 10
2.8289493597
 20
115.2754604193
 30
0.0
 11
2.8289493597
 21
110.7700040974
 31
0.0
  0
LINE
  5
58D
100
AcDbEntity
  8
LAYER0
 62
         6
100
AcDbLine
 10
2.8289493597
 20
110.7700040974
 30
0.0
 11
3.0789494006
 21
110.4700040974
 31
0.0
  0
LINE
  5
58E
100
AcDbEntity
  8
LAYER0
 62
         6
100
AcDbLine
 10
3.0789494006
 20
110.4700040974
 30
0.0
 11
2.8289493597
 21
110.1700040974
 31
0.0
  0
LINE
  5
58F
100
AcDbEntity
  8
LAYER0
 62
         6
100
AcDbLine
 10
4.0789495236
 20
102.4700040601
 30
0.0
 11
4.0789495236
 21
101.9700036354
 31
0.0
  0
ARC
  5
590
100
AcDbEntity
  8
LAYER0
 62
         6
100
AcDbCircle
 10
3.8289493299
 20
101.9700040974
 30
0.0
 40
0.25
210
-0.0
220
0.0
230
1.0
100
AcDbArc
 50
269.9999984648
 51
0.0000030705
  0
LINE
  5
591
100
AcDbEntity
  8
LAYER0
 62
         6
100
AcDbLine
 10
3.8289494826
 20
101.7200040601
 30
0.0
 11
1.5789492926
 21
101.7200040601
 31
0.0
  0
LINE
  5
592
100
AcDbEntity
  8
LAYER0
 62
         6
100
AcDbLine
 10
-0.1710507074
 20
103.4700040601
 30
0.0
 11
-0.1710507074
 21
105.7200042501
 31
0.0
  0
ARC
  5
593
100
AcDbEntity
  8
LAYER0
 62
         6
100
AcDbCircle
 10
0.0789493299
 20
105.7200040974
 30
0.0
 40
0.25
210
0.0
220
0.0
230
1.0
100
AcDbArc
 50
90.0000015352
 51
180.0
  0
LINE
  5
594
100
AcDbEntity
  8
LAYER0
 62
         6
100
AcDbLine
 10
8.5789493299
 20
115.9700040266
 30
0.0
 11
8.2789493299
 21
116.2200040676
 31
0.0
  0
LINE
  5
595
100
AcDbEntity
  8
LAYER0
 62
         6
100
AcDbLine
 10
13.3844056518
 20
104.7200041272
 30
0.0
 11
8.8789493299
 21
104.7200041272
 31
0.0
  0
LINE
  5
596
100
AcDbEntity
  8
LAYER0
 62
         6
100
AcDbLine
 10
13.5611823471
 20
116.2200040676
 30
0.0
 11
8.8789493299
 21
116.2200040676
 31
0.0
  0
LINE
  5
597
100
AcDbEntity
  8
LAYER0
 62
         6
100
AcDbLine
 10
2.8289493597
 20
105.6645477754
 30
0.0
 11
2.8289493597
 21
110.1700040974
 31
0.0
  0
ARC
  5
598
100
AcDbEntity
  8
LAYER0
 62
         6
100
AcDbCircle
 10
3.7734930079
 20
117.2200040676
 30
0.0
 40
1.0
210
0.0
220
0.0
230
1.0
100
AcDbArc
 50
224.9999961619
 51
269.9999984648
  0
ARC
  5
599
100
AcDbEntity
  8
LAYER0
 62
         6
100
AcDbCircle
 10
1.8289493597
 20
115.2754604193
 30
0.0
 40
1.0
210
0.0
220
0.0
230
1.0
100
AcDbArc
 50
0.0000030705
 51
45.0000053733
  0
ARC
  5
59A
100
AcDbEntity
  8
LAYER0
 62
         6
100
AcDbCircle
 10
1.8289493597
 20
105.6645477754
 30
0.0
 40
1.0
210
-0.0
220
0.0
230
1.0
100
AcDbArc
 50
315.0000007676
 51
0.0000030705
  0
ARC
  5
59B
100
AcDbEntity
  8
LAYER0
 62
         6
100
AcDbCircle
 10
3.7734930079
 20
103.7200041272
 30
0.0
 40
1.0
210
0.0
220
0.0
230
1.0
100
AcDbArc
 50
90.0000015352
 51
134.9999976971
  0
ARC
  5
59C
100
AcDbEntity
  8
LAYER0
 62
         6
100
AcDbCircle
 10
2.0749648035
 20
102.8700040601
 30
0.0
 40
0.4
210
0.0
220
0.0
230
1.0
100
AcDbArc
 50
134.9999976971
 51
269.9999984648
  0
ARC
  5
59D
100
AcDbEntity
  8
LAYER0
 62
         6
100
AcDbCircle
 10
0.9789492926
 20
103.966019571
 30
0.0
 40
0.4
210
0.0
220
0.0
230
1.0
100
AcDbArc
 50
180.0
 51
315.0000007676
  0
ARC
  5
59E
100
AcDbEntity
  8
LAYER0
 62
         6
100
AcDbCircle
 10
2.0749648035
 20
118.0700041346
 30
0.0
 40
0.4
210
0.0
220
0.0
230
1.0
100
AcDbArc
 50
90.0000015352
 51
224.9999961619
  0
ARC
  5
59F
100
AcDbEntity
  8
LAYER0
 62
         6
100
AcDbCircle
 10
0.9789492926
 20
116.9739886238
 30
0.0
 40
0.4
210
0.0
220
-0.0
230
1.0
100
AcDbArc
 50
45.0000053733
 51
180.0
  0
LINE
  5
5A0
100
AcDbEntity
  8
LAYER0
 62
         6
100
AcDbLine
 10
15.0829338563
 20
102.4700040601
 30
0.0
 11
13.0789491362
 21
102.4700040601
 31
0.0
  0
LINE
  5
5A1
100
AcDbEntity
  8
LAYER0
 62
         6
100
AcDbLine
 10
15.0829338563
 20
118.4700041346
 30
0.0
 11
13.0789491362
 21
118.4700041346
 31
0.0
  0
LINE
  5
5A2
100
AcDbEntity
  8
LAYER0
 62
         6
100
AcDbLine
 10
13.0789491362
 20
118.4700041346
 30
0.0
 11
13.0789491362
 21
118.9700045593
 31
0.0
  0
ARC
  5
5A3
100
AcDbEntity
  8
LAYER0
 62
         6
100
AcDbCircle
 10
13.3289493299
 20
118.9700040974
 30
0.0
 40
0.25
210
0.0
220
0.0
230
1.0
100
AcDbArc
 50
90.0000015352
 51
180.0
  0
LINE
  5
5A4
100
AcDbEntity
  8
LAYER0
 62
         6
100
AcDbLine
 10
13.3289491771
 20
119.2200041346
 30
0.0
 11
17.8289493671
 21
119.2200041346
 31
0.0
  0
LINE
  5
5A5
100
AcDbEntity
  8
LAYER0
 62
         6
100
AcDbLine
 10
13.0789491362
 20
102.4700040601
 30
0.0
 11
13.0789491362
 21
101.9700036354
 31
0.0
  0
ARC
  5
5A6
100
AcDbEntity
  8
LAYER0
 62
         6
100
AcDbCircle
 10
13.3289493299
 20
101.9700040974
 30
0.0
 40
0.25
210
0.0
220
0.0
230
1.0
100
AcDbArc
 50
180.0
 51
269.9999984648
  0
LINE
  5
5A7
100
AcDbEntity
  8
LAYER0
 62
         6
100
AcDbLine
 10
13.3289491771
 20
101.7200040601
 30
0.0
 11
15.0789493299
 21
101.7200040601
 31
0.0
  0
LINE
  5
5A8
100
AcDbEntity
  8
LAYER0
 62
         6
100
AcDbLine
 10
23.8289493671
 20
113.2200041346
 30
0.0
 11
23.8289493671
 21
111.2200040974
 31
0.0
  0
POINT
  5
5A9
100
AcDbEntity
  8
LAYER0
 62
         6
100
AcDbPoint
 10
8.5789493299
 20
110.4700040974
 30
0.0
  0
LINE
  5
5AA
100
AcDbEntity
  8
LAYER0
 62
         6
100
AcDbLine
 10
4.0789495236
 20
102.4700040601
 30
0.0
 11
2.0749648035
 21
102.4700040601
 31
0.0
  0
LINE
  5
5AB
100
AcDbEntity
  8
LAYER0
 62
         6
100
AcDbLine
 10
0.5789492926
 20
105.9700042911
 30
0.0
 11
0.5789492926
 21
103.966019571
 31
0.0
  0
LINE
  5
5AC
100
AcDbEntity
  8
LAYER0
 62
         6
100
AcDbLine
 10
3.0663862267
 20
104.4271109084
 30
0.0
 11
1.792122091
 21
103.1528467726
 31
0.0
  0
LINE
  5
5AD
100
AcDbEntity
  8
LAYER0
 62
         6
100
AcDbLine
 10
23.5789493671
 20
110.9700040974
 30
0.0
 11
19.3789493671
 21
110.9700040974
 31
0.0
  0
LINE
  5
5AE
100
AcDbEntity
  8
LAYER0
 62
         6
100
AcDbLine
 10
18.7789493671
 20
110.9700040974
 30
0.0
 11
14.4789492181
 21
110.9700040974
 31
0.0
  0
LINE
  5
5AF
100
AcDbEntity
  8
LAYER0
 62
         6
100
AcDbLine
 10
14.3289492181
 20
105.4574410762
 30
0.0
 11
14.3289492181
 21
110.8200040974
 31
0.0
  0
ARC
  5
5B0
100
AcDbEntity
  8
LAYER0
 62
         6
100
AcDbCircle
 10
15.0829338563
 20
102.8700040601
 30
0.0
 40
0.4
210
-0.0
220
0.0
230
1.0
100
AcDbArc
 50
269.9999984648
 51
45.0000053733
  0
LINE
  5
5B1
100
AcDbEntity
  8
LAYER0
 62
         6
100
AcDbLine
 10
14.091512433
 20
104.4271109084
 30
0.0
 11
15.3657765688
 21
103.1528467726
 31
0.0
  0
LINE
  5
5B2
100
AcDbEntity
  8
LAYER0
 62
         6
100
AcDbLine
 10
13.3289492181
 20
115.7200040676
 30
0.0
 11
10.8289493299
 21
115.7200040676
 31
0.0
  0
LINE
  5
5B3
100
AcDbEntity
  8
LAYER0
 62
         6
100
AcDbLine
 10
14.3289492181
 20
111.6200040974
 30
0.0
 11
14.3289492181
 21
115.8361205091
 31
0.0
  0
LINE
  5
5B4
100
AcDbEntity
  8
LAYER0
 62
         6
100
AcDbLine
 10
17.0789493671
 20
111.4700040974
 30
0.0
 11
14.4789492181
 21
111.4700040974
 31
0.0
  0
LINE
  5
5B5
100
AcDbEntity
  8
LAYER0
 62
         6
100
AcDbLine
 10
17.8289493671
 20
118.7200041346
 30
0.0
 11
16.2289493299
 21
118.7200041346
 31
0.0
  0
LINE
  5
5B6
100
AcDbEntity
  8
LAYER0
 62
         6
100
AcDbLine
 10
23.0789493671
 20
111.4700040974
 30
0.0
 11
21.0789493671
 21
111.4700040974
 31
0.0
  0
LINE
  5
5B7
100
AcDbEntity
  8
LAYER0
 62
         6
100
AcDbLine
 10
23.3289493671
 20
113.2200041346
 30
0.0
 11
23.3289493671
 21
111.7200040974
 31
0.0
  0
LINE
  5
5B8
100
AcDbEntity
  8
LAYER0
 62
         6
100
AcDbLine
 10
13.3289492181
 20
105.2200041272
 30
0.0
 11
10.8289493299
 21
105.2200041272
 31
0.0
  0
LINE
  5
5B9
100
AcDbEntity
  8
LAYER0
 62
         6
100
AcDbLine
 10
3.8289493597
 20
115.7200040676
 30
0.0
 11
6.3289493299
 21
115.7200040676
 31
0.0
  0
LINE
  5
5BA
100
AcDbEntity
  8
LAYER0
 62
         6
100
AcDbLine
 10
3.8289493597
 20
105.2200041272
 30
0.0
 11
6.3289493299
 21
105.2200041272
 31
0.0
  0
LINE
  5
5BB
100
AcDbEntity
  8
LAYER0
 62
         6
100
AcDbLine
 10
3.3289493597
 20
105.7200041272
 30
0.0
 11
3.3289493597
 21
108.2200040974
 31
0.0
  0
LINE
  5
5BC
100
AcDbEntity
  8
LAYER0
 62
         6
100
AcDbLine
 10
3.3289493597
 20
112.7200040974
 30
0.0
 11
3.3289493597
 21
115.2200040676
 31
0.0
  0
ARC
  5
5BD
100
AcDbEntity
  8
LAYER0
 62
         6
100
AcDbCircle
 10
3.8289493597
 20
105.7200041272
 30
0.0
 40
0.5
210
0.0
220
0.0
230
1.0
100
AcDbArc
 50
180.0000015352
 51
269.9999984648
  0
ARC
  5
5BE
100
AcDbEntity
  8
LAYER0
 62
         6
100
AcDbCircle
 10
3.8289493597
 20
115.2200040676
 30
0.0
 40
0.5
210
0.0
220
0.0
230
1.0
100
AcDbArc
 50
90.0000046057
 51
180.0000015352
  0
LINE
  5
5BF
100
AcDbEntity
  8
LAYER0
 62
         6
100
AcDbLine
 10
13.9450658236
 20
116.366450677
 30
0.0
 11
15.3657765688
 21
117.7871614221
 31
0.0
  0
ARC
  5
5C0
100
AcDbEntity
  8
LAYER0
 62
         6
100
AcDbCircle
 10
13.591512433
 20
116.7200040676
 30
0.0
 40
0.5
210
0.0
220
0.0
230
1.0
100
AcDbArc
 50
269.9999953943
 51
314.9999976971
  0
ARC
  5
5C1
100
AcDbEntity
  8
LAYER0
 62
         6
100
AcDbCircle
 10
15.0829338563
 20
118.0700041346
 30
0.0
 40
0.4
210
-0.0
220
-0.0
230
1.0
100
AcDbArc
 50
314.9999976971
 51
90.0000046057
  0
LINE
  5
5C2
100
AcDbEntity
  8
LAYER0
 62
         6
100
AcDbLine
 10
0.0789488679
 20
105.9700042911
 30
0.0
 11
0.5789492926
 21
105.9700042911
 31
0.0
  0
LINE
  5
5C3
100
AcDbEntity
  8
LAYER0
 62
         6
100
AcDbLine
 10
8.2789493299
 20
104.7200041272
 30
0.0
 11
8.5789493299
 21
104.9700041681
 31
0.0
  0
LINE
  5
5C4
100
AcDbEntity
  8
LAYER0
 62
         6
100
AcDbLine
 10
8.5789493299
 20
104.9700041681
 30
0.0
 11
8.8789493299
 21
104.7200041272
 31
0.0
  0
LINE
  5
5C5
100
AcDbEntity
  8
LAYER0
 62
         6
100
AcDbLine
 10
8.8789493299
 20
116.2200040676
 30
0.0
 11
8.5789493299
 21
115.9700040266
 31
0.0
  0
LINE
  5
5C6
100
AcDbEntity
  8
LAYER0
 62
         6
100
AcDbLine
 10
13.8289492181
 20
105.7200041272
 30
0.0
 11
13.8289492181
 21
115.2200040676
 31
0.0
  0
ARC
  5
5C7
100
AcDbEntity
  8
LAYER0
 62
         6
100
AcDbCircle
 10
14.8289492181
 20
115.8361205091
 30
0.0
 40
0.5
210
0.0
220
0.0
230
1.0
100
AcDbArc
 50
135.0
 51
180.0000015352
  0
ARC
  5
5C8
100
AcDbEntity
  8
LAYER0
 62
         6
100
AcDbCircle
 10
14.8289492181
 20
105.4574410762
 30
0.0
 40
0.5
210
0.0
220
0.0
230
1.0
100
AcDbArc
 50
180.0000015352
 51
224.9999969295
  0
ARC
  5
5C9
100
AcDbEntity
  8
LAYER0
 62
         6
100
AcDbCircle
 10
17.8289493671
 20
113.2200041346
 30
0.0
 40
6.0
210
0.0
220
-0.0
230
1.0
100
AcDbArc
 50
0.0000015352
 51
90.0000046057
  0
ARC
  5
5CA
100
AcDbEntity
  8
LAYER0
 62
         6
100
AcDbCircle
 10
17.8289493671
 20
113.2200041346
 30
0.0
 40
5.5
210
0.0
220
-0.0
230
1.0
100
AcDbArc
 50
0.0000015352
 51
90.0000046057
  0
ARC
  5
5CB
100
AcDbEntity
  8
LAYER0
 62
         6
100
AcDbCircle
 10
15.0789493299
 20
102.8700040601
 30
0.0
 40
1.15
210
-0.0
220
0.0
230
1.0
100
AcDbArc
 50
269.9999984648
 51
0.0000015352
  0
LINE
  5
5CC
100
AcDbEntity
  8
LAYER0
 62
         6
100
AcDbLine
 10
16.2289493299
 20
102.8700040601
 30
0.0
 11
16.2289493299
 21
103.0396740115
 31
0.0
  0
ARC
  5
5CD
100
AcDbEntity
  8
LAYER0
 62
         6
100
AcDbCircle
 10
15.4789493299
 20
103.0396740115
 30
0.0
 40
0.75
210
0.0
220
0.0
230
1.0
100
AcDbArc
 50
0.0000015352
 51
45.0000030705
  0
LINE
  5
5CE
100
AcDbEntity
  8
LAYER0
 62
         6
100
AcDbLine
 10
15.9789493299
 20
118.4700041346
 30
0.0
 11
15.9789493299
 21
118.0660196082
 31
0.0
  0
ARC
  5
5CF
100
AcDbEntity
  8
LAYER0
 62
         6
100
AcDbCircle
 10
15.0789493299
 20
118.0660196082
 30
0.0
 40
0.9
210
-0.0
220
0.0
230
1.0
100
AcDbArc
 50
315.0
 51
0.0000015352
  0
ARC
  5
5D0
100
AcDbEntity
  8
LAYER0
 62
         6
100
AcDbCircle
 10
23.0789493671
 20
111.7200040974
 30
0.0
 40
0.25
210
-0.0
220
0.0
230
1.0
100
AcDbArc
 50
269.9999984648
 51
0.0000015352
  0
ARC
  5
5D1
100
AcDbEntity
  8
LAYER0
 62
         6
100
AcDbCircle
 10
16.2289493299
 20
118.4700041346
 30
0.0
 40
0.25
210
0.0
220
0.0
230
1.0
100
AcDbArc
 50
90.0000046057
 51
180.0000015352
  0
ARC
  5
5D2
100
AcDbEntity
  8
LAYER0
 62
         6
100
AcDbCircle
 10
1.5789492926
 20
117.4700041346
 30
0.0
 40
1.75
210
0.0
220
0.0
230
1.0
100
AcDbArc
 50
90.0000046057
 51
180.0000015352
  0
ARC
  5
5D3
100
AcDbEntity
  8
LAYER0
 62
         6
100
AcDbCircle
 10
1.5789492926
 20
103.4700040601
 30
0.0
 40
1.75
210
0.0
220
0.0
230
1.0
100
AcDbArc
 50
180.0000015352
 51
269.9999984648
  0
ARC
  5
5D4
100
AcDbEntity
  8
LAYER0
 62
         6
100
AcDbCircle
 10
14.4789492181
 20
110.8200040974
 30
0.0
 40
0.15
210
0.0
220
0.0
230
1.0
100
AcDbArc
 50
90.0000046057
 51
180.0000015352
  0
ARC
  5
5D5
100
AcDbEntity
  8
LAYER0
 62
         6
100
AcDbCircle
 10
14.4789492181
 20
111.6200040974
 30
0.0
 40
0.15
210
0.0
220
0.0
230
1.0
100
AcDbArc
 50
180.0000015352
 51
269.9999984648
  0
LINE
  5
5D6
100
AcDbEntity
  8
LAYER0
 62
         6
100
AcDbLine
 10
18.0920351616
 20
112.0700040974
 30
0.0
 11
20.0658635726
 21
112.0700040974
 31
0.0
  0
LINE
  5
5D7
100
AcDbEntity
  8
LAYER0
 62
         6
100
AcDbLine
 10
21.0789493671
 20
111.4700040974
 30
0.0
 11
20.5343848583
 21
111.9056557045
 31
0.0
  0
LINE
  5
5D8
100
AcDbEntity
  8
LAYER0
 62
         6
100
AcDbLine
 10
17.623513876
 20
111.9056557045
 30
0.0
 11
17.0789493671
 21
111.4700040974
 31
0.0
  0
ARC
  5
5D9
100
AcDbEntity
  8
LAYER0
 62
         6
100
AcDbCircle
 10
20.0658635726
 20
111.3200040974
 30
0.0
 40
0.75
210
0.0
220
-0.0
230
1.0
100
AcDbArc
 50
51.3401950327
 51
90.0000046057
  0
ARC
  5
5DA
100
AcDbEntity
  8
LAYER0
 62
         6
100
AcDbCircle
 10
18.0920351616
 20
111.3200040974
 30
0.0
 40
0.75
210
0.0
220
0.0
230
1.0
100
AcDbArc
 50
90.0000046057
 51
128.6598080378
  0
LINE
  5
5DB
100
AcDbEntity
  8
LAYER0
 62
         6
100
AcDbLine
 10
14.4753958275
 20
105.1038876856
 30
0.0
 11
16.0092794158
 21
103.5700040974
 31
0.0
  0
ARC
  5
5DC
100
AcDbEntity
  8
LAYER0
 62
         6
100
AcDbCircle
 10
23.5789493671
 20
111.2200040974
 30
0.0
 40
0.25
210
-0.0
220
0.0
230
1.0
100
AcDbArc
 50
269.9999984648
 51
0.0000030705
  0
LINE
  5
5DD
100
AcDbEntity
  8
LAYER0
 62
         6
100
AcDbLine
 10
18.7789493671
 20
110.9700040974
 30
0.0
 11
19.0789493671
 21
111.2200041383
 31
0.0
  0
LINE
  5
5DE
100
AcDbEntity
  8
LAYER0
 62
         6
100
AcDbLine
 10
19.0789493671
 20
111.2200041383
 30
0.0
 11
19.3789493671
 21
110.9700040974
 31
0.0
  0
LINE
  5
5DF
100
AcDbEntity
  8
LAYER0
 62
         6
100
AcDbLine
 10
10.284384821
 20
115.2843524605
 30
0.0
 11
10.8289493299
 21
115.7200040676
 31
0.0
  0
ARC
  5
5E0
100
AcDbEntity
  8
LAYER0
 62
         6
100
AcDbCircle
 10
9.8158635354
 20
115.8700040676
 30
0.0
 40
0.75
210
0.0
220
0.0
230
1.0
100
AcDbArc
 50
269.9999984648
 51
308.6598080378
  0
LINE
  5
5E1
100
AcDbEntity
  8
LAYER0
 62
         6
100
AcDbLine
 10
8.2789493299
 20
115.1200040676
 30
0.0
 11
8.5789493299
 21
115.3700041085
 31
0.0
  0
LINE
  5
5E2
100
AcDbEntity
  8
LAYER0
 62
         6
100
AcDbLine
 10
8.5789493299
 20
115.3700041085
 30
0.0
 11
8.8789493299
 21
115.1200040676
 31
0.0
  0
LINE
  5
5E3
100
AcDbEntity
  8
LAYER0
 62
         6
100
AcDbLine
 10
9.8158635354
 20
115.1200040676
 30
0.0
 11
8.8789493299
 21
115.1200040676
 31
0.0
  0
LINE
  5
5E4
100
AcDbEntity
  8
LAYER0
 62
         6
100
AcDbLine
 10
8.2789493299
 20
115.1200040676
 30
0.0
 11
7.3420351244
 21
115.1200040676
 31
0.0
  0
ARC
  5
5E5
100
AcDbEntity
  8
LAYER0
 62
         6
100
AcDbCircle
 10
7.3420351244
 20
115.8700040676
 30
0.0
 40
0.75
210
0.0
220
0.0
230
1.0
100
AcDbArc
 50
231.3401888917
 51
269.9999984648
  0
LINE
  5
5E6
100
AcDbEntity
  8
LAYER0
 62
         6
100
AcDbLine
 10
6.8735138387
 20
115.2843524605
 30
0.0
 11
6.3289493299
 21
115.7200040676
 31
0.0
  0
LINE
  5
5E7
100
AcDbEntity
  8
LAYER0
 62
         6
100
AcDbLine
 10
3.9289493597
 20
111.7069183029
 30
0.0
 11
3.9289493597
 21
109.2330898919
 31
0.0
  0
LINE
  5
5E8
100
AcDbEntity
  8
LAYER0
 62
         6
100
AcDbLine
 10
3.7646009668
 20
108.7645686062
 30
0.0
 11
3.3289493597
 21
108.2200040974
 31
0.0
  0
LINE
  5
5E9
100
AcDbEntity
  8
LAYER0
 62
         6
100
AcDbLine
 10
3.7646009668
 20
112.1754395885
 30
0.0
 11
3.3289493597
 21
112.7200040974
 31
0.0
  0
ARC
  5
5EA
100
AcDbEntity
  8
LAYER0
 62
         6
100
AcDbCircle
 10
3.1789493597
 20
111.7069183029
 30
0.0
 40
0.75
210
0.0
220
0.0
230
1.0
100
AcDbArc
 50
0.0000015352
 51
38.6598111083
  0
ARC
  5
5EB
100
AcDbEntity
  8
LAYER0
 62
         6
100
AcDbCircle
 10
3.1789493597
 20
109.2330898919
 30
0.0
 40
0.75
210
-0.0
220
0.0
230
1.0
100
AcDbArc
 50
321.3401919622
 51
0.0000015352
  0
LINE
  5
5EC
100
AcDbEntity
  8
LAYER0
 62
         6
100
AcDbLine
 10
10.284384821
 20
105.6556557343
 30
0.0
 11
10.8289493299
 21
105.2200041272
 31
0.0
  0
ARC
  5
5ED
100
AcDbEntity
  8
LAYER0
 62
         6
100
AcDbCircle
 10
9.8158635354
 20
105.0700041272
 30
0.0
 40
0.75
210
0.0
220
-0.0
230
1.0
100
AcDbArc
 50
51.3401950327
 51
90.0000046057
  0
LINE
  5
5EE
100
AcDbEntity
  8
LAYER0
 62
         6
100
AcDbLine
 10
8.2789493299
 20
105.8200041272
 30
0.0
 11
8.5789493299
 21
105.5700040862
 31
0.0
  0
LINE
  5
5EF
100
AcDbEntity
  8
LAYER0
 62
         6
100
AcDbLine
 10
8.5789493299
 20
105.5700040862
 30
0.0
 11
8.8789493299
 21
105.8200041272
 31
0.0
  0
LINE
  5
5F0
100
AcDbEntity
  8
LAYER0
 62
         6
100
AcDbLine
 10
9.8158635354
 20
105.8200041272
 30
0.0
 11
8.8789493299
 21
105.8200041272
 31
0.0
  0
LINE
  5
5F1
100
AcDbEntity
  8
LAYER0
 62
         6
100
AcDbLine
 10
8.2789493299
 20
105.8200041272
 30
0.0
 11
7.3420351244
 21
105.8200041272
 31
0.0
  0
ARC
  5
5F2
100
AcDbEntity
  8
LAYER0
 62
         6
100
AcDbCircle
 10
7.3420351244
 20
105.0700041272
 30
0.0
 40
0.75
210
0.0
220
0.0
230
1.0
100
AcDbArc
 50
90.0000046057
 51
128.6598080378
  0
LINE
  5
5F3
100
AcDbEntity
  8
LAYER0
 62
         6
100
AcDbLine
 10
6.8735138387
 20
105.6556557343
 30
0.0
 11
6.3289493299
 21
105.2200041272
 31
0.0
  0
LINE
  5
5F4
100
AcDbEntity
  8
LAYER0
 62
         6
100
AcDbLine
 10
15.7153454329
 20
117.4296235051
 30
0.0
 11
14.4753958275
 21
116.1896738997
 31
0.0
  0
ARC
  5
5F5
100
AcDbEntity
  8
LAYER0
 62
         6
100
AcDbCircle
 10
13.3844056518
 20
103.7200041272
 30
0.0
 40
1.0
210
0.0
220
-0.0
230
1.0
100
AcDbArc
 50
45.0000053733
 51
90.0000015352
  0
ARC
  5
5F6
100
AcDbEntity
  8
LAYER0
 62
         6
100
AcDbCircle
 10
13.3289492181
 20
105.7200041272
 30
0.0
 40
0.5
210
-0.0
220
0.0
230
1.0
100
AcDbArc
 50
269.9999984648
 51
0.0000015352
  0
ARC
  5
5F7
100
AcDbEntity
  8
LAYER0
 62
         6
100
AcDbCircle
 10
13.3289492181
 20
115.2200040676
 30
0.0
 40
0.5
210
0.0
220
-0.0
230
1.0
100
AcDbArc
 50
0.0000015352
 51
90.0000046057
  0
ENDBLK
  5
5F8
100
AcDbEntity
  8
0
100
AcDbBlockEnd
  0
BLOCK
  5
67E
100
AcDbEntity
  8
0
100
AcDbBlockBegin
  2
CLUMP42
 70
         0
 10
0.0
 20
0.0
 30
0.0
  3

  1

  0
INSERT
  5
680
100
AcDbEntity
  8
0
100
AcDbBlockReference
  2
CLUMP43
 10
0.0
 20
0.0
 30
0.0
  0
ENDBLK
  5
690
100
AcDbEntity
  8
0
100
AcDbBlockEnd
  0
BLOCK
  5
681
100
AcDbEntity
  8
0
100
AcDbBlockBegin
  2
CLUMP43
 70
         0
 10
0.0
 20
0.0
 30
0.0
  3

  1

  0
LINE
  5
682
100
AcDbEntity
  8
LAYER0
 62
         5
100
AcDbLine
 10
-1.1710507744
 20
-85.3393754741
 30
0.0
 11
-1.1710507744
 21
-88.0893754741
 31
0.0
  0
LINE
  5
683
100
AcDbEntity
  8
LAYER0
 62
         5
100
AcDbLine
 10
-1.1710507744
 20
-85.3393754741
 30
0.0
 11
-1.6703655418
 21
-85.3655434523
 31
0.0
  0
LINE
  5
684
100
AcDbEntity
  8
LAYER0
 62
         5
100
AcDbLine
 10
-1.1710507744
 20
-88.0893754741
 30
0.0
 11
-1.6703655418
 21
-88.063207496
 31
0.0
  0
ARC
  5
685
100
AcDbEntity
  8
LAYER0
 62
         5
100
AcDbCircle
 10
-1.6515070867
 20
-85.725384212
 30
0.0
 40
0.3603345858
210
0.0
220
0.0
230
1.0
100
AcDbArc
 50
93.0000015864
 51
165.114090295
  0
ARC
  5
686
100
AcDbEntity
  8
LAYER0
 62
         5
100
AcDbCircle
 10
-1.6515070867
 20
-87.7033667363
 30
0.0
 40
0.3603345858
210
0.0
220
0.0
230
1.0
100
AcDbArc
 50
194.885909705
 51
266.9999984136
  0
ARC
  5
687
100
AcDbEntity
  8
LAYER0
 62
         5
100
AcDbCircle
 10
1.3289492256
 20
-86.7143754741
 30
0.0
 40
3.5
210
0.0
220
0.0
230
1.0
100
AcDbArc
 50
162.0000027634
 51
197.9999972366
  0
LINE
  5
688
100
AcDbEntity
  8
LAYER0
 62
         5
100
AcDbLine
 10
-2.1710507744
 20
-86.7143754741
 30
0.0
 11
-1.6710507744
 21
-86.7143754741
 31
0.0
  0
LINE
  5
689
100
AcDbEntity
  8
LAYER0
 62
         5
100
AcDbLine
 10
-1.1710507744
 20
-86.0893754741
 30
0.0
 11
7.7464174708
 21
-86.0893754741
 31
0.0
  0
LINE
  5
68A
100
AcDbEntity
  8
LAYER0
 62
         5
100
AcDbLine
 10
-1.1710507744
 20
-87.3393754741
 30
0.0
 11
7.7464174708
 21
-87.3393754741
 31
0.0
  0
LINE
  5
68B
100
AcDbEntity
  8
LAYER0
 62
         5
100
AcDbLine
 10
-1.1710507744
 20
-85.9643754741
 30
0.0
 11
7.5299111199
 21
-85.9643754741
 31
0.0
  0
LINE
  5
68C
100
AcDbEntity
  8
LAYER0
 62
         5
100
AcDbLine
 10
-1.1710507744
 20
-87.4643754741
 30
0.0
 11
7.5299111199
 21
-87.4643754741
 31
0.0
  0
LINE
  5
68D
100
AcDbEntity
  8
LAYER0
 62
         5
100
AcDbLine
 10
8.8289492256
 20
-86.7143754741
 30
0.0
 11
7.5299111199
 21
-87.4643754741
 31
0.0
  0
LINE
  5
68E
100
AcDbEntity
  8
LAYER0
 62
         5
100
AcDbLine
 10
8.8289492256
 20
-86.7143754741
 30
0.0
 11
7.5299111199
 21
-85.9643754741
 31
0.0
  0
ENDBLK
  5
68F
100
AcDbEntity
  8
0
100
AcDbBlockEnd
  0
BLOCK
  5
693
100
AcDbEntity
  8
0
100
AcDbBlockBegin
  2
CLUMP44
 70
         0
 10
0.0
 20
0.0
 30
0.0
  3

  1

  0
INSERT
  5
695
100
AcDbEntity
  8
0
100
AcDbBlockReference
  2
CLUMP45
 10
0.0
 20
0.0
 30
0.0
  0
ENDBLK
  5
6A5
100
AcDbEntity
  8
0
100
AcDbBlockEnd
  0
BLOCK
  5
696
100
AcDbEntity
  8
0
100
AcDbBlockBegin
  2
CLUMP45
 70
         0
 10
0.0
 20
0.0
 30
0.0
  3

  1

  0
LINE
  5
697
100
AcDbEntity
  8
LAYER0
 62
         5
100
AcDbLine
 10
-1.1710507744
 20
-91.8393754741
 30
0.0
 11
-1.1710507744
 21
-94.5893754741
 31
0.0
  0
LINE
  5
698
100
AcDbEntity
  8
LAYER0
 62
         5
100
AcDbLine
 10
-1.1710507744
 20
-91.8393754741
 30
0.0
 11
-1.6703655418
 21
-91.8655434523
 31
0.0
  0
LINE
  5
699
100
AcDbEntity
  8
LAYER0
 62
         5
100
AcDbLine
 10
-1.1710507744
 20
-94.5893754741
 30
0.0
 11
-1.6703655418
 21
-94.563207496
 31
0.0
  0
ARC
  5
69A
100
AcDbEntity
  8
LAYER0
 62
         5
100
AcDbCircle
 10
-1.6515070867
 20
-92.225384212
 30
0.0
 40
0.3603345858
210
0.0
220
0.0
230
1.0
100
AcDbArc
 50
93.0000015864
 51
165.114090295
  0
ARC
  5
69B
100
AcDbEntity
  8
LAYER0
 62
         5
100
AcDbCircle
 10
-1.6515070867
 20
-94.2033667363
 30
0.0
 40
0.3603345858
210
0.0
220
0.0
230
1.0
100
AcDbArc
 50
194.885909705
 51
266.9999984136
  0
ARC
  5
69C
100
AcDbEntity
  8
LAYER0
 62
         5
100
AcDbCircle
 10
1.3289492256
 20
-93.2143754741
 30
0.0
 40
3.5
210
0.0
220
0.0
230
1.0
100
AcDbArc
 50
162.0000027634
 51
197.9999972366
  0
LINE
  5
69D
100
AcDbEntity
  8
LAYER0
 62
         5
100
AcDbLine
 10
-2.1710507744
 20
-93.2143754741
 30
0.0
 11
-1.6710507744
 21
-93.2143754741
 31
0.0
  0
LINE
  5
69E
100
AcDbEntity
  8
LAYER0
 62
         5
100
AcDbLine
 10
-1.1710507744
 20
-92.5893754741
 30
0.0
 11
7.7464174708
 21
-92.5893754741
 31
0.0
  0
LINE
  5
69F
100
AcDbEntity
  8
LAYER0
 62
         5
100
AcDbLine
 10
-1.1710507744
 20
-93.8393754741
 30
0.0
 11
7.7464174708
 21
-93.8393754741
 31
0.0
  0
LINE
  5
6A0
100
AcDbEntity
  8
LAYER0
 62
         5
100
AcDbLine
 10
-1.1710507744
 20
-92.4643754741
 30
0.0
 11
7.5299111199
 21
-92.4643754741
 31
0.0
  0
LINE
  5
6A1
100
AcDbEntity
  8
LAYER0
 62
         5
100
AcDbLine
 10
-1.1710507744
 20
-93.9643754741
 30
0.0
 11
7.5299111199
 21
-93.9643754741
 31
0.0
  0
LINE
  5
6A2
100
AcDbEntity
  8
LAYER0
 62
         5
100
AcDbLine
 10
8.8289492256
 20
-93.2143754741
 30
0.0
 11
7.5299111199
 21
-93.9643754741
 31
0.0
  0
LINE
  5
6A3
100
AcDbEntity
  8
LAYER0
 62
         5
100
AcDbLine
 10
8.8289492256
 20
-93.2143754741
 30
0.0
 11
7.5299111199
 21
-92.4643754741
 31
0.0
  0
ENDBLK
  5
6A4
100
AcDbEntity
  8
0
100
AcDbBlockEnd
  0
ENDSEC
  0
SECTION
  2
ENTITIES
  0
ARC
  5
2F
100
AcDbEntity
  8
LAYER0
 62
         5
100
AcDbCircle
 10
55.5089490691
 20
19.0400040974
 30
0.0
 40
0.12
210
-0.0
220
0.0
230
1.0
100
AcDbArc
 50
269.9999984648
 51
0.0
  0
LINE
  5
30
100
AcDbEntity
  8
LAYER0
 62
         5
100
AcDbLine
 10
56.0289490691
 20
11.2200040974
 30
0.0
 11
55.6289490691
 21
11.2200040974
 31
0.0
  0
LINE
  5
31
100
AcDbEntity
  8
LAYER0
 62
         5
100
AcDbLine
 10
56.0289490691
 20
13.2200040974
 30
0.0
 11
55.6289490691
 21
13.2200040974
 31
0.0
  0
LINE
  5
32
100
AcDbEntity
  8
LAYER0
 62
         6
100
AcDbLine
 10
60.3289488754
 20
31.4700040974
 30
0.0
 11
60.3289488754
 21
3.7480488645
 31
0.0
  0
LINE
  5
33
100
AcDbEntity
  8
LAYER0
 62
         6
100
AcDbLine
 10
64.5789491064
 20
31.4700040974
 30
0.0
 11
64.5789491064
 21
4.4974385733
 31
0.0
  0
LINE
  5
35
100
AcDbEntity
  8
LAYER4
 62
         2
100
AcDbLine
 10
56.0025972468
 20
2.9851963444
 30
0.0
 11
55.6553008915
 21
4.9548118504
 31
0.0
  0
LINE
  5
36
100
AcDbEntity
  8
LAYER4
 62
         2
100
AcDbLine
 10
56.0025972468
 20
2.9851963444
 30
0.0
 11
66.0034256253
 21
4.7486122169
 31
0.0
  0
LINE
  5
37
100
AcDbEntity
  8
LAYER4
 62
         5
100
AcDbLine
 10
55.5289490691
 20
8.2200040974
 30
0.0
 11
55.5289490691
 21
4.932532615
 31
0.0
  0
LINE
  5
38
100
AcDbEntity
  8
LAYER4
 62
         5
100
AcDbLine
 10
55.5289490691
 20
8.3200040974
 30
0.0
 11
55.5289490691
 21
4.932532615
 31
0.0
  0
LINE
  5
39
100
AcDbEntity
  8
LAYER4
 62
         5
100
AcDbLine
 10
56.1289490691
 20
3.0074755797
 30
0.0
 11
56.1289490691
 21
8.2200040974
 31
0.0
  0
LINE
  5
3B
100
AcDbEntity
  8
LAYER3
 62
         4
100
AcDbLine
 10
23.8289493671
 20
92.7388398294
 30
0.0
 11
20.8945065649
 21
93.3625749018
 31
0.0
  0
LINE
  5
3C
100
AcDbEntity
  8
LAYER3
 62
         4
100
AcDbLine
 10
23.8289493671
 20
92.7388398294
 30
0.0
 11
20.8945065649
 21
92.1151047569
 31
0.0
  0
MTEXT
  5
3D
100
AcDbEntity
  8
LAYER3
100
AcDbMText
 10
10.6289493299
 20
94.6326691751
 30
0.0
 40
1.0736841679
 41
1.282322998
 71
         1
 72
         1
  1
\W0.8;48
  0
LINE
  5
3E
100
AcDbEntity
  8
LAYER3
 62
         4
100
AcDbLine
 10
23.8289493671
 20
110.7200040974
 30
0.0
 11
23.8289493671
 21
92.2388398294
 31
0.0
  0
ARC
  5
3F
100
AcDbEntity
  8
LAYER0
 62
         3
100
AcDbCircle
 10
12.0789493299
 20
72.9700040974
 30
0.0
 40
0.5
210
0.0
220
-0.0
230
1.0
100
AcDbArc
 50
0.0
 51
90.0000015352
  0
LINE
  5
40
100
AcDbEntity
  8
LAYER4
 62
         2
100
AcDbLine
 10
56.0025972468
 20
77.9851963444
 30
0.0
 11
55.6553008915
 21
79.9548118504
 31
0.0
  0
LINE
  5
41
100
AcDbEntity
  8
LAYER4
 62
         2
100
AcDbLine
 10
56.0025972468
 20
77.9851963444
 30
0.0
 11
66.0034256253
 21
79.7486122169
 31
0.0
  0
LINE
  5
42
100
AcDbEntity
  8
LAYER0
 62
         5
100
AcDbLine
 10
56.8289490691
 20
12.4200040974
 30
0.0
 11
56.8289490691
 21
12.0200040974
 31
0.0
  0
LINE
  5
43
100
AcDbEntity
  8
LAYER0
 62
         5
100
AcDbLine
 10
56.8289490691
 20
12.4200040974
 30
0.0
 11
56.1489490691
 21
12.4200040974
 31
0.0
  0
LINE
  5
44
100
AcDbEntity
  8
LAYER0
 62
         5
100
AcDbLine
 10
56.1489490691
 20
12.0200040974
 30
0.0
 11
56.8289490691
 21
12.0200040974
 31
0.0
  0
LINE
  5
45
100
AcDbEntity
  8
LAYER0
 62
         5
100
AcDbLine
 10
56.0289490691
 20
13.2200040974
 30
0.0
 11
56.0289490691
 21
12.5400040974
 31
0.0
  0
LINE
  5
46
100
AcDbEntity
  8
LAYER0
 62
         5
100
AcDbLine
 10
56.0289490691
 20
11.9000040974
 30
0.0
 11
56.0289490691
 21
11.2200040974
 31
0.0
  0
LINE
  5
47
100
AcDbEntity
  8
LAYER0
 62
         5
100
AcDbLine
 10
55.6289490691
 20
11.2200040974
 30
0.0
 11
55.6289490691
 21
11.9000040974
 31
0.0
  0
LINE
  5
48
100
AcDbEntity
  8
LAYER0
 62
         5
100
AcDbLine
 10
55.6289490691
 20
12.5400040974
 30
0.0
 11
55.6289490691
 21
13.2200040974
 31
0.0
  0
ARC
  5
49
100
AcDbEntity
  8
LAYER0
 62
         5
100
AcDbCircle
 10
55.5089490691
 20
11.9000040974
 30
0.0
 40
0.12
210
0.0
220
-0.0
230
1.0
100
AcDbArc
 50
0.0
 51
90.0000015352
  0
ARC
  5
4A
100
AcDbEntity
  8
LAYER0
 62
         5
100
AcDbCircle
 10
56.1489490691
 20
11.9000040974
 30
0.0
 40
0.12
210
0.0
220
0.0
230
1.0
100
AcDbArc
 50
90.0000015352
 51
180.0000030705
  0
ARC
  5
4B
100
AcDbEntity
  8
LAYER0
 62
         5
100
AcDbCircle
 10
56.1489490691
 20
12.5400040974
 30
0.0
 40
0.12
210
0.0
220
0.0
230
1.0
100
AcDbArc
 50
180.0000030705
 51
269.9999984648
  0
ARC
  5
4C
100
AcDbEntity
  8
LAYER0
 62
         5
100
AcDbCircle
 10
55.5089490691
 20
12.5400040974
 30
0.0
 40
0.12
210
-0.0
220
0.0
230
1.0
100
AcDbArc
 50
269.9999984648
 51
0.0
  0
LINE
  5
4D
100
AcDbEntity
  8
LAYER0
 62
         4
100
AcDbLine
 10
59.3289490691
 20
33.7200040974
 30
0.0
 11
59.3289490691
 21
9.7200040974
 31
0.0
  0
ARC
  5
4E
100
AcDbEntity
  8
LAYER0
 62
         4
100
AcDbCircle
 10
57.8289490691
 20
9.7200040974
 30
0.0
 40
1.5
210
-0.0
220
0.0
230
1.0
100
AcDbArc
 50
269.9999984648
 51
0.0
  0
LINE
  5
4F
100
AcDbEntity
  8
LAYER0
 62
         5
100
AcDbLine
 10
56.0289490691
 20
17.7200040974
 30
0.0
 11
55.6289490691
 21
17.7200040974
 31
0.0
  0
LINE
  5
50
100
AcDbEntity
  8
LAYER0
 62
         5
100
AcDbLine
 10
56.0289490691
 20
19.7200040974
 30
0.0
 11
55.6289490691
 21
19.7200040974
 31
0.0
  0
LINE
  5
51
100
AcDbEntity
  8
LAYER0
 62
         5
100
AcDbLine
 10
56.8289490691
 20
18.9200040974
 30
0.0
 11
56.8289490691
 21
18.5200040974
 31
0.0
  0
LINE
  5
52
100
AcDbEntity
  8
LAYER0
 62
         5
100
AcDbLine
 10
56.8289490691
 20
18.9200040974
 30
0.0
 11
56.1489490691
 21
18.9200040974
 31
0.0
  0
LINE
  5
53
100
AcDbEntity
  8
LAYER0
 62
         5
100
AcDbLine
 10
56.1489490691
 20
18.5200040974
 30
0.0
 11
56.8289490691
 21
18.5200040974
 31
0.0
  0
LINE
  5
54
100
AcDbEntity
  8
LAYER0
 62
         5
100
AcDbLine
 10
56.0289490691
 20
19.7200040974
 30
0.0
 11
56.0289490691
 21
19.0400040974
 31
0.0
  0
LINE
  5
55
100
AcDbEntity
  8
LAYER0
 62
         5
100
AcDbLine
 10
56.0289490691
 20
18.4000040974
 30
0.0
 11
56.0289490691
 21
17.7200040974
 31
0.0
  0
LINE
  5
56
100
AcDbEntity
  8
LAYER0
 62
         5
100
AcDbLine
 10
55.6289490691
 20
17.7200040974
 30
0.0
 11
55.6289490691
 21
18.4000040974
 31
0.0
  0
LINE
  5
57
100
AcDbEntity
  8
LAYER0
 62
         5
100
AcDbLine
 10
55.6289490691
 20
19.0400040974
 30
0.0
 11
55.6289490691
 21
19.7200040974
 31
0.0
  0
ARC
  5
58
100
AcDbEntity
  8
LAYER0
 62
         5
100
AcDbCircle
 10
55.5089490691
 20
18.4000040974
 30
0.0
 40
0.12
210
0.0
220
-0.0
230
1.0
100
AcDbArc
 50
0.0
 51
90.0000015352
  0
ARC
  5
59
100
AcDbEntity
  8
LAYER0
 62
         5
100
AcDbCircle
 10
56.1489490691
 20
18.4000040974
 30
0.0
 40
0.12
210
0.0
220
0.0
230
1.0
100
AcDbArc
 50
90.0000015352
 51
180.0000030705
  0
ARC
  5
5A
100
AcDbEntity
  8
LAYER0
 62
         5
100
AcDbCircle
 10
56.1489490691
 20
19.0400040974
 30
0.0
 40
0.12
210
0.0
220
0.0
230
1.0
100
AcDbArc
 50
180.0000030705
 51
269.9999984648
  0
LINE
  5
5B
100
AcDbEntity
  8
LAYER3
 62
         2
100
AcDbLine
 10
-3.9210507074
 20
67.0950040974
 30
0.0
 11
-1.4210507074
 21
67.0950040974
 31
0.0
  0
LINE
  5
5C
100
AcDbEntity
  8
LAYER4
 62
         2
100
AcDbLine
 10
-14.7447235702
 20
80.9700040974
 30
0.0
 11
-1.6710507074
 21
81.9700040974
 31
0.0
  0
LINE
  5
5D
100
AcDbEntity
  8
LAYER0
 62
         4
100
AcDbLine
 10
-3.6710507446
 20
113.9700040974
 30
0.0
 11
2.8289493597
 21
113.9700040974
 31
0.0
  0
LINE
  5
5E
100
AcDbEntity
  8
LAYER0
 62
         4
100
AcDbLine
 10
2.8289493597
 20
106.9700040974
 30
0.0
 11
-3.6710507446
 21
106.9700040974
 31
0.0
  0
LINE
  5
5F
100
AcDbEntity
  8
LAYER3
 62
         4
100
AcDbLine
 10
28.5377326541
 20
31.4700040974
 30
0.0
 11
28.5377326541
 21
18.7200040974
 31
0.0
  0
LINE
  5
60
100
AcDbEntity
  8
LAYER3
 62
         4
100
AcDbLine
 10
28.5377326541
 20
31.4700040974
 30
0.0
 11
27.9139975816
 21
28.5355612952
 31
0.0
  0
LINE
  5
61
100
AcDbEntity
  8
LAYER3
 62
         4
100
AcDbLine
 10
28.5377326541
 20
31.4700040974
 30
0.0
 11
29.1614677266
 21
28.5355612952
 31
0.0
  0
LINE
  5
62
100
AcDbEntity
  8
LAYER3
 62
         4
100
AcDbLine
 10
28.5377326541
 20
18.7200040974
 30
0.0
 11
29.1614677266
 21
21.6544468996
 31
0.0
  0
LINE
  5
63
100
AcDbEntity
  8
LAYER3
 62
         4
100
AcDbLine
 10
28.5377326541
 20
18.7200040974
 30
0.0
 11
27.9139975816
 21
21.6544468996
 31
0.0
  0
MTEXT
  5
64
100
AcDbEntity
  8
LAYER3
100
AcDbMText
 10
26.6439033084
 20
22.69500406
 30
0.0
 40
1.0736841679
 41
2.5646459961
 71
         1
 72
         1
  1
\W0.8;25.5
 11
-0.0000000268
 21
1.0
 31
0.0
  0
LINE
  5
65
100
AcDbEntity
  8
LAYER3
 62
         4
100
AcDbLine
 10
28.5377326541
 20
18.7200040974
 30
0.0
 11
28.5377326541
 21
12.2200040974
 31
0.0
  0
LINE
  5
66
100
AcDbEntity
  8
LAYER3
 62
         4
100
AcDbLine
 10
28.5377326541
 20
18.7200040974
 30
0.0
 11
27.9139975816
 21
15.7855612952
 31
0.0
  0
LINE
  5
67
100
AcDbEntity
  8
LAYER3
 62
         4
100
AcDbLine
 10
28.5377326541
 20
18.7200040974
 30
0.0
 11
29.1614677266
 21
15.7855612952
 31
0.0
  0
LINE
  5
68
100
AcDbEntity
  8
LAYER3
 62
         4
100
AcDbLine
 10
28.5377326541
 20
12.2200040974
 30
0.0
 11
29.1614677266
 21
15.1544468996
 31
0.0
  0
LINE
  5
69
100
AcDbEntity
  8
LAYER3
 62
         4
100
AcDbLine
 10
28.5377326541
 20
12.2200040974
 30
0.0
 11
27.9139975816
 21
15.1544468996
 31
0.0
  0
MTEXT
  5
6A
100
AcDbEntity
  8
LAYER3
100
AcDbMText
 10
26.6439033084
 20
14.27000406
 30
0.0
 40
1.0736841679
 41
1.282322998
 71
         1
 72
         1
  1
\W0.8;13
 11
-0.0000000268
 21
1.0
 31
0.0
  0
LINE
  5
6B
100
AcDbEntity
  8
LAYER3
 62
         4
100
AcDbLine
 10
41.887939879
 20
37.2200040974
 30
0.0
 11
41.887939879
 21
8.2200040974
 31
0.0
  0
LINE
  5
6C
100
AcDbEntity
  8
LAYER3
 62
         4
100
AcDbLine
 10
41.887939879
 20
37.2200040974
 30
0.0
 11
41.2642048066
 21
34.2855612952
 31
0.0
  0
LINE
  5
6D
100
AcDbEntity
  8
LAYER3
 62
         4
100
AcDbLine
 10
41.887939879
 20
37.2200040974
 30
0.0
 11
42.5116749515
 21
34.2855612952
 31
0.0
  0
LINE
  5
6E
100
AcDbEntity
  8
LAYER3
 62
         4
100
AcDbLine
 10
41.887939879
 20
8.2200040974
 30
0.0
 11
42.5116749515
 21
11.1544468996
 31
0.0
  0
LINE
  5
6F
100
AcDbEntity
  8
LAYER3
 62
         4
100
AcDbLine
 10
41.887939879
 20
8.2200040974
 30
0.0
 11
41.2642048066
 21
11.1544468996
 31
0.0
  0
MTEXT
  5
70
100
AcDbEntity
  8
LAYER3
100
AcDbMText
 10
39.9941105333
 20
21.52000406
 30
0.0
 40
1.0736841679
 41
1.282322998
 71
         1
 72
         1
  1
\W0.8;58
 11
-0.0000000268
 21
1.0
 31
0.0
  0
ARC
  5
71
100
AcDbEntity
  8
LAYER0
 62
         3
100
AcDbCircle
 10
12.0789493299
 20
17.9700040974
 30
0.0
 40
0.5
210
-0.0
220
0.0
230
1.0
100
AcDbArc
 50
269.9999984648
 51
0.0
  0
LINE
  5
72
100
AcDbEntity
  8
LAYER0
 62
         6
100
AcDbLine
 10
47.0789490319
 20
31.4700040974
 30
0.0
 11
47.0789490319
 21
3.4425696215
 31
0.0
  0
LINE
  5
73
100
AcDbEntity
  8
LAYER0
 62
         6
100
AcDbLine
 10
51.3289492628
 20
31.4700040974
 30
0.0
 11
51.3289492628
 21
4.1919593302
 31
0.0
  0
INSERT
  5
75
100
AcDbEntity
  8
0
100
AcDbBlockReference
  2
CLUMP0
 10
0.0
 20
0.0
 30
0.0
  0
LINE
  5
8A
100
AcDbEntity
  8
LAYER3
 62
         4
100
AcDbLine
 10
-0.4210507446
 20
119.8700040974
 30
0.0
 11
-0.4210507446
 21
131.2894988848
 31
0.0
  0
LINE
  5
8B
100
AcDbEntity
  8
LAYER3
 62
         4
100
AcDbLine
 10
-14.8210507446
 20
130.7894988848
 30
0.0
 11
-0.4210507446
 21
130.7894988848
 31
0.0
  0
LINE
  5
8C
100
AcDbEntity
  8
LAYER3
 62
         4
100
AcDbLine
 10
-0.4210507446
 20
130.7894988848
 30
0.0
 11
-3.3554935468
 21
131.4132339572
 31
0.0
  0
LINE
  5
8D
100
AcDbEntity
  8
LAYER3
 62
         4
100
AcDbLine
 10
-0.4210507446
 20
130.7894988848
 30
0.0
 11
-3.3554935468
 21
130.1657638123
 31
0.0
  0
LINE
  5
8E
100
AcDbEntity
  8
LAYER3
 62
         4
100
AcDbLine
 10
-0.1710507074
 20
92.7388398294
 30
0.0
 11
2.7633920948
 21
92.1151047569
 31
0.0
  0
LINE
  5
8F
100
AcDbEntity
  8
LAYER3
 62
         4
100
AcDbLine
 10
-0.1710507074
 20
92.7388398294
 30
0.0
 11
2.7633920948
 21
93.3625749018
 31
0.0
  0
LINE
  5
90
100
AcDbEntity
  8
LAYER3
 62
         4
100
AcDbLine
 10
-1.6710507074
 20
102.970004107
 30
0.0
 11
-1.6710507074
 21
92.2388398294
 31
0.0
  0
LINE
  5
91
100
AcDbEntity
  8
LAYER3
 62
         4
100
AcDbLine
 10
-1.6710507074
 20
92.7388398294
 30
0.0
 11
-25.6710507819
 21
92.7388398294
 31
0.0
  0
LINE
  5
92
100
AcDbEntity
  8
LAYER3
 62
         4
100
AcDbLine
 10
-1.6710507074
 20
92.7388398294
 30
0.0
 11
-4.6054935096
 21
93.3625749018
 31
0.0
  0
LINE
  5
93
100
AcDbEntity
  8
LAYER3
 62
         4
100
AcDbLine
 10
-1.6710507074
 20
92.7388398294
 30
0.0
 11
-4.6054935096
 21
92.1151047569
 31
0.0
  0
INSERT
  5
95
100
AcDbEntity
  8
0
100
AcDbBlockReference
  2
CLUMP2
 10
0.0
 20
0.0
 30
0.0
  0
LINE
  5
115
100
AcDbEntity
  8
LAYER3
 62
         4
100
AcDbLine
 10
-1.6710507074
 20
102.9700040601
 30
0.0
 11
-1.6710507074
 21
92.2388398294
 31
0.0
  0
LINE
  5
116
100
AcDbEntity
  8
LAYER3
 62
         4
100
AcDbLine
 10
-0.1710507074
 20
102.970004107
 30
0.0
 11
-0.1710507074
 21
92.2388398294
 31
0.0
  0
LINE
  5
117
100
AcDbEntity
  8
LAYER3
 62
         4
100
AcDbLine
 10
-1.6710507074
 20
92.7388398294
 30
0.0
 11
-0.1710507074
 21
92.7388398294
 31
0.0
  0
LINE
  5
118
100
AcDbEntity
  8
LAYER3
 62
         4
100
AcDbLine
 10
2.3289492926
 20
92.7388398294
 30
0.0
 11
-0.1710507074
 21
92.7388398294
 31
0.0
  0
LINE
  5
119
100
AcDbEntity
  8
LAYER3
 62
         4
100
AcDbLine
 10
-0.1710507074
 20
92.7388398294
 30
0.0
 11
2.7633920948
 21
92.1151047569
 31
0.0
  0
LINE
  5
11A
100
AcDbEntity
  8
LAYER3
 62
         4
100
AcDbLine
 10
-0.1710507074
 20
92.7388398294
 30
0.0
 11
2.7633920948
 21
93.3625749018
 31
0.0
  0
LINE
  5
11B
100
AcDbEntity
  8
LAYER3
 62
         4
100
AcDbLine
 10
-4.1710507074
 20
92.7388398294
 30
0.0
 11
-1.6710507074
 21
92.7388398294
 31
0.0
  0
LINE
  5
11C
100
AcDbEntity
  8
LAYER3
 62
         4
100
AcDbLine
 10
-1.6710507074
 20
92.7388398294
 30
0.0
 11
-4.6054935096
 21
93.3625749018
 31
0.0
  0
LINE
  5
11D
100
AcDbEntity
  8
LAYER3
 62
         4
100
AcDbLine
 10
-1.6710507074
 20
92.7388398294
 30
0.0
 11
-4.6054935096
 21
92.1151047569
 31
0.0
  0
LINE
  5
11E
100
AcDbEntity
  8
LAYER3
 62
         4
100
AcDbLine
 10
-0.1710507074
 20
102.970004107
 30
0.0
 11
-0.1710507074
 21
92.2388398294
 31
0.0
  0
LINE
  5
11F
100
AcDbEntity
  8
LAYER0
 62
         4
100
AcDbLine
 10
-0.6710507074
 20
67.9700040974
 30
0.0
 11
-3.9210507074
 21
67.9700040974
 31
0.0
  0
LINE
  5
120
100
AcDbEntity
  8
LAYER0
 62
         4
100
AcDbLine
 10
-0.6710507074
 20
67.9700040974
 30
0.0
 11
-0.6710507074
 21
67.2200040974
 31
0.0
  0
LINE
  5
121
100
AcDbEntity
  8
LAYER0
 62
         4
100
AcDbLine
 10
-0.6710507074
 20
67.2200040974
 30
0.0
 11
-3.9210507074
 21
67.2200040974
 31
0.0
  0
INSERT
  5
123
100
AcDbEntity
  8
0
100
AcDbBlockReference
  2
CLUMP4
 10
0.0
 20
0.0
 30
0.0
  0
INSERT
  5
142
100
AcDbEntity
  8
0
100
AcDbBlockReference
  2
CLUMP6
 10
0.0
 20
0.0
 30
0.0
  0
LINE
  5
153
100
AcDbEntity
  8
LAYER3
 62
         4
100
AcDbLine
 10
-25.6710507819
 20
110.7200040974
 30
0.0
 11
-25.6710507819
 21
92.2388398294
 31
0.0
  0
LINE
  5
154
100
AcDbEntity
  8
LAYER3
 62
         4
100
AcDbLine
 10
-25.6710507819
 20
92.7388398294
 30
0.0
 11
-22.7366079797
 21
92.1151047569
 31
0.0
  0
LINE
  5
155
100
AcDbEntity
  8
LAYER3
 62
         4
100
AcDbLine
 10
-25.6710507819
 20
92.7388398294
 30
0.0
 11
-22.7366079797
 21
93.3625749018
 31
0.0
  0
MTEXT
  5
156
100
AcDbEntity
  8
LAYER3
100
AcDbMText
 10
-14.8710507446
 20
94.6326691751
 30
0.0
 40
1.0736841679
 41
1.282322998
 71
         1
 72
         1
  1
\W0.8;48
  0
LINE
  5
157
100
AcDbEntity
  8
LAYER3
 62
         4
100
AcDbLine
 10
-20.1710504603
 20
119.2200041346
 30
0.0
 11
-30.5437035954
 21
119.2200041346
 31
0.0
  0
LINE
  5
158
100
AcDbEntity
  8
LAYER3
 62
         4
100
AcDbLine
 10
-17.4210507446
 20
101.7200040601
 30
0.0
 11
-30.5437035954
 21
101.7200040601
 31
0.0
  0
LINE
  5
159
100
AcDbEntity
  8
LAYER3
 62
         4
100
AcDbLine
 10
-30.0437035954
 20
119.2200041346
 30
0.0
 11
-30.0437035954
 21
101.7200040601
 31
0.0
  0
LINE
  5
15A
100
AcDbEntity
  8
LAYER3
 62
         4
100
AcDbLine
 10
-30.0437035954
 20
119.2200041346
 30
0.0
 11
-30.6674386679
 21
116.2855613324
 31
0.0
  0
LINE
  5
15B
100
AcDbEntity
  8
LAYER3
 62
         4
100
AcDbLine
 10
-30.0437035954
 20
119.2200041346
 30
0.0
 11
-29.4199685229
 21
116.2855613324
 31
0.0
  0
LINE
  5
15C
100
AcDbEntity
  8
LAYER3
 62
         4
100
AcDbLine
 10
-30.0437035954
 20
101.7200040601
 30
0.0
 11
-29.4199685229
 21
104.6544468623
 31
0.0
  0
LINE
  5
15D
100
AcDbEntity
  8
LAYER3
 62
         4
100
AcDbLine
 10
-30.0437035954
 20
101.7200040601
 30
0.0
 11
-30.6674386679
 21
104.6544468623
 31
0.0
  0
MTEXT
  5
15E
100
AcDbEntity
  8
LAYER3
100
AcDbMText
 10
-31.9375329411
 20
109.27000406
 30
0.0
 40
1.0736841679
 41
1.282322998
 71
         1
 72
         1
  1
\W0.8;35
 11
-0.0000000268
 21
1.0
 31
0.0
  0
MTEXT
  5
15F
100
AcDbEntity
  8
LAYER3
100
AcDbMText
 10
-1.5210507074
 20
94.6326691751
 30
0.0
 40
1.0736841679
 41
0.641161499
 71
         1
 72
         1
  1
\W0.8;3
  0
ARC
  5
160
100
AcDbEntity
  8
LAYER0
 62
         4
100
AcDbCircle
 10
-3.9210507074
 20
67.2200040974
 30
0.0
 40
0.75
210
0.0
220
0.0
230
1.0
100
AcDbArc
 50
90.0000015352
 51
180.0000030705
  0
LINE
  5
161
100
AcDbEntity
  8
LAYER3
 62
         4
100
AcDbLine
 10
-3.9210507744
 20
114.7200040974
 30
0.0
 11
-3.9210507744
 21
106.2200040974
 31
0.0
  0
LINE
  5
162
100
AcDbEntity
  8
LAYER3
 62
         4
100
AcDbLine
 10
-3.9210507744
 20
114.7200040974
 30
0.0
 11
-4.6710507744
 21
114.7200040974
 31
0.0
  0
LINE
  5
163
100
AcDbEntity
  8
LAYER3
 62
         4
100
AcDbLine
 10
-4.6710507744
 20
106.2200040974
 30
0.0
 11
-3.9210507744
 21
106.2200040974
 31
0.0
  0
LINE
  5
164
100
AcDbEntity
  8
LAYER4
 62
         2
100
AcDbLine
 10
-25.6710507819
 20
80.9700040974
 30
0.0
 11
-14.9210505509
 21
81.9700040974
 31
0.0
  0
LINE
  5
165
100
AcDbEntity
  8
LAYER4
 62
         2
100
AcDbLine
 10
-14.9210505509
 20
81.9700040974
 30
0.0
 11
-14.7447235702
 21
80.9700040974
 31
0.0
  0
MTEXT
  5
166
100
AcDbEntity
  8
LAYER4
100
AcDbMText
 10
-19.111483546
 20
85.5828774119
 30
0.0
 40
1.2884210825
 41
13.8490892502
 71
         1
 72
         1
  1
\W0.8;スライド金具取付側
  0
LINE
  5
167
100
AcDbEntity
  8
LAYER0
 62
         4
100
AcDbLine
 10
-3.6710507446
 20
113.9700040974
 30
0.0
 11
-3.6710507446
 21
106.9700040974
 31
0.0
  0
LINE
  5
168
100
AcDbEntity
  8
LAYER0
 62
         4
100
AcDbLine
 10
-2.4210507446
 20
113.9700040974
 30
0.0
 11
-2.4210507446
 21
106.9700040974
 31
0.0
  0
INSERT
  5
16A
100
AcDbEntity
  8
0
100
AcDbBlockReference
  2
CLUMP8
 10
0.0
 20
0.0
 30
0.0
  0
LINE
  5
17F
100
AcDbEntity
  8
LAYER3
 62
         2
100
AcDbLine
 10
-58.3710509309
 20
67.0950040974
 30
0.0
 11
-49.9710509309
 21
67.0950040974
 31
0.0
  0
LINE
  5
180
100
AcDbEntity
  8
LAYER0
 62
         4
100
AcDbLine
 10
-49.9210509309
 20
67.2200040974
 30
0.0
 11
-58.4210509309
 21
67.2200040974
 31
0.0
  0
LINE
  5
181
100
AcDbEntity
  8
LAYER0
 62
         4
100
AcDbLine
 10
-58.4210509309
 20
67.9700040974
 30
0.0
 11
-49.9210509309
 21
67.9700040974
 31
0.0
  0
MTEXT
  5
182
100
AcDbEntity
  8
LAYER4
100
AcDbMText
 10
-62.0594091342
 20
84.6795484727
 30
0.0
 40
1.5461052179
 41
16.618906229
 71
         1
 72
         1
  1
\W0.8;スライド金具取付側
  0
LINE
  5
183
100
AcDbEntity
  8
LAYER4
 62
         2
100
AcDbLine
 10
-53.9974027532
 20
77.9851963444
 30
0.0
 11
-54.3446991085
 21
79.9548118504
 31
0.0
  0
LINE
  5
184
100
AcDbEntity
  8
LAYER4
 62
         2
100
AcDbLine
 10
-53.9974027532
 20
77.9851963444
 30
0.0
 11
-43.9965743747
 21
79.7486122169
 31
0.0
  0
LINE
  5
185
100
AcDbEntity
  8
LAYER4
 62
         2
100
AcDbLine
 10
-54.3446991085
 20
79.9548118504
 30
0.0
 11
-64.6297502438
 21
78.1412798373
 31
0.0
  0
LINE
  5
186
100
AcDbEntity
  8
LAYER4
 62
         5
100
AcDbLine
 10
-53.8710509309
 20
78.0074755797
 30
0.0
 11
-53.8710509309
 21
67.9700040974
 31
0.0
  0
LINE
  5
187
100
AcDbEntity
  8
LAYER4
 62
         5
100
AcDbLine
 10
-54.4710509309
 20
67.9700040974
 30
0.0
 11
-54.4710509309
 21
79.932532615
 31
0.0
  0
ARC
  5
188
100
AcDbEntity
  8
LAYER0
 62
         3
100
AcDbCircle
 10
5.0789493299
 20
72.9700040974
 30
0.0
 40
0.5
210
0.0
220
0.0
230
1.0
100
AcDbArc
 50
90.0000015352
 51
180.0000030705
  0
LINE
  5
189
100
AcDbEntity
  8
LAYER0
 62
         4
100
AcDbLine
 10
2.8289493597
 20
113.9700040974
 30
0.0
 11
2.8289493597
 21
106.9700040974
 31
0.0
  0
LINE
  5
18A
100
AcDbEntity
  8
LAYER3
 62
         4
100
AcDbLine
 10
-14.8210507446
 20
123.8700040974
 30
0.0
 11
-14.8210507446
 21
127.9428469734
 31
0.0
  0
LINE
  5
18B
100
AcDbEntity
  8
LAYER3
 62
         4
100
AcDbLine
 10
-6.0210507446
 20
123.8700040974
 30
0.0
 11
-6.0210507446
 21
127.9428469734
 31
0.0
  0
LINE
  5
18C
100
AcDbEntity
  8
LAYER3
 62
         4
100
AcDbLine
 10
-14.8210507446
 20
127.4428469734
 30
0.0
 11
-6.0210507446
 21
127.4428469734
 31
0.0
  0
LINE
  5
18D
100
AcDbEntity
  8
LAYER3
 62
         4
100
AcDbLine
 10
-14.8210507446
 20
127.4428469734
 30
0.0
 11
-11.8866079424
 21
126.819111901
 31
0.0
  0
LINE
  5
18E
100
AcDbEntity
  8
LAYER3
 62
         4
100
AcDbLine
 10
-14.8210507446
 20
127.4428469734
 30
0.0
 11
-11.8866079424
 21
128.0665820459
 31
0.0
  0
LINE
  5
18F
100
AcDbEntity
  8
LAYER3
 62
         4
100
AcDbLine
 10
-6.0210507446
 20
127.4428469734
 30
0.0
 11
-8.9554935468
 21
128.0665820459
 31
0.0
  0
LINE
  5
190
100
AcDbEntity
  8
LAYER3
 62
         4
100
AcDbLine
 10
-6.0210507446
 20
127.4428469734
 30
0.0
 11
-8.9554935468
 21
126.819111901
 31
0.0
  0
MTEXT
  5
191
100
AcDbEntity
  8
LAYER3
100
AcDbMText
 10
-12.8210507446
 20
129.3366763192
 30
0.0
 40
1.0736841679
 41
2.5646459961
 71
         1
 72
         1
  1
\W0.8;17.6
  0
LINE
  5
192
100
AcDbEntity
  8
LAYER3
 62
         4
100
AcDbLine
 10
-14.8210507446
 20
127.9428469734
 30
0.0
 11
-14.8210507446
 21
131.2894988848
 31
0.0
  0
LINE
  5
193
100
AcDbEntity
  8
LAYER3
 62
         4
100
AcDbLine
 10
-14.8210507446
 20
130.7894988848
 30
0.0
 11
-11.8866079424
 21
130.1657638123
 31
0.0
  0
LINE
  5
194
100
AcDbEntity
  8
LAYER3
 62
         4
100
AcDbLine
 10
-14.8210507446
 20
130.7894988848
 30
0.0
 11
-11.8866079424
 21
131.4132339572
 31
0.0
  0
MTEXT
  5
195
100
AcDbEntity
  8
LAYER3
100
AcDbMText
 10
-10.0210507446
 20
132.6833282305
 30
0.0
 40
1.0736841679
 41
2.5646459961
 71
         1
 72
         1
  1
\W0.8;28.8
  0
INSERT
  5
197
100
AcDbEntity
  8
0
100
AcDbBlockReference
  2
CLUMP10
 10
0.0
 20
0.0
 30
0.0
  0
INSERT
  5
1A9
100
AcDbEntity
  8
0
100
AcDbBlockReference
  2
CLUMP12
 10
0.0
 20
0.0
 30
0.0
  0
LINE
  5
1C7
100
AcDbEntity
  8
LAYER0
 62
         2
100
AcDbLine
 10
-1.1710507446
 20
26.9700040974
 30
0.0
 11
-1.1710507446
 21
28.4700040974
 31
0.0
  0
ARC
  5
1C8
100
AcDbEntity
  8
LAYER0
 62
         2
100
AcDbCircle
 10
-1.2710507446
 20
26.8200040974
 30
0.0
 40
0.15
210
0.0
220
0.0
230
1.0
100
AcDbArc
 50
90.0000015352
 51
179.9999969295
  0
ARC
  5
1C9
100
AcDbEntity
  8
LAYER0
 62
         2
100
AcDbCircle
 10
-1.2710507446
 20
28.6200040974
 30
0.0
 40
0.15
210
0.0
220
0.0
230
1.0
100
AcDbArc
 50
179.9999969295
 51
269.9999984648
  0
LINE
  5
1CA
100
AcDbEntity
  8
LAYER0
 62
         2
100
AcDbLine
 10
-1.4210507446
 20
24.2200040974
 30
0.0
 11
-1.4210507446
 21
26.8200040974
 31
0.0
  0
LINE
  5
1CB
100
AcDbEntity
  8
LAYER0
 62
         2
100
AcDbLine
 10
-1.4210507446
 20
28.6200040974
 30
0.0
 11
-1.4210507446
 21
34.3200040974
 31
0.0
  0
LINE
  5
1CC
100
AcDbEntity
  8
LAYER0
 62
         2
100
AcDbLine
 10
-0.4210507446
 20
38.9700040974
 30
0.0
 11
-6.0460509383
 21
38.9700040974
 31
0.0
  0
LINE
  5
1CD
100
AcDbEntity
  8
LAYER0
 62
         2
100
AcDbLine
 10
-6.0460509383
 20
23.9700040974
 30
0.0
 11
-0.4210507446
 21
23.9700040974
 31
0.0
  0
LINE
  5
1CE
100
AcDbEntity
  8
LAYER0
 62
         2
100
AcDbLine
 10
-0.4210507446
 20
38.9700040974
 30
0.0
 11
-0.4210507446
 21
23.9700040974
 31
0.0
  0
LINE
  5
1CF
100
AcDbEntity
  8
LAYER0
 62
         2
100
AcDbLine
 10
-0.3210507446
 20
35.9700040974
 30
0.0
 11
-0.4210507446
 21
35.9700040974
 31
0.0
  0
LINE
  5
1D0
100
AcDbEntity
  8
LAYER0
 62
         2
100
AcDbLine
 10
-0.4210507446
 20
34.4700040974
 30
0.0
 11
-0.3210507446
 21
34.4700040974
 31
0.0
  0
LINE
  5
1D1
100
AcDbEntity
  8
LAYER0
 62
         2
100
AcDbLine
 10
-0.1710507446
 20
35.8200040974
 30
0.0
 11
-0.1710507446
 21
34.6200040974
 31
0.0
  0
ARC
  5
1D2
100
AcDbEntity
  8
LAYER0
 62
         2
100
AcDbCircle
 10
-0.3210507446
 20
35.8200040974
 30
0.0
 40
0.15
210
0.0
220
-0.0
230
1.0
100
AcDbArc
 50
0.0
 51
90.0000015352
  0
ARC
  5
1D3
100
AcDbEntity
  8
LAYER0
 62
         2
100
AcDbCircle
 10
-0.3210507446
 20
34.6200040974
 30
0.0
 40
0.15
210
-0.0
220
0.0
230
1.0
100
AcDbArc
 50
269.9999984648
 51
0.0
  0
LINE
  5
1D4
100
AcDbEntity
  8
LAYER0
 62
         2
100
AcDbLine
 10
-0.3210507446
 20
26.9700040974
 30
0.0
 11
-0.4210507446
 21
26.9700040974
 31
0.0
  0
LINE
  5
1D5
100
AcDbEntity
  8
LAYER0
 62
         4
100
AcDbLine
 10
1.6789493597
 20
8.2200040974
 30
0.0
 11
2.8289493597
 21
8.2200040974
 31
0.0
  0
LINE
  5
1D6
100
AcDbEntity
  8
LAYER0
 62
         4
100
AcDbLine
 10
-2.4210506031
 20
23.9700040974
 30
0.0
 11
-0.1710507074
 21
23.9700040974
 31
0.0
  0
LINE
  5
1D7
100
AcDbEntity
  8
LAYER0
 62
         4
100
AcDbLine
 10
-0.1710507074
 20
23.9700040974
 30
0.0
 11
1.5789493597
 21
23.9700040974
 31
0.0
  0
ARC
  5
1D8
100
AcDbEntity
  8
LAYER0
 62
         4
100
AcDbCircle
 10
1.5789493597
 20
22.7200040974
 30
0.0
 40
1.25
210
0.0
220
-0.0
230
1.0
100
AcDbArc
 50
0.0
 51
90.0000015352
  0
LINE
  5
1D9
100
AcDbEntity
  8
LAYER0
 62
         4
100
AcDbLine
 10
-2.4210506031
 20
22.7200040974
 30
0.0
 11
-0.1710507074
 21
22.7200040974
 31
0.0
  0
LINE
  5
1DA
100
AcDbEntity
  8
LAYER0
 62
         4
100
AcDbLine
 10
-0.1710507074
 20
22.7200040974
 30
0.0
 11
1.5789493597
 21
22.7200040974
 31
0.0
  0
LINE
  5
1DB
100
AcDbEntity
  8
LAYER0
 62
         4
100
AcDbLine
 10
1.5789493597
 20
22.7200040974
 30
0.0
 11
1.5789493597
 21
8.2200040974
 31
0.0
  0
LINE
  5
1DC
100
AcDbEntity
  8
LAYER4
 62
         2
100
AcDbLine
 10
-14.7447235702
 20
3.4700040974
 30
0.0
 11
-1.6710507074
 21
4.4700040974
 31
0.0
  0
LINE
  5
1DD
100
AcDbEntity
  8
LAYER0
  6
CENTER
100
AcDbLine
 10
1.8504793395
 20
31.4700040974
 30
0.0
 11
-21.9173447415
 21
31.4700040974
 31
0.0
  0
LINE
  5
1DE
100
AcDbEntity
  8
LAYER0
 62
         6
100
AcDbLine
 10
-1.6710507074
 20
23.9700040974
 30
0.0
 11
-1.6710507074
 21
3.9700040974
 31
0.0
  0
INSERT
  5
1E0
100
AcDbEntity
  8
0
100
AcDbBlockReference
  2
CLUMP14
 10
0.0
 20
0.0
 30
0.0
  0
LINE
  5
1EC
100
AcDbEntity
  8
LAYER0
 62
         3
100
AcDbLine
 10
-9.9970515926
 20
42.2916054542
 30
0.0
 11
-7.1491754134
 21
37.7350035674
 31
0.0
  0
LINE
  5
1ED
100
AcDbEntity
  8
LAYER4
 62
         2
100
AcDbLine
 10
-25.6710507819
 20
3.4700040974
 30
0.0
 11
-14.9210505509
 21
4.4700040974
 31
0.0
  0
LINE
  5
1EE
100
AcDbEntity
  8
LAYER4
 62
         2
100
AcDbLine
 10
-14.9210505509
 20
4.4700040974
 30
0.0
 11
-14.7447235702
 21
3.4700040974
 31
0.0
  0
LINE
  5
1EF
100
AcDbEntity
  8
LAYER4
 62
         5
100
AcDbLine
 10
-10.7210507446
 20
17.4700040974
 30
0.0
 11
-10.7210507446
 21
3.9700040974
 31
0.0
  0
LINE
  5
1F0
100
AcDbEntity
  8
LAYER4
 62
         5
100
AcDbLine
 10
-10.1210507446
 20
17.4700040974
 30
0.0
 11
-10.1210507446
 21
3.9700040974
 31
0.0
  0
LINE
  5
1F1
100
AcDbEntity
  8
LAYER4
 62
         5
100
AcDbLine
 10
-10.4210507446
 20
17.4700040974
 30
0.0
 11
-10.4210507446
 21
3.9700040974
 31
0.0
  0
LINE
  5
1F2
100
AcDbEntity
  8
LAYER0
 62
         6
100
AcDbLine
 10
-5.9210509383
 20
23.9700040974
 30
0.0
 11
-5.9210509383
 21
3.9700040974
 31
0.0
  0
LINE
  5
1F3
100
AcDbEntity
  8
LAYER0
 62
         4
100
AcDbLine
 10
-0.6710507074
 20
6.4700040974
 30
0.0
 11
-0.6710507074
 21
7.2200040974
 31
0.0
  0
LINE
  5
1F4
100
AcDbEntity
  8
LAYER0
 62
         4
100
AcDbLine
 10
-0.6710507074
 20
6.4700040974
 30
0.0
 11
-3.9210507074
 21
6.4700040974
 31
0.0
  0
LINE
  5
1F5
100
AcDbEntity
  8
LAYER0
 62
         4
100
AcDbLine
 10
-0.6710507074
 20
7.2200040974
 30
0.0
 11
-3.9210507074
 21
7.2200040974
 31
0.0
  0
LINE
  5
1F6
100
AcDbEntity
  8
LAYER3
 62
         2
100
AcDbLine
 10
-1.4210507074
 20
52.0950040974
 30
0.0
 11
-3.9210507074
 21
52.0950040974
 31
0.0
  0
LINE
  5
1F7
100
AcDbEntity
  8
LAYER0
 62
         2
100
AcDbLine
 10
-0.4210507446
 20
28.4700040974
 30
0.0
 11
-0.3210507446
 21
28.4700040974
 31
0.0
  0
LINE
  5
1F8
100
AcDbEntity
  8
LAYER0
 62
         2
100
AcDbLine
 10
-0.1710507446
 20
27.1200040974
 30
0.0
 11
-0.1710507446
 21
28.3200040974
 31
0.0
  0
ARC
  5
1F9
100
AcDbEntity
  8
LAYER0
 62
         2
100
AcDbCircle
 10
-0.3210507446
 20
27.1200040974
 30
0.0
 40
0.15
210
-0.0
220
0.0
230
1.0
100
AcDbArc
 50
269.9999984648
 51
0.0
  0
ARC
  5
1FA
100
AcDbEntity
  8
LAYER0
 62
         2
100
AcDbCircle
 10
-0.3210507446
 20
28.3200040974
 30
0.0
 40
0.15
210
0.0
220
-0.0
230
1.0
100
AcDbArc
 50
0.0
 51
90.0000015352
  0
LINE
  5
1FB
100
AcDbEntity
  8
LAYER0
 62
         2
100
AcDbLine
 10
-1.4210507446
 20
38.7200040974
 30
0.0
 11
-1.1710507446
 21
38.9700040974
 31
0.0
  0
LINE
  5
1FC
100
AcDbEntity
  8
LAYER0
 62
         2
100
AcDbLine
 10
-1.4210507446
 20
24.2200040974
 30
0.0
 11
-1.1710507446
 21
23.9700040974
 31
0.0
  0
LINE
  5
1FD
100
AcDbEntity
  8
LAYER0
 62
         2
100
AcDbLine
 10
-1.1710507446
 20
35.9700040974
 30
0.0
 11
-1.2710507446
 21
35.9700040974
 31
0.0
  0
LINE
  5
1FE
100
AcDbEntity
  8
LAYER0
 62
         2
100
AcDbLine
 10
-1.2710507446
 20
34.4700040974
 30
0.0
 11
-1.1710507446
 21
34.4700040974
 31
0.0
  0
LINE
  5
1FF
100
AcDbEntity
  8
LAYER0
 62
         2
100
AcDbLine
 10
-1.1710507446
 20
35.9700040974
 30
0.0
 11
-1.1710507446
 21
34.4700040974
 31
0.0
  0
LINE
  5
200
100
AcDbEntity
  8
LAYER0
 62
         2
100
AcDbLine
 10
-1.4210507446
 20
36.1200040974
 30
0.0
 11
-1.4210507446
 21
38.7200040974
 31
0.0
  0
ARC
  5
201
100
AcDbEntity
  8
LAYER0
 62
         2
100
AcDbCircle
 10
-1.2710507446
 20
36.1200040974
 30
0.0
 40
0.15
210
0.0
220
0.0
230
1.0
100
AcDbArc
 50
180.0000030705
 51
269.9999984648
  0
ARC
  5
202
100
AcDbEntity
  8
LAYER0
 62
         2
100
AcDbCircle
 10
-1.2710507446
 20
34.3200040974
 30
0.0
 40
0.15
210
0.0
220
0.0
230
1.0
100
AcDbArc
 50
90.0000015352
 51
180.0000030705
  0
LINE
  5
203
100
AcDbEntity
  8
LAYER0
 62
         2
100
AcDbLine
 10
-1.1710507446
 20
26.9700040974
 30
0.0
 11
-1.2710507446
 21
26.9700040974
 31
0.0
  0
LINE
  5
204
100
AcDbEntity
  8
LAYER0
 62
         2
100
AcDbLine
 10
-1.2710507446
 20
28.4700040974
 30
0.0
 11
-1.1710507446
 21
28.4700040974
 31
0.0
  0
LINE
  5
205
100
AcDbEntity
  8
LAYER0
 62
         5
100
AcDbLine
 10
-10.1710507446
 20
32.7200040974
 30
0.0
 11
-10.1710507446
 21
31.8700040974
 31
0.0
  0
LINE
  5
206
100
AcDbEntity
  8
LAYER0
 62
         5
100
AcDbLine
 10
-10.1710507446
 20
31.0700040974
 30
0.0
 11
-10.1710507446
 21
30.2200040974
 31
0.0
  0
LINE
  5
207
100
AcDbEntity
  8
LAYER0
 62
         5
100
AcDbLine
 10
-10.6710507446
 20
30.2200040974
 30
0.0
 11
-10.6710507446
 21
31.0700040974
 31
0.0
  0
LINE
  5
208
100
AcDbEntity
  8
LAYER0
 62
         5
100
AcDbLine
 10
-10.6710507446
 20
31.8700040974
 30
0.0
 11
-10.6710507446
 21
32.7200040974
 31
0.0
  0
ARC
  5
209
100
AcDbEntity
  8
LAYER0
 62
         5
100
AcDbCircle
 10
-10.8210507446
 20
31.0700040974
 30
0.0
 40
0.15
210
0.0
220
-0.0
230
1.0
100
AcDbArc
 50
0.0
 51
90.0000015352
  0
ARC
  5
20A
100
AcDbEntity
  8
LAYER0
 62
         5
100
AcDbCircle
 10
-10.0210507446
 20
31.0700040974
 30
0.0
 40
0.15
210
0.0
220
0.0
230
1.0
100
AcDbArc
 50
90.0000015352
 51
180.0000030705
  0
ARC
  5
20B
100
AcDbEntity
  8
LAYER0
 62
         5
100
AcDbCircle
 10
-10.0210507446
 20
31.8700040974
 30
0.0
 40
0.15
210
0.0
220
0.0
230
1.0
100
AcDbArc
 50
180.0000030705
 51
269.9999984648
  0
ARC
  5
20C
100
AcDbEntity
  8
LAYER0
 62
         5
100
AcDbCircle
 10
-10.8210507446
 20
31.8700040974
 30
0.0
 40
0.15
210
-0.0
220
0.0
230
1.0
100
AcDbArc
 50
269.9999984648
 51
0.0
  0
LINE
  5
20D
100
AcDbEntity
  8
LAYER0
 62
         3
100
AcDbLine
 10
-6.5210507446
 20
45.4700040974
 30
0.0
 11
-14.3210507446
 21
45.4700040974
 31
0.0
  0
ARC
  5
20E
100
AcDbEntity
  8
LAYER0
 62
         3
100
AcDbCircle
 10
-14.3210507446
 20
44.9700040974
 30
0.0
 40
0.5
210
0.0
220
0.0
230
1.0
100
AcDbArc
 50
90.0000015352
 51
179.9999969295
  0
LINE
  5
20F
100
AcDbEntity
  8
LAYER0
 62
         4
100
AcDbLine
 10
-2.4210506031
 20
37.2200040974
 30
0.0
 11
-2.4210506031
 21
23.9700040974
 31
0.0
  0
LINE
  5
210
100
AcDbEntity
  8
LAYER0
 62
         4
100
AcDbLine
 10
-3.5710506031
 20
37.2200040974
 30
0.0
 11
-2.4210506031
 21
37.2200040974
 31
0.0
  0
LINE
  5
211
100
AcDbEntity
  8
LAYER0
 62
         4
100
AcDbLine
 10
-3.6710506031
 20
37.2200040974
 30
0.0
 11
-3.6710506031
 21
23.9700040974
 31
0.0
  0
ARC
  5
212
100
AcDbEntity
  8
LAYER0
 62
         4
100
AcDbCircle
 10
-2.4210506031
 20
23.9700040974
 30
0.0
 40
1.25
210
0.0
220
0.0
230
1.0
100
AcDbArc
 50
180.0000030705
 51
269.9999984648
  0
LINE
  5
213
100
AcDbEntity
  8
LAYER0
 62
         2
100
AcDbLine
 10
-12.9210507446
 20
37.9700040974
 30
0.0
 11
-12.9210507446
 21
24.9700040974
 31
0.0
  0
ARC
  5
214
100
AcDbEntity
  8
LAYER0
 62
         2
100
AcDbCircle
 10
-11.9210507446
 20
37.9700040974
 30
0.0
 40
1.0
210
0.0
220
0.0
230
1.0
100
AcDbArc
 50
90.0000015352
 51
180.0000030705
  0
ARC
  5
215
100
AcDbEntity
  8
LAYER0
 62
         2
100
AcDbCircle
 10
-11.9210507446
 20
24.9700040974
 30
0.0
 40
1.0
210
0.0
220
0.0
230
1.0
100
AcDbArc
 50
180.0000030705
 51
269.9999984648
  0
LINE
  5
216
100
AcDbEntity
  8
LAYER0
 62
         3
100
AcDbLine
 10
-13.2689269239
 20
25.9700040974
 30
0.0
 11
-7.5731745654
 21
25.9700040974
 31
0.0
  0
LINE
  5
217
100
AcDbEntity
  8
LAYER0
 62
         3
100
AcDbLine
 10
-10.8450498966
 20
20.6484027406
 30
0.0
 11
-13.6929260759
 21
25.2050046274
 31
0.0
  0
LINE
  5
218
100
AcDbEntity
  8
LAYER0
 62
         3
100
AcDbLine
 10
-9.9970515926
 20
20.6484027406
 30
0.0
 11
-7.1491754134
 21
25.2050046274
 31
0.0
  0
ARC
  5
219
100
AcDbEntity
  8
LAYER0
 62
         3
100
AcDbCircle
 10
-10.4210507446
 20
20.9134022106
 30
0.0
 40
0.5
210
0.0
220
0.0
230
1.0
100
AcDbArc
 50
212.0053806836
 51
327.994616246
  0
ARC
  5
21A
100
AcDbEntity
  8
LAYER0
 62
         3
100
AcDbCircle
 10
-13.2689269239
 20
25.4700040974
 30
0.0
 40
0.5
210
0.0
220
0.0
230
1.0
100
AcDbArc
 50
90.0000015352
 51
212.0053806836
  0
ARC
  5
21B
100
AcDbEntity
  8
LAYER0
 62
         3
100
AcDbCircle
 10
-7.5731745654
 20
25.4700040974
 30
0.0
 40
0.5
210
-0.0
220
-0.0
230
1.0
100
AcDbArc
 50
327.994616246
 51
90.0000015352
  0
LINE
  5
21C
100
AcDbEntity
  8
LAYER0
 62
         3
100
AcDbLine
 10
-13.2689269239
 20
36.9700040974
 30
0.0
 11
-7.5731745654
 21
36.9700040974
 31
0.0
  0
LINE
  5
21D
100
AcDbEntity
  8
LAYER0
 62
         3
100
AcDbLine
 10
-10.8450498966
 20
42.2916054542
 30
0.0
 11
-13.6929260759
 21
37.7350035674
 31
0.0
  0
ARC
  5
21E
100
AcDbEntity
  8
LAYER0
 62
         3
100
AcDbCircle
 10
-6.5210507446
 20
44.9700040974
 30
0.0
 40
0.5
210
0.0
220
-0.0
230
1.0
100
AcDbArc
 50
0.0
 51
90.0000015352
  0
LINE
  5
21F
100
AcDbEntity
  8
LAYER0
 62
         3
100
AcDbLine
 10
-6.0210507446
 20
17.9700040974
 30
0.0
 11
-6.0210507446
 21
44.9700040974
 31
0.0
  0
LINE
  5
220
100
AcDbEntity
  8
LAYER0
 62
         3
100
AcDbLine
 10
-14.8210507446
 20
17.9700040974
 30
0.0
 11
-14.8210507446
 21
44.9700040974
 31
0.0
  0
ARC
  5
221
100
AcDbEntity
  8
LAYER0
 62
         3
100
AcDbCircle
 10
-6.5210507446
 20
34.4700040974
 30
0.0
 40
0.5
210
-0.0
220
0.0
230
1.0
100
AcDbArc
 50
269.9999984648
 51
0.0
  0
ARC
  5
222
100
AcDbEntity
  8
LAYER0
 62
         3
100
AcDbCircle
 10
-6.1710507446
 20
34.1200040974
 30
0.0
 40
0.15
210
-0.0
220
0.0
230
1.0
100
AcDbArc
 50
269.9999984648
 51
0.0
  0
ARC
  5
223
100
AcDbEntity
  8
LAYER0
 62
         3
100
AcDbCircle
 10
-6.5210507446
 20
28.4700040974
 30
0.0
 40
0.5
210
0.0
220
-0.0
230
1.0
100
AcDbArc
 50
0.0
 51
90.0000015352
  0
ARC
  5
224
100
AcDbEntity
  8
LAYER0
 62
         3
100
AcDbCircle
 10
-6.1710507446
 20
28.8200040974
 30
0.0
 40
0.15
210
0.0
220
-0.0
230
1.0
100
AcDbArc
 50
0.0
 51
90.0000015352
  0
LINE
  5
225
100
AcDbEntity
  8
LAYER0
 62
         3
100
AcDbLine
 10
-6.5210507446
 20
17.4700040974
 30
0.0
 11
-14.3210507446
 21
17.4700040974
 31
0.0
  0
ARC
  5
226
100
AcDbEntity
  8
LAYER0
 62
         3
100
AcDbCircle
 10
-6.5210507446
 20
17.9700040974
 30
0.0
 40
0.5
210
-0.0
220
0.0
230
1.0
100
AcDbArc
 50
269.9999984648
 51
0.0
  0
ARC
  5
227
100
AcDbEntity
  8
LAYER0
 62
         3
100
AcDbCircle
 10
-14.3210507446
 20
17.9700040974
 30
0.0
 40
0.5
210
0.0
220
0.0
230
1.0
100
AcDbArc
 50
179.9999969295
 51
269.9999984648
  0
ARC
  5
228
100
AcDbEntity
  8
LAYER0
 62
         3
100
AcDbCircle
 10
-10.4210507446
 20
42.0266059842
 30
0.0
 40
0.5
210
0.0
220
-0.0
230
1.0
100
AcDbArc
 50
32.005383754
 51
147.9946193164
  0
ARC
  5
229
100
AcDbEntity
  8
LAYER0
 62
         3
100
AcDbCircle
 10
-13.2689269239
 20
37.4700040974
 30
0.0
 40
0.5
210
0.0
220
0.0
230
1.0
100
AcDbArc
 50
147.9946193164
 51
269.9999984648
  0
ARC
  5
22A
100
AcDbEntity
  8
LAYER0
 62
         3
100
AcDbCircle
 10
-7.5731745654
 20
37.4700040974
 30
0.0
 40
0.5
210
-0.0
220
0.0
230
1.0
100
AcDbArc
 50
269.9999984648
 51
32.005383754
  0
CIRCLE
  5
22B
100
AcDbEntity
  8
LAYER0
 62
         3
100
AcDbCircle
 10
-10.4210507446
 20
31.4700040974
 30
0.0
 40
2.1
210
0.0
220
0.0
230
1.0
  0
LINE
  5
22C
100
AcDbEntity
  8
LAYER0
 62
         2
100
AcDbLine
 10
-11.9210507446
 20
23.9700040974
 30
0.0
 11
-6.0460509383
 21
23.9700040974
 31
0.0
  0
LINE
  5
22D
100
AcDbEntity
  8
LAYER0
 62
         2
100
AcDbLine
 10
-6.0460509383
 20
38.9700040974
 30
0.0
 11
-11.9210507446
 21
38.9700040974
 31
0.0
  0
CIRCLE
  5
22E
100
AcDbEntity
  8
LAYER0
 62
         5
100
AcDbCircle
 10
-10.4210507446
 20
31.4700040974
 30
0.0
 40
2.0
210
0.0
220
0.0
230
1.0
  0
LINE
  5
22F
100
AcDbEntity
  8
LAYER0
 62
         5
100
AcDbLine
 10
-10.1710507446
 20
30.2200040974
 30
0.0
 11
-10.6710507446
 21
30.2200040974
 31
0.0
  0
LINE
  5
230
100
AcDbEntity
  8
LAYER0
 62
         5
100
AcDbLine
 10
-10.1710507446
 20
32.7200040974
 30
0.0
 11
-10.6710507446
 21
32.7200040974
 31
0.0
  0
LINE
  5
231
100
AcDbEntity
  8
LAYER0
 62
         5
100
AcDbLine
 10
-11.6710507446
 20
31.7200040974
 30
0.0
 11
-11.6710507446
 21
31.2200040974
 31
0.0
  0
LINE
  5
232
100
AcDbEntity
  8
LAYER0
 62
         5
100
AcDbLine
 10
-9.1710507446
 20
31.7200040974
 30
0.0
 11
-9.1710507446
 21
31.2200040974
 31
0.0
  0
LINE
  5
233
100
AcDbEntity
  8
LAYER0
 62
         5
100
AcDbLine
 10
-9.1710507446
 20
31.7200040974
 30
0.0
 11
-10.0210507446
 21
31.7200040974
 31
0.0
  0
LINE
  5
234
100
AcDbEntity
  8
LAYER0
 62
         5
100
AcDbLine
 10
-10.8210507446
 20
31.7200040974
 30
0.0
 11
-11.6710507446
 21
31.7200040974
 31
0.0
  0
LINE
  5
235
100
AcDbEntity
  8
LAYER0
 62
         5
100
AcDbLine
 10
-11.6710507446
 20
31.2200040974
 30
0.0
 11
-10.8210507446
 21
31.2200040974
 31
0.0
  0
LINE
  5
236
100
AcDbEntity
  8
LAYER0
 62
         5
100
AcDbLine
 10
-10.0210507446
 20
31.2200040974
 30
0.0
 11
-9.1710507446
 21
31.2200040974
 31
0.0
  0
LINE
  5
237
100
AcDbEntity
  8
LAYER0
 62
         6
100
AcDbLine
 10
-62.9210509681
 20
23.9700040974
 30
0.0
 11
-62.9210509681
 21
3.4425696215
 31
0.0
  0
LINE
  5
238
100
AcDbEntity
  8
LAYER0
 62
         6
100
AcDbLine
 10
-45.4210508936
 20
23.9700040974
 30
0.0
 11
-45.4210508936
 21
4.4974385733
 31
0.0
  0
LINE
  5
239
100
AcDbEntity
  8
LAYER0
 62
         6
100
AcDbLine
 10
-49.6710511246
 20
23.9700040974
 30
0.0
 11
-49.6710511246
 21
3.7480488645
 31
0.0
  0
ARC
  5
23A
100
AcDbEntity
  8
LAYER0
 62
         3
100
AcDbCircle
 10
5.0789493299
 20
17.9700040974
 30
0.0
 40
0.5
210
0.0
220
0.0
230
1.0
100
AcDbArc
 50
179.9999969295
 51
269.9999984648
  0
LINE
  5
23B
100
AcDbEntity
  8
LAYER0
 62
         4
100
AcDbLine
 10
2.8289493597
 20
22.7200040974
 30
0.0
 11
2.8289493597
 21
8.2200040974
 31
0.0
  0
INSERT
  5
23D
100
AcDbEntity
  8
0
100
AcDbBlockReference
  2
CLUMP16
 10
0.0
 20
0.0
 30
0.0
  0
INSERT
  5
252
100
AcDbEntity
  8
0
100
AcDbBlockReference
  2
CLUMP18
 10
0.0
 20
0.0
 30
0.0
  0
LINE
  5
266
100
AcDbEntity
  8
LAYER3
 62
         4
100
AcDbLine
 10
-29.8707972809
 20
31.4700040974
 30
0.0
 11
-29.2470622085
 21
34.4044468996
 31
0.0
  0
LINE
  5
267
100
AcDbEntity
  8
LAYER3
 62
         4
100
AcDbLine
 10
-29.8707972809
 20
31.4700040974
 30
0.0
 11
-30.4945323534
 21
34.4044468996
 31
0.0
  0
MTEXT
  5
268
100
AcDbEntity
  8
LAYER3
100
AcDbMText
 10
-31.7646266266
 20
37.27000406
 30
0.0
 40
1.0736841679
 41
1.282322998
 71
         1
 72
         1
  1
\W0.8;28
 11
-0.0000000268
 21
1.0
 31
0.0
  0
LINE
  5
269
100
AcDbEntity
  8
LAYER3
 62
         4
100
AcDbLine
 10
-22.4173447415
 20
31.4700040974
 30
0.0
 11
-30.3707972809
 21
31.4700040974
 31
0.0
  0
LINE
  5
26A
100
AcDbEntity
  8
LAYER3
 62
         4
100
AcDbLine
 10
-15.4210505509
 20
45.4700040974
 30
0.0
 11
-30.3707972809
 21
45.4700040974
 31
0.0
  0
LINE
  5
26B
100
AcDbEntity
  8
LAYER3
 62
         4
100
AcDbLine
 10
-29.8707972809
 20
45.4700040974
 30
0.0
 11
-29.8707972809
 21
31.4700040974
 31
0.0
  0
LINE
  5
26C
100
AcDbEntity
  8
LAYER3
 62
         4
100
AcDbLine
 10
-29.8707972809
 20
45.4700040974
 30
0.0
 11
-30.4945323534
 21
42.5355612952
 31
0.0
  0
LINE
  5
26D
100
AcDbEntity
  8
LAYER3
 62
         4
100
AcDbLine
 10
-29.8707972809
 20
45.4700040974
 30
0.0
 11
-29.2470622085
 21
42.5355612952
 31
0.0
  0
ARC
  5
26E
100
AcDbEntity
  8
LAYER0
 62
         4
100
AcDbCircle
 10
-3.9210507074
 20
7.2200040974
 30
0.0
 40
0.75
210
0.0
220
0.0
230
1.0
100
AcDbArc
 50
180.0000030705
 51
269.9999984648
  0
LINE
  5
26F
100
AcDbEntity
  8
LAYER0
 62
         4
100
AcDbLine
 10
-1.9210507074
 20
51.2200040974
 30
0.0
 11
-3.9210507074
 21
51.2200040974
 31
0.0
  0
LINE
  5
270
100
AcDbEntity
  8
LAYER0
 62
         4
100
AcDbLine
 10
-1.9210507074
 20
51.9700040974
 30
0.0
 11
-3.9210507074
 21
51.9700040974
 31
0.0
  0
LINE
  5
271
100
AcDbEntity
  8
LAYER0
 62
         4
100
AcDbLine
 10
-1.9210507074
 20
51.9700040974
 30
0.0
 11
-1.9210507074
 21
51.2200040974
 31
0.0
  0
LINE
  5
272
100
AcDbEntity
  8
LAYER0
 62
         3
100
AcDbLine
 10
-6.1710507446
 20
33.9700040974
 30
0.0
 11
-14.6710507446
 21
33.9700040974
 31
0.0
  0
ARC
  5
273
100
AcDbEntity
  8
LAYER0
 62
         3
100
AcDbCircle
 10
-14.3210507446
 20
34.4700040974
 30
0.0
 40
0.5
210
0.0
220
0.0
230
1.0
100
AcDbArc
 50
179.9999969295
 51
269.9999984648
  0
ARC
  5
274
100
AcDbEntity
  8
LAYER0
 62
         3
100
AcDbCircle
 10
-14.6710507446
 20
34.1200040974
 30
0.0
 40
0.15
210
0.0
220
0.0
230
1.0
100
AcDbArc
 50
179.9999969295
 51
269.9999984648
  0
LINE
  5
275
100
AcDbEntity
  8
LAYER0
 62
         3
100
AcDbLine
 10
-6.1710507446
 20
28.9700040974
 30
0.0
 11
-14.6710507446
 21
28.9700040974
 31
0.0
  0
ARC
  5
276
100
AcDbEntity
  8
LAYER0
 62
         3
100
AcDbCircle
 10
-14.3210507446
 20
28.4700040974
 30
0.0
 40
0.5
210
0.0
220
0.0
230
1.0
100
AcDbArc
 50
90.0000015352
 51
179.9999969295
  0
ARC
  5
277
100
AcDbEntity
  8
LAYER0
 62
         3
100
AcDbCircle
 10
-14.6710507446
 20
28.8200040974
 30
0.0
 40
0.15
210
0.0
220
0.0
230
1.0
100
AcDbArc
 50
90.0000015352
 51
179.9999969295
  0
ARC
  5
278
100
AcDbEntity
  8
LAYER0
 62
         3
100
AcDbCircle
 10
-41.2710509309
 20
28.4700040974
 30
0.0
 40
0.5
210
0.0
220
-0.0
230
1.0
100
AcDbArc
 50
0.0
 51
90.0000015352
  0
LINE
  5
279
100
AcDbEntity
  8
LAYER0
 62
         3
100
AcDbLine
 10
-40.7710509309
 20
28.4700040974
 30
0.0
 11
-40.7710509309
 21
18.7200040974
 31
0.0
  0
LINE
  5
27A
100
AcDbEntity
  8
LAYER0
 62
         3
100
AcDbLine
 10
-40.7710509309
 20
34.4700040974
 30
0.0
 11
-40.7710509309
 21
44.2200040974
 31
0.0
  0
LINE
  5
27B
100
AcDbEntity
  8
LAYER0
 62
         3
100
AcDbLine
 10
-42.0210509309
 20
28.9700040974
 30
0.0
 11
-42.0210509309
 21
31.4700040974
 31
0.0
  0
LINE
  5
27C
100
AcDbEntity
  8
LAYER0
 62
         3
100
AcDbLine
 10
-42.0210509309
 20
17.4700040974
 30
0.0
 11
-43.2710509309
 21
17.4700040974
 31
0.0
  0
ARC
  5
27D
100
AcDbEntity
  8
LAYER0
 62
         3
100
AcDbCircle
 10
-42.0210509309
 20
18.7200040974
 30
0.0
 40
1.25
210
-0.0
220
0.0
230
1.0
100
AcDbArc
 50
269.9999984648
 51
0.0
  0
ARC
  5
27E
100
AcDbEntity
  8
LAYER0
 62
         3
100
AcDbCircle
 10
-46.5210509309
 20
21.0515635777
 30
0.0
 40
1.75
210
0.0
220
0.0
230
1.0
100
AcDbArc
 50
179.9999969295
 51
243.4349468345
  0
LINE
  5
27F
100
AcDbEntity
  8
LAYER0
 62
         3
100
AcDbLine
 10
-42.0210509309
 20
33.9700040974
 30
0.0
 11
-42.0210509309
 21
31.4700040974
 31
0.0
  0
LINE
  5
280
100
AcDbEntity
  8
LAYER0
 62
         3
100
AcDbLine
 10
-42.0210509309
 20
45.4700040974
 30
0.0
 11
-43.2710509309
 21
45.4700040974
 31
0.0
  0
ARC
  5
281
100
AcDbEntity
  8
LAYER0
 62
         3
100
AcDbCircle
 10
-42.0210509309
 20
44.2200040974
 30
0.0
 40
1.25
210
0.0
220
-0.0
230
1.0
100
AcDbArc
 50
0.0
 51
90.0000015352
  0
ARC
  5
282
100
AcDbEntity
  8
LAYER0
 62
         3
100
AcDbCircle
 10
-46.5210509309
 20
41.8884446171
 30
0.0
 40
1.75
210
0.0
220
0.0
230
1.0
100
AcDbArc
 50
116.5650531655
 51
180.0000030705
  0
LINE
  5
283
100
AcDbEntity
  8
LAYER0
 62
         2
100
AcDbLine
 10
-44.2710509309
 20
38.9700040974
 30
0.0
 11
-44.2710509309
 21
23.9700040974
 31
0.0
  0
LINE
  5
284
100
AcDbEntity
  8
LAYER0
 62
         2
100
AcDbLine
 10
-64.0710509309
 20
38.9700040974
 30
0.0
 11
-64.0710509309
 21
23.9700040974
 31
0.0
  0
LINE
  5
285
100
AcDbEntity
  8
LAYER0
 62
         2
100
AcDbLine
 10
-44.2710509309
 20
38.9700040974
 30
0.0
 11
-64.0710509309
 21
38.9700040974
 31
0.0
  0
LINE
  5
286
100
AcDbEntity
  8
LAYER0
 62
         2
100
AcDbLine
 10
-64.0710509309
 20
23.9700040974
 30
0.0
 11
-44.2710509309
 21
23.9700040974
 31
0.0
  0
LINE
  5
287
100
AcDbEntity
  8
LAYER0
 62
         2
100
AcDbLine
 10
-48.4210509309
 20
35.9700040974
 30
0.0
 11
-54.1710509309
 21
35.9700040974
 31
0.0
  0
LINE
  5
288
100
AcDbEntity
  8
LAYER0
 62
         2
100
AcDbLine
 10
-48.4210509309
 20
34.4700040974
 30
0.0
 11
-54.1710509309
 21
34.4700040974
 31
0.0
  0
LINE
  5
289
100
AcDbEntity
  8
LAYER4
 62
         2
100
AcDbLine
 10
-53.9974027532
 20
2.9851963444
 30
0.0
 11
-54.3446991085
 21
4.9548118504
 31
0.0
  0
LINE
  5
28A
100
AcDbEntity
  8
LAYER4
 62
         2
100
AcDbLine
 10
-53.9974027532
 20
2.9851963444
 30
0.0
 11
-43.9965743747
 21
4.7486122169
 31
0.0
  0
LINE
  5
28B
100
AcDbEntity
  8
LAYER4
 62
         2
100
AcDbLine
 10
-54.3446991085
 20
4.9548118504
 30
0.0
 11
-64.6297502438
 21
3.1412798373
 31
0.0
  0
LINE
  5
28C
100
AcDbEntity
  8
LAYER4
 62
         5
100
AcDbLine
 10
-53.8710509309
 20
6.4700040974
 30
0.0
 11
-53.8710509309
 21
3.0074755797
 31
0.0
  0
LINE
  5
28D
100
AcDbEntity
  8
LAYER4
 62
         5
100
AcDbLine
 10
-53.8710509309
 20
6.4700040974
 30
0.0
 11
-53.8710509309
 21
3.0074755797
 31
0.0
  0
LINE
  5
28E
100
AcDbEntity
  8
LAYER4
 62
         5
100
AcDbLine
 10
-54.4710509309
 20
4.932532615
 30
0.0
 11
-54.4710509309
 21
6.4700040974
 31
0.0
  0
LINE
  5
28F
100
AcDbEntity
  8
LAYER0
  6
CENTER
100
AcDbLine
 10
-67.8210509309
 20
31.4700040974
 30
0.0
 11
-40.5210509309
 21
31.4700040974
 31
0.0
  0
LINE
  5
290
100
AcDbEntity
  8
LAYER0
 62
         6
100
AcDbLine
 10
-58.6710507372
 20
23.9700040974
 30
0.0
 11
-58.6710507372
 21
4.1919593302
 31
0.0
  0
ARC
  5
291
100
AcDbEntity
  8
LAYER0
 62
         3
100
AcDbCircle
 10
-67.0710509309
 20
28.4700040974
 30
0.0
 40
0.5
210
0.0
220
0.0
230
1.0
100
AcDbArc
 50
90.0000015352
 51
180.0000030705
  0
LINE
  5
292
100
AcDbEntity
  8
LAYER0
 62
         3
100
AcDbLine
 10
-67.5710509309
 20
28.4700040974
 30
0.0
 11
-67.5710509309
 21
18.7200040974
 31
0.0
  0
LINE
  5
293
100
AcDbEntity
  8
LAYER0
 62
         3
100
AcDbLine
 10
-67.5710509309
 20
34.4700040974
 30
0.0
 11
-67.5710509309
 21
44.2200040974
 31
0.0
  0
LINE
  5
294
100
AcDbEntity
  8
LAYER0
 62
         3
100
AcDbLine
 10
-66.3210509309
 20
28.9700040974
 30
0.0
 11
-66.3210509309
 21
31.4700040974
 31
0.0
  0
LINE
  5
295
100
AcDbEntity
  8
LAYER0
 62
         3
100
AcDbLine
 10
-66.3210509309
 20
17.4700040974
 30
0.0
 11
-65.0710509309
 21
17.4700040974
 31
0.0
  0
ARC
  5
296
100
AcDbEntity
  8
LAYER0
 62
         3
100
AcDbCircle
 10
-66.3210509309
 20
18.7200040974
 30
0.0
 40
1.25
210
0.0
220
0.0
230
1.0
100
AcDbArc
 50
180.0000030705
 51
269.9999984648
  0
ARC
  5
297
100
AcDbEntity
  8
LAYER0
 62
         3
100
AcDbCircle
 10
-61.8210509309
 20
21.0515635777
 30
0.0
 40
1.75
210
-0.0
220
0.0
230
1.0
100
AcDbArc
 50
296.565050095
 51
0.0
  0
LINE
  5
298
100
AcDbEntity
  8
LAYER0
 62
         3
100
AcDbLine
 10
-66.3210509309
 20
33.9700040974
 30
0.0
 11
-66.3210509309
 21
31.4700040974
 31
0.0
  0
LINE
  5
299
100
AcDbEntity
  8
LAYER0
 62
         3
100
AcDbLine
 10
-66.3210509309
 20
45.4700040974
 30
0.0
 11
-65.0710509309
 21
45.4700040974
 31
0.0
  0
ARC
  5
29A
100
AcDbEntity
  8
LAYER0
 62
         3
100
AcDbCircle
 10
-66.3210509309
 20
44.2200040974
 30
0.0
 40
1.25
210
0.0
220
0.0
230
1.0
100
AcDbArc
 50
90.0000015352
 51
180.0000030705
  0
ARC
  5
29B
100
AcDbEntity
  8
LAYER0
 62
         3
100
AcDbCircle
 10
-61.8210509309
 20
41.8884446171
 30
0.0
 40
1.75
210
0.0
220
0.0
230
1.0
100
AcDbArc
 50
0.0
 51
63.434949905
  0
ARC
  5
29C
100
AcDbEntity
  8
LAYER0
 62
         2
100
AcDbCircle
 10
-48.4210509309
 20
35.2200040974
 30
0.0
 40
0.75
210
0.0
220
0.0
230
1.0
100
AcDbArc
 50
269.9999984648
 51
90.0000015352
  0
LINE
  5
29D
100
AcDbEntity
  8
LAYER0
 62
         2
100
AcDbLine
 10
-59.9210509309
 20
35.9700040974
 30
0.0
 11
-54.1710509309
 21
35.9700040974
 31
0.0
  0
LINE
  5
29E
100
AcDbEntity
  8
LAYER0
 62
         2
100
AcDbLine
 10
-59.9210509309
 20
34.4700040974
 30
0.0
 11
-54.1710509309
 21
34.4700040974
 31
0.0
  0
ARC
  5
29F
100
AcDbEntity
  8
LAYER0
 62
         2
100
AcDbCircle
 10
-59.9210509309
 20
35.2200040974
 30
0.0
 40
0.75
210
0.0
220
0.0
230
1.0
100
AcDbArc
 50
90.0000015352
 51
269.9999984648
  0
LINE
  5
2A0
100
AcDbEntity
  8
LAYER0
 62
         2
100
AcDbLine
 10
-48.4210509309
 20
26.9700040974
 30
0.0
 11
-54.1710509309
 21
26.9700040974
 31
0.0
  0
LINE
  5
2A1
100
AcDbEntity
  8
LAYER0
 62
         2
100
AcDbLine
 10
-48.4210509309
 20
28.4700040974
 30
0.0
 11
-54.1710509309
 21
28.4700040974
 31
0.0
  0
ARC
  5
2A2
100
AcDbEntity
  8
LAYER0
 62
         2
100
AcDbCircle
 10
-48.4210509309
 20
27.7200040974
 30
0.0
 40
0.75
210
0.0
220
0.0
230
1.0
100
AcDbArc
 50
269.9999984648
 51
90.0000015352
  0
LINE
  5
2A3
100
AcDbEntity
  8
LAYER0
 62
         2
100
AcDbLine
 10
-59.9210509309
 20
26.9700040974
 30
0.0
 11
-54.1710509309
 21
26.9700040974
 31
0.0
  0
LINE
  5
2A4
100
AcDbEntity
  8
LAYER0
 62
         2
100
AcDbLine
 10
-59.9210509309
 20
28.4700040974
 30
0.0
 11
-54.1710509309
 21
28.4700040974
 31
0.0
  0
ARC
  5
2A5
100
AcDbEntity
  8
LAYER0
 62
         2
100
AcDbCircle
 10
-59.9210509309
 20
27.7200040974
 30
0.0
 40
0.75
210
0.0
220
0.0
230
1.0
100
AcDbArc
 50
90.0000015352
 51
269.9999984648
  0
LINE
  5
2A6
100
AcDbEntity
  8
LAYER0
 62
         3
100
AcDbLine
 10
-44.2710509309
 20
23.8700040974
 30
0.0
 11
-44.2710509309
 21
39.0700040974
 31
0.0
  0
LINE
  5
2A7
100
AcDbEntity
  8
LAYER0
 62
         3
100
AcDbLine
 10
-42.0210509309
 20
28.9700040974
 30
0.0
 11
-41.2710509309
 21
28.9700040974
 31
0.0
  0
LINE
  5
2A8
100
AcDbEntity
  8
LAYER0
 62
         3
100
AcDbLine
 10
-42.0210509309
 20
33.9700040974
 30
0.0
 11
-41.2710509309
 21
33.9700040974
 31
0.0
  0
ARC
  5
2A9
100
AcDbEntity
  8
LAYER0
 62
         3
100
AcDbCircle
 10
-41.2710509309
 20
34.4700040974
 30
0.0
 40
0.5
210
-0.0
220
0.0
230
1.0
100
AcDbArc
 50
269.9999984648
 51
0.0
  0
LINE
  5
2AA
100
AcDbEntity
  8
LAYER0
 62
         3
100
AcDbLine
 10
-62.9210509681
 20
44.395004116
 30
0.0
 11
-65.0710509309
 21
45.4700040974
 31
0.0
  0
LINE
  5
2AB
100
AcDbEntity
  8
LAYER0
 62
         3
100
AcDbLine
 10
-61.0384271388
 20
19.4863159934
 30
0.0
 11
-62.9210509681
 21
18.5450040787
 31
0.0
  0
LINE
  5
2AC
100
AcDbEntity
  8
LAYER0
 62
         3
100
AcDbLine
 10
-62.9210509681
 20
18.5450040787
 30
0.0
 11
-65.0710509309
 21
17.4700040974
 31
0.0
  0
LINE
  5
2AD
100
AcDbEntity
  8
LAYER0
 62
         3
100
AcDbLine
 10
-60.0710509309
 20
23.8700040974
 30
0.0
 11
-62.9210509681
 21
23.8700040974
 31
0.0
  0
LINE
  5
2AE
100
AcDbEntity
  8
LAYER0
 62
         3
100
AcDbLine
 10
-62.9210509681
 20
23.8700040974
 30
0.0
 11
-64.0710509309
 21
23.8700040974
 31
0.0
  0
LINE
  5
2AF
100
AcDbEntity
  8
LAYER0
 62
         3
100
AcDbLine
 10
-60.0710509309
 20
39.0700040974
 30
0.0
 11
-62.9210509681
 21
39.0700040974
 31
0.0
  0
LINE
  5
2B0
100
AcDbEntity
  8
LAYER0
 62
         3
100
AcDbLine
 10
-62.9210509681
 20
39.0700040974
 30
0.0
 11
-64.0710509309
 21
39.0700040974
 31
0.0
  0
LINE
  5
2B1
100
AcDbEntity
  8
LAYER0
 62
         4
100
AcDbLine
 10
-56.1710509309
 20
51.9700040974
 30
0.0
 11
-52.1710509309
 21
51.9700040974
 31
0.0
  0
LINE
  5
2B2
100
AcDbEntity
  8
LAYER0
 62
         4
100
AcDbLine
 10
-56.1710509309
 20
51.2200040974
 30
0.0
 11
-52.1710509309
 21
51.2200040974
 31
0.0
  0
LINE
  5
2B3
100
AcDbEntity
  8
LAYER0
  6
CENTER
100
AcDbLine
 10
-51.1710509309
 20
45.4700040974
 30
0.0
 11
-57.1710509309
 21
45.4700040974
 31
0.0
  0
LINE
  5
2B4
100
AcDbEntity
  8
LAYER0
 62
         4
100
AcDbLine
 10
-52.1710509309
 20
51.2200040974
 30
0.0
 11
-52.1710509309
 21
52.0950040974
 31
0.0
  0
LINE
  5
2B5
100
AcDbEntity
  8
LAYER0
 62
         3
100
AcDbLine
 10
-48.2710509309
 20
21.0515635777
 30
0.0
 11
-48.2710509309
 21
23.9700040974
 31
0.0
  0
LINE
  5
2B6
100
AcDbEntity
  8
LAYER0
 62
         3
100
AcDbLine
 10
-48.2710509309
 20
38.9700040974
 30
0.0
 11
-48.2710509309
 21
41.8884446171
 31
0.0
  0
LINE
  5
2B7
100
AcDbEntity
  8
LAYER0
 62
         3
100
AcDbLine
 10
-47.303674723
 20
43.4536922013
 30
0.0
 11
-45.4210508936
 21
44.395004116
 31
0.0
  0
LINE
  5
2B8
100
AcDbEntity
  8
LAYER0
 62
         3
100
AcDbLine
 10
-45.4210508936
 20
44.395004116
 30
0.0
 11
-43.2710509309
 21
45.4700040974
 31
0.0
  0
LINE
  5
2B9
100
AcDbEntity
  8
LAYER0
 62
         3
100
AcDbLine
 10
-47.303674723
 20
19.4863159934
 30
0.0
 11
-45.4210508936
 21
18.5450040787
 31
0.0
  0
LINE
  5
2BA
100
AcDbEntity
  8
LAYER0
 62
         3
100
AcDbLine
 10
-45.4210508936
 20
18.5450040787
 30
0.0
 11
-43.2710509309
 21
17.4700040974
 31
0.0
  0
LINE
  5
2BB
100
AcDbEntity
  8
LAYER0
 62
         3
100
AcDbLine
 10
-48.2710509309
 20
23.8700040974
 30
0.0
 11
-45.4210508936
 21
23.8700040974
 31
0.0
  0
LINE
  5
2BC
100
AcDbEntity
  8
LAYER0
 62
         3
100
AcDbLine
 10
-45.4210508936
 20
23.8700040974
 30
0.0
 11
-44.2710509309
 21
23.8700040974
 31
0.0
  0
LINE
  5
2BD
100
AcDbEntity
  8
LAYER0
 62
         3
100
AcDbLine
 10
-48.2710509309
 20
39.0700040974
 30
0.0
 11
-45.4210508936
 21
39.0700040974
 31
0.0
  0
LINE
  5
2BE
100
AcDbEntity
  8
LAYER0
 62
         3
100
AcDbLine
 10
-45.4210508936
 20
39.0700040974
 30
0.0
 11
-44.2710509309
 21
39.0700040974
 31
0.0
  0
LINE
  5
2BF
100
AcDbEntity
  8
LAYER0
 62
         3
100
AcDbLine
 10
-64.0710509309
 20
23.8700040974
 30
0.0
 11
-64.0710509309
 21
39.0700040974
 31
0.0
  0
LINE
  5
2C0
100
AcDbEntity
  8
LAYER0
 62
         3
100
AcDbLine
 10
-66.3210509309
 20
28.9700040974
 30
0.0
 11
-67.0710509309
 21
28.9700040974
 31
0.0
  0
LINE
  5
2C1
100
AcDbEntity
  8
LAYER0
 62
         3
100
AcDbLine
 10
-66.3210509309
 20
33.9700040974
 30
0.0
 11
-67.0710509309
 21
33.9700040974
 31
0.0
  0
ARC
  5
2C2
100
AcDbEntity
  8
LAYER0
 62
         3
100
AcDbCircle
 10
-67.0710509309
 20
34.4700040974
 30
0.0
 40
0.5
210
0.0
220
0.0
230
1.0
100
AcDbArc
 50
180.0000030705
 51
269.9999984648
  0
LINE
  5
2C3
100
AcDbEntity
  8
LAYER3
 62
         4
100
AcDbLine
 10
-75.5759291185
 20
45.4700040974
 30
0.0
 11
-76.1996641909
 21
42.5355612952
 31
0.0
  0
LINE
  5
2C4
100
AcDbEntity
  8
LAYER3
 62
         4
100
AcDbLine
 10
-75.5759291185
 20
45.4700040974
 30
0.0
 11
-74.952194046
 21
42.5355612952
 31
0.0
  0
LINE
  5
2C5
100
AcDbEntity
  8
LAYER3
 62
         4
100
AcDbLine
 10
-75.5759291185
 20
17.4700040974
 30
0.0
 11
-74.952194046
 21
20.4044468996
 31
0.0
  0
LINE
  5
2C6
100
AcDbEntity
  8
LAYER3
 62
         4
100
AcDbLine
 10
-75.5759291185
 20
17.4700040974
 30
0.0
 11
-76.1996641909
 21
20.4044468996
 31
0.0
  0
MTEXT
  5
2C7
100
AcDbEntity
  8
LAYER3
100
AcDbMText
 10
-77.4697584642
 20
30.27000406
 30
0.0
 40
1.0736841679
 41
1.282322998
 71
         1
 72
         1
  1
\W0.8;56
 11
-0.0000000268
 21
1.0
 31
0.0
  0
INSERT
  5
2C9
100
AcDbEntity
  8
0
100
AcDbBlockReference
  2
CLUMP20
 10
0.0
 20
0.0
 30
0.0
  0
INSERT
  5
2E1
100
AcDbEntity
  8
0
100
AcDbBlockReference
  2
CLUMP22
 10
0.0
 20
0.0
 30
0.0
  0
LINE
  5
2F8
100
AcDbEntity
  8
LAYER3
 62
         4
100
AcDbLine
 10
-64.5710509309
 20
38.9700040974
 30
0.0
 11
-72.1673654309
 21
38.9700040974
 31
0.0
  0
LINE
  5
2F9
100
AcDbEntity
  8
LAYER3
 62
         4
100
AcDbLine
 10
-64.5710509309
 20
23.9700040974
 30
0.0
 11
-72.1673654309
 21
23.9700040974
 31
0.0
  0
LINE
  5
2FA
100
AcDbEntity
  8
LAYER3
 62
         4
100
AcDbLine
 10
-71.6673654309
 20
38.9700040974
 30
0.0
 11
-71.6673654309
 21
23.9700040974
 31
0.0
  0
LINE
  5
2FB
100
AcDbEntity
  8
LAYER3
 62
         4
100
AcDbLine
 10
-71.6673654309
 20
38.9700040974
 30
0.0
 11
-72.2911005034
 21
36.0355612952
 31
0.0
  0
LINE
  5
2FC
100
AcDbEntity
  8
LAYER3
 62
         4
100
AcDbLine
 10
-71.6673654309
 20
38.9700040974
 30
0.0
 11
-71.0436303585
 21
36.0355612952
 31
0.0
  0
LINE
  5
2FD
100
AcDbEntity
  8
LAYER3
 62
         4
100
AcDbLine
 10
-71.6673654309
 20
23.9700040974
 30
0.0
 11
-71.0436303585
 21
26.9044468996
 31
0.0
  0
LINE
  5
2FE
100
AcDbEntity
  8
LAYER0
 62
         4
100
AcDbLine
 10
-49.9210509309
 20
7.2200040974
 30
0.0
 11
-58.4210509309
 21
7.2200040974
 31
0.0
  0
LINE
  5
2FF
100
AcDbEntity
  8
LAYER0
 62
         4
100
AcDbLine
 10
-58.4210509309
 20
6.4700040974
 30
0.0
 11
-49.9210509309
 21
6.4700040974
 31
0.0
  0
LINE
  5
300
100
AcDbEntity
  8
LAYER0
 62
         4
100
AcDbLine
 10
-58.4210509309
 20
23.9700040974
 30
0.0
 11
-58.4210509309
 21
6.4700040974
 31
0.0
  0
LINE
  5
301
100
AcDbEntity
  8
LAYER0
 62
         4
100
AcDbLine
 10
-49.9210509309
 20
23.9700040974
 30
0.0
 11
-49.9210509309
 21
6.4700040974
 31
0.0
  0
LINE
  5
302
100
AcDbEntity
  8
LAYER0
  6
CENTER
100
AcDbLine
 10
-51.1710509309
 20
15.4700040974
 30
0.0
 11
-57.1710509309
 21
15.4700040974
 31
0.0
  0
CIRCLE
  5
303
100
AcDbEntity
  8
LAYER3
 62
         5
100
AcDbCircle
 10
-54.1710509309
 20
15.4700040974
 30
0.0
 40
1.75
210
0.0
220
0.0
230
1.0
  0
LINE
  5
304
100
AcDbEntity
  8
LAYER0
 62
         4
100
AcDbLine
 10
-56.1710509309
 20
51.2200040974
 30
0.0
 11
-56.1710509309
 21
52.0950040974
 31
0.0
  0
LINE
  5
305
100
AcDbEntity
  8
LAYER3
 62
         2
100
AcDbLine
 10
-58.3710509309
 20
52.0950040974
 30
0.0
 11
-49.9710509309
 21
52.0950040974
 31
0.0
  0
CIRCLE
  5
306
100
AcDbEntity
  8
LAYER3
 62
         5
100
AcDbCircle
 10
-54.1710509309
 20
45.4700040974
 30
0.0
 40
1.75
210
0.0
220
0.0
230
1.0
  0
LINE
  5
307
100
AcDbEntity
  8
LAYER0
 62
         3
100
AcDbLine
 10
-60.0710509309
 20
21.0515635777
 30
0.0
 11
-60.0710509309
 21
23.9700040974
 31
0.0
  0
LINE
  5
308
100
AcDbEntity
  8
LAYER0
 62
         3
100
AcDbLine
 10
-60.0710509309
 20
38.9700040974
 30
0.0
 11
-60.0710509309
 21
41.8884446171
 31
0.0
  0
LINE
  5
309
100
AcDbEntity
  8
LAYER0
 62
         3
100
AcDbLine
 10
-61.0384271388
 20
43.4536922013
 30
0.0
 11
-62.9210509681
 21
44.395004116
 31
0.0
  0
LINE
  5
30A
100
AcDbEntity
  8
LAYER0
 62
         5
100
AcDbLine
 10
56.3289490691
 20
-86.5143754741
 30
0.0
 11
55.6489490691
 21
-86.5143754741
 31
0.0
  0
LINE
  5
30B
100
AcDbEntity
  8
LAYER0
 62
         5
100
AcDbLine
 10
55.6489490691
 20
-86.9143754741
 30
0.0
 11
56.3289490691
 21
-86.9143754741
 31
0.0
  0
LINE
  5
30C
100
AcDbEntity
  8
LAYER0
 62
         5
100
AcDbLine
 10
55.5289490691
 20
-85.7143754741
 30
0.0
 11
55.5289490691
 21
-86.3943754741
 31
0.0
  0
LINE
  5
30D
100
AcDbEntity
  8
LAYER0
 62
         5
100
AcDbLine
 10
55.5289490691
 20
-87.0343754741
 30
0.0
 11
55.5289490691
 21
-87.7143754741
 31
0.0
  0
LINE
  5
30E
100
AcDbEntity
  8
LAYER0
 62
         5
100
AcDbLine
 10
55.1289490691
 20
-87.7143754741
 30
0.0
 11
55.1289490691
 21
-87.0343754741
 31
0.0
  0
LINE
  5
30F
100
AcDbEntity
  8
LAYER0
 62
         5
100
AcDbLine
 10
55.1289490691
 20
-86.3943754741
 30
0.0
 11
55.1289490691
 21
-85.7143754741
 31
0.0
  0
ARC
  5
310
100
AcDbEntity
  8
LAYER0
 62
         5
100
AcDbCircle
 10
55.6489490691
 20
-87.0343754741
 30
0.0
 40
0.12
210
0.0
220
0.0
230
1.0
100
AcDbArc
 50
90.0000015352
 51
180.0000030705
  0
ARC
  5
311
100
AcDbEntity
  8
LAYER0
 62
         5
100
AcDbCircle
 10
55.6489490691
 20
-86.3943754741
 30
0.0
 40
0.12
210
0.0
220
0.0
230
1.0
100
AcDbArc
 50
180.0000030705
 51
269.9999984648
  0
LINE
  5
312
100
AcDbEntity
  8
LAYER0
 62
         5
100
AcDbLine
 10
55.5289490691
 20
-94.2143754741
 30
0.0
 11
55.1289490691
 21
-94.2143754741
 31
0.0
  0
LINE
  5
313
100
AcDbEntity
  8
LAYER0
 62
         5
100
AcDbLine
 10
55.5289490691
 20
-92.2143754741
 30
0.0
 11
55.1289490691
 21
-92.2143754741
 31
0.0
  0
LINE
  5
314
100
AcDbEntity
  8
LAYER0
 62
         5
100
AcDbLine
 10
56.3289490691
 20
-93.0143754741
 30
0.0
 11
56.3289490691
 21
-93.4143754741
 31
0.0
  0
LINE
  5
315
100
AcDbEntity
  8
LAYER0
 62
         5
100
AcDbLine
 10
56.3289490691
 20
-93.0143754741
 30
0.0
 11
55.6489490691
 21
-93.0143754741
 31
0.0
  0
LINE
  5
316
100
AcDbEntity
  8
LAYER0
 62
         3
100
AcDbLine
 10
95.0
 20
-138.5
 30
0.0
 11
95.0
 21
-125.5
 31
0.0
  0
MTEXT
  5
317
100
AcDbEntity
  8
LAYER0
100
AcDbMText
 10
72.5158633528
 20
-126.7970201517
 30
0.0
 40
2.1473683357
 41
10.2585839844
 71
         1
 72
         1
  1
\W0.8;管理図番
  0
LINE
  5
318
100
AcDbEntity
  8
LAYER0
 62
         3
100
AcDbLine
 10
60.0
 20
-125.5
 30
0.0
 11
60.0
 21
-138.5
 31
0.0
  0
MTEXT
  5
319
100
AcDbEntity
  8
LAYER0
100
AcDbMText
 10
63.2094419132
 20
-133.4320933667
 30
0.0
 40
1.9790146708
 41
15.3632554732
 71
         1
 72
         1
  1
\W0.8;B56160/B56161
  0
LINE
  5
31A
100
AcDbEntity
  8
LAYER3
 62
         4
100
AcDbLine
 10
16.6781427395
 20
-59.9643754741
 30
0.0
 11
16.054407667
 21
-62.8988182763
 31
0.0
  0
LINE
  5
31B
100
AcDbEntity
  8
LAYER3
 62
         4
100
AcDbLine
 10
16.6781427395
 20
-59.9643754741
 30
0.0
 11
17.3018778119
 21
-62.8988182763
 31
0.0
  0
MTEXT
  5
31C
100
AcDbEntity
  8
LAYER3
100
AcDbMText
 10
14.7843133938
 20
-68.1643755115
 30
0.0
 40
1.0736841679
 41
1.282322998
 71
         1
 72
         1
  1
\W0.8;28
 11
-0.0000000268
 21
1.0
 31
0.0
  0
MTEXT
  5
31D
100
AcDbEntity
  8
LAYER3
100
AcDbMText
 10
10.0789492256
 20
-21.5705461284
 30
0.0
 40
1.0736841679
 41
1.9234844971
 71
         1
 72
         1
  1
\W0.8;3.5
  0
LINE
  5
31E
100
AcDbEntity
  8
LAYER3
 62
         4
100
AcDbLine
 10
-71.6673654309
 20
23.9700040974
 30
0.0
 11
-72.2911005034
 21
26.9044468996
 31
0.0
  0
MTEXT
  5
31F
100
AcDbEntity
  8
LAYER3
100
AcDbMText
 10
-73.5611947766
 20
30.27000406
 30
0.0
 40
1.0736841679
 41
1.282322998
 71
         1
 72
         1
  1
\W0.8;30
 11
-0.0000000268
 21
1.0
 31
0.0
  0
LINE
  5
320
100
AcDbEntity
  8
LAYER3
 62
         4
100
AcDbLine
 10
-66.8210509309
 20
17.4700040974
 30
0.0
 11
-76.0759291185
 21
17.4700040974
 31
0.0
  0
LINE
  5
321
100
AcDbEntity
  8
LAYER3
 62
         4
100
AcDbLine
 10
-66.8210509309
 20
45.4700040974
 30
0.0
 11
-76.0759291185
 21
45.4700040974
 31
0.0
  0
LINE
  5
322
100
AcDbEntity
  8
LAYER3
 62
         4
100
AcDbLine
 10
-75.5759291185
 20
45.4700040974
 30
0.0
 11
-75.5759291185
 21
17.4700040974
 31
0.0
  0
MTEXT
  5
323
100
AcDbEntity
  8
LAYER3
100
AcDbMText
 10
39.4941105333
 20
-83.9143755115
 30
0.0
 40
1.0736841679
 41
1.282322998
 71
         1
 72
         1
  1
\W0.8;58
 11
-0.0000000268
 21
1.0
 31
0.0
  0
LINE
  5
324
100
AcDbEntity
  8
LAYER3
 62
         4
100
AcDbLine
 10
16.6781427395
 20
-73.9643754741
 30
0.0
 11
16.6781427395
 21
-86.7143754741
 31
0.0
  0
LINE
  5
325
100
AcDbEntity
  8
LAYER3
 62
         4
100
AcDbLine
 10
16.6781427395
 20
-73.9643754741
 30
0.0
 11
16.054407667
 21
-76.8988182763
 31
0.0
  0
LINE
  5
326
100
AcDbEntity
  8
LAYER3
 62
         4
100
AcDbLine
 10
16.6781427395
 20
-73.9643754741
 30
0.0
 11
17.3018778119
 21
-76.8988182763
 31
0.0
  0
LINE
  5
327
100
AcDbEntity
  8
LAYER3
 62
         4
100
AcDbLine
 10
16.6781427395
 20
-86.7143754741
 30
0.0
 11
17.3018778119
 21
-83.7799326719
 31
0.0
  0
LINE
  5
328
100
AcDbEntity
  8
LAYER3
 62
         4
100
AcDbLine
 10
16.6781427395
 20
-86.7143754741
 30
0.0
 11
16.054407667
 21
-83.7799326719
 31
0.0
  0
MTEXT
  5
329
100
AcDbEntity
  8
LAYER3
100
AcDbMText
 10
14.7843133938
 20
-82.7393755115
 30
0.0
 40
1.0736841679
 41
2.5646459961
 71
         1
 72
         1
  1
\W0.8;25.5
 11
-0.0000000268
 21
1.0
 31
0.0
  0
LINE
  5
32A
100
AcDbEntity
  8
LAYER3
 62
         4
100
AcDbLine
 10
16.6781427395
 20
-86.7143754741
 30
0.0
 11
16.6781427395
 21
-93.2143754741
 31
0.0
  0
LINE
  5
32B
100
AcDbEntity
  8
LAYER3
 62
         4
100
AcDbLine
 10
16.6781427395
 20
-86.7143754741
 30
0.0
 11
16.054407667
 21
-89.6488182763
 31
0.0
  0
MTEXT
  5
32C
100
AcDbEntity
  8
LAYER0
100
AcDbMText
 10
32.0542682872
 20
-126.7970201517
 30
0.0
 40
2.1473683357
 41
7.6538653946
 71
         1
 72
         1
  1
\W0.8;品　名
  0
MTEXT
  5
32D
100
AcDbEntity
  8
LAYER0
100
AcDbMText
 10
25.9984602544
 20
-132.8866032766
 30
0.0
 40
2.4737683892
 41
20.6813058682
 71
         1
 72
         1
  1
\W0.8;スライドロック
  0
LINE
  5
32E
100
AcDbEntity
  8
LAYER3
 62
         4
100
AcDbLine
 10
58.8289490691
 20
-94.7143754741
 30
0.0
 11
58.8289490691
 21
-110.4158699331
 31
0.0
  0
LINE
  5
32F
100
AcDbEntity
  8
LAYER3
 62
         4
100
AcDbLine
 10
58.8289490691
 20
-109.9158699331
 30
0.0
 11
55.8945062669
 21
-109.2921348606
 31
0.0
  0
LINE
  5
330
100
AcDbEntity
  8
LAYER3
 62
         4
100
AcDbLine
 10
58.8289490691
 20
-109.9158699331
 30
0.0
 11
55.8945062669
 21
-110.5396050055
 31
0.0
  0
MTEXT
  5
331
100
AcDbEntity
  8
LAYER3
100
AcDbMText
 10
54.1289490691
 20
-108.0220405874
 30
0.0
 40
1.0736841679
 41
1.282322998
 71
         1
 72
         1
  1
\W0.8;14
  0
LINE
  5
332
100
AcDbEntity
  8
LAYER0
 62
         5
100
AcDbLine
 10
55.6489490691
 20
-93.4143754741
 30
0.0
 11
56.3289490691
 21
-93.4143754741
 31
0.0
  0
LINE
  5
333
100
AcDbEntity
  8
LAYER0
 62
         5
100
AcDbLine
 10
55.5289490691
 20
-92.2143754741
 30
0.0
 11
55.5289490691
 21
-92.8943754741
 31
0.0
  0
LINE
  5
334
100
AcDbEntity
  8
LAYER0
 62
         5
100
AcDbLine
 10
55.5289490691
 20
-93.5343754741
 30
0.0
 11
55.5289490691
 21
-94.2143754741
 31
0.0
  0
LINE
  5
335
100
AcDbEntity
  8
LAYER0
 62
         5
100
AcDbLine
 10
55.1289490691
 20
-94.2143754741
 30
0.0
 11
55.1289490691
 21
-93.5343754741
 31
0.0
  0
LINE
  5
336
100
AcDbEntity
  8
LAYER0
 62
         5
100
AcDbLine
 10
55.1289490691
 20
-92.8943754741
 30
0.0
 11
55.1289490691
 21
-92.2143754741
 31
0.0
  0
ARC
  5
337
100
AcDbEntity
  8
LAYER0
 62
         5
100
AcDbCircle
 10
55.6489490691
 20
-93.5343754741
 30
0.0
 40
0.12
210
0.0
220
0.0
230
1.0
100
AcDbArc
 50
90.0000015352
 51
180.0000030705
  0
ARC
  5
338
100
AcDbEntity
  8
LAYER0
 62
         5
100
AcDbCircle
 10
55.6489490691
 20
-92.8943754741
 30
0.0
 40
0.12
210
0.0
220
0.0
230
1.0
100
AcDbArc
 50
180.0000030705
 51
269.9999984648
  0
LINE
  5
339
100
AcDbEntity
  8
LAYER0
 62
         5
100
AcDbLine
 10
55.5289490691
 20
-87.7143754741
 30
0.0
 11
55.1289490691
 21
-87.7143754741
 31
0.0
  0
LINE
  5
33A
100
AcDbEntity
  8
LAYER0
 62
         5
100
AcDbLine
 10
55.5289490691
 20
-85.7143754741
 30
0.0
 11
55.1289490691
 21
-85.7143754741
 31
0.0
  0
LINE
  5
33B
100
AcDbEntity
  8
LAYER0
 62
         5
100
AcDbLine
 10
56.3289490691
 20
-86.5143754741
 30
0.0
 11
56.3289490691
 21
-86.9143754741
 31
0.0
  0
LINE
  5
33C
100
AcDbEntity
  8
LAYER3
 62
         2
100
AcDbLine
 10
-3.9210507074
 20
-38.3393754741
 30
0.0
 11
-1.4210507074
 21
-38.3393754741
 31
0.0
  0
LINE
  5
33D
100
AcDbEntity
  8
LAYER3
 62
         2
100
AcDbLine
 10
-1.4210507074
 20
-38.3393754741
 30
0.0
 11
-1.4210507074
 21
-53.3393754741
 31
0.0
  0
LINE
  5
33E
100
AcDbEntity
  8
LAYER3
 62
         2
100
AcDbLine
 10
-1.4210507074
 20
-53.3393754741
 30
0.0
 11
-3.9210507074
 21
-53.3393754741
 31
0.0
  0
LINE
  5
33F
100
AcDbEntity
  8
LAYER0
 62
         4
100
AcDbLine
 10
-0.6710507074
 20
-37.4643754741
 30
0.0
 11
-3.9210507074
 21
-37.4643754741
 31
0.0
  0
LINE
  5
340
100
AcDbEntity
  8
LAYER0
 62
         4
100
AcDbLine
 10
-0.6710507074
 20
-37.4643754741
 30
0.0
 11
-0.6710507074
 21
-38.2143754741
 31
0.0
  0
LINE
  5
341
100
AcDbEntity
  8
LAYER0
 62
         4
100
AcDbLine
 10
-0.6710507074
 20
-38.2143754741
 30
0.0
 11
-3.9210507074
 21
-38.2143754741
 31
0.0
  0
LINE
  5
342
100
AcDbEntity
  8
LAYER0
 62
         2
100
AcDbLine
 10
-1.4210507446
 20
-66.7143754741
 30
0.0
 11
-1.1710507446
 21
-66.4643754741
 31
0.0
  0
LINE
  5
343
100
AcDbEntity
  8
LAYER0
 62
         2
100
AcDbLine
 10
-1.1710507446
 20
-69.4643754741
 30
0.0
 11
-1.2710507446
 21
-69.4643754741
 31
0.0
  0
LINE
  5
344
100
AcDbEntity
  8
LAYER0
 62
         2
100
AcDbLine
 10
-1.4210507446
 20
-69.3143754741
 30
0.0
 11
-1.4210507446
 21
-66.7143754741
 31
0.0
  0
ARC
  5
345
100
AcDbEntity
  8
LAYER0
 62
         2
100
AcDbCircle
 10
-1.2710507446
 20
-69.3143754741
 30
0.0
 40
0.15
210
0.0
220
0.0
230
1.0
100
AcDbArc
 50
180.0000030705
 51
269.9999984648
  0
LINE
  5
346
100
AcDbEntity
  8
LAYER0
 62
         2
100
AcDbLine
 10
-0.3210507446
 20
-69.4643754741
 30
0.0
 11
-0.4210507446
 21
-69.4643754741
 31
0.0
  0
ARC
  5
347
100
AcDbEntity
  8
LAYER0
 62
         2
100
AcDbCircle
 10
-0.3210507446
 20
-69.6143754741
 30
0.0
 40
0.15
210
0.0
220
-0.0
230
1.0
100
AcDbArc
 50
0.0
 51
90.0000015352
  0
LINE
  5
348
100
AcDbEntity
  8
LAYER0
 62
         2
100
AcDbLine
 10
-0.4210507446
 20
-66.4643754741
 30
0.0
 11
-6.0460509383
 21
-66.4643754741
 31
0.0
  0
LINE
  5
34A
100
AcDbEntity
  8
LAYER1
 62
         5
100
AcDbLine
 10
0.0789492256
 20
-16.8059599834
 30
0.0
 11
7.5970044179
 21
-12.4654087943
 31
0.0
  0
LINE
  5
34B
100
AcDbEntity
  8
LAYER1
 62
         5
100
AcDbLine
 10
0.0789492256
 20
-15.651259445
 30
0.0
 11
5.5970044179
 21
-12.4654087943
 31
0.0
  0
LINE
  5
34C
100
AcDbEntity
  8
LAYER1
 62
         5
100
AcDbLine
 10
0.0789492256
 20
-14.4965589066
 30
0.0
 11
3.5970044179
 21
-12.4654087943
 31
0.0
  0
LINE
  5
34D
100
AcDbEntity
  8
LAYER1
 62
         5
100
AcDbLine
 10
0.0789492256
 20
-13.3418583683
 30
0.0
 11
1.5970044179
 21
-12.4654087943
 31
0.0
  0
LINE
  5
34E
100
AcDbEntity
  8
LAYER4
 62
         2
100
AcDbLine
 10
-14.7447235702
 20
-13.4643754741
 30
0.0
 11
-0.9571989054
 21
-12.4097732358
 31
0.0
  0
LINE
  5
34F
100
AcDbEntity
  8
LAYER0
 62
         6
100
AcDbLine
 10
-1.6710507074
 20
-12.4643754741
 30
0.0
 11
-1.6710507074
 21
-66.4643754741
 31
0.0
  0
LINE
  5
350
100
AcDbEntity
  8
LAYER3
 62
         4
100
AcDbLine
 10
16.6781427395
 20
-86.7143754741
 30
0.0
 11
17.3018778119
 21
-89.6488182763
 31
0.0
  0
LINE
  5
351
100
AcDbEntity
  8
LAYER3
 62
         4
100
AcDbLine
 10
16.6781427395
 20
-93.2143754741
 30
0.0
 11
17.3018778119
 21
-90.2799326719
 31
0.0
  0
LINE
  5
352
100
AcDbEntity
  8
LAYER3
 62
         4
100
AcDbLine
 10
16.6781427395
 20
-93.2143754741
 30
0.0
 11
16.054407667
 21
-90.2799326719
 31
0.0
  0
MTEXT
  5
353
100
AcDbEntity
  8
LAYER3
100
AcDbMText
 10
14.7843133938
 20
-91.1643755115
 30
0.0
 40
1.0736841679
 41
1.282322998
 71
         1
 72
         1
  1
\W0.8;13
 11
-0.0000000268
 21
1.0
 31
0.0
  0
LINE
  5
354
100
AcDbEntity
  8
LAYER3
 62
         4
100
AcDbLine
 10
41.387939879
 20
-97.2143754741
 30
0.0
 11
42.0116749515
 21
-94.2799326719
 31
0.0
  0
LINE
  5
355
100
AcDbEntity
  8
LAYER3
 62
         4
100
AcDbLine
 10
41.387939879
 20
-97.2143754741
 30
0.0
 11
40.7642048066
 21
-94.2799326719
 31
0.0
  0
ARC
  5
356
100
AcDbEntity
  8
LAYER0
 62
         3
100
AcDbCircle
 10
-6.5210507446
 20
-60.4643754741
 30
0.0
 40
0.5
210
0.0
220
-0.0
230
1.0
100
AcDbArc
 50
0.0
 51
90.0000015352
  0
LINE
  5
357
100
AcDbEntity
  8
LAYER4
 62
         5
100
AcDbLine
 10
-10.7210507446
 20
-59.9643754741
 30
0.0
 11
-10.7210507446
 21
-30.9531096092
 31
0.0
  0
LINE
  5
358
100
AcDbEntity
  8
LAYER4
 62
         5
100
AcDbLine
 10
-10.7210507446
 20
-15.9643754741
 30
0.0
 11
-10.7210507446
 21
-13.1566063516
 31
0.0
  0
ARC
  5
359
100
AcDbEntity
  8
LAYER0
 62
         2
100
AcDbCircle
 10
-11.9210507446
 20
-67.4643754741
 30
0.0
 40
1.0
210
0.0
220
0.0
230
1.0
100
AcDbArc
 50
90.0000015352
 51
180.0000030705
  0
LINE
  5
35A
100
AcDbEntity
  8
LAYER0
 62
         3
100
AcDbLine
 10
-13.2689269239
 20
-68.4643754741
 30
0.0
 11
-7.5731745654
 21
-68.4643754741
 31
0.0
  0
LINE
  5
35B
100
AcDbEntity
  8
LAYER0
 62
         3
100
AcDbLine
 10
-10.8450498966
 20
-63.1427741173
 30
0.0
 11
-13.6929260759
 21
-67.6993760041
 31
0.0
  0
LINE
  5
35C
100
AcDbEntity
  8
LAYER0
 62
         3
100
AcDbLine
 10
-9.9970515926
 20
-63.1427741173
 30
0.0
 11
-7.1491754134
 21
-67.6993760041
 31
0.0
  0
ARC
  5
35D
100
AcDbEntity
  8
LAYER0
 62
         3
100
AcDbCircle
 10
-10.4210507446
 20
-63.4077735874
 30
0.0
 40
0.5
210
0.0
220
-0.0
230
1.0
100
AcDbArc
 50
32.005383754
 51
147.9946193164
  0
ARC
  5
35E
100
AcDbEntity
  8
LAYER0
 62
         3
100
AcDbCircle
 10
-13.2689269239
 20
-67.9643754741
 30
0.0
 40
0.5
210
0.0
220
0.0
230
1.0
100
AcDbArc
 50
147.9946193164
 51
269.9999984648
  0
ARC
  5
35F
100
AcDbEntity
  8
LAYER0
 62
         3
100
AcDbCircle
 10
-7.5731745654
 20
-67.9643754741
 30
0.0
 40
0.5
210
-0.0
220
0.0
230
1.0
100
AcDbArc
 50
269.9999984648
 51
32.005383754
  0
LINE
  5
360
100
AcDbEntity
  8
LAYER0
 62
         2
100
AcDbLine
 10
-6.0460509383
 20
-66.4643754741
 30
0.0
 11
-11.9210507446
 21
-66.4643754741
 31
0.0
  0
LINE
  5
361
100
AcDbEntity
  8
LAYER4
 62
         5
100
AcDbLine
 10
-10.4210507446
 20
-59.9643754741
 30
0.0
 11
-10.4210507446
 21
-30.9643754741
 31
0.0
  0
LINE
  5
362
100
AcDbEntity
  8
LAYER4
 62
         5
100
AcDbLine
 10
-10.4210507446
 20
-15.9531096092
 30
0.0
 11
-10.4210507446
 21
-13.1336594718
 31
0.0
  0
LINE
  5
363
100
AcDbEntity
  8
LAYER4
 62
         5
100
AcDbLine
 10
-10.1210507446
 20
-59.9643754741
 30
0.0
 11
-10.1210507446
 21
-30.9531096092
 31
0.0
  0
LINE
  5
364
100
AcDbEntity
  8
LAYER4
 62
         5
100
AcDbLine
 10
-10.1210507446
 20
-15.9643754741
 30
0.0
 11
-10.1210507446
 21
-13.1107125919
 31
0.0
  0
LINE
  5
365
100
AcDbEntity
  8
LAYER4
 62
         2
100
AcDbLine
 10
-26.6625621135
 20
-13.5566090844
 30
0.0
 11
-14.9210505509
 21
-12.4643754741
 31
0.0
  0
LINE
  5
366
100
AcDbEntity
  8
LAYER4
 62
         2
100
AcDbLine
 10
-14.9210505509
 20
-12.4643754741
 30
0.0
 11
-14.7447235702
 21
-13.4643754741
 31
0.0
  0
MTEXT
  5
367
100
AcDbEntity
  8
LAYER4
100
AcDbMText
 10
-19.111483546
 20
-8.8515021597
 30
0.0
 40
1.2884210825
 41
13.8490892502
 71
         1
 72
         1
  1
\W0.8;スライド金具取付側
  0
LINE
  5
368
100
AcDbEntity
  8
LAYER0
 62
         6
100
AcDbLine
 10
-5.9210509383
 20
-12.7894562893
 30
0.0
 11
-5.9210509383
 21
-66.4643754741
 31
0.0
  0
LINE
  5
369
100
AcDbEntity
  8
LAYER3
 62
         4
100
AcDbLine
 10
-1.6710507074
 20
-23.4643754741
 30
0.0
 11
0.0789492256
 21
-23.4643754741
 31
0.0
  0
LINE
  5
36A
100
AcDbEntity
  8
LAYER3
 62
         4
100
AcDbLine
 10
0.0789492256
 20
-23.4643754741
 30
0.0
 11
3.0133920278
 21
-24.0881105466
 31
0.0
  0
LINE
  5
36B
100
AcDbEntity
  8
LAYER3
 62
         4
100
AcDbLine
 10
0.0789492256
 20
-23.4643754741
 30
0.0
 11
3.0133920278
 21
-22.8406404017
 31
0.0
  0
LINE
  5
36C
100
AcDbEntity
  8
LAYER3
 62
         4
100
AcDbLine
 10
-7.1183313755
 20
-23.4643754741
 30
0.0
 11
-1.6710507074
 21
-23.4643754741
 31
0.0
  0
LINE
  5
36D
100
AcDbEntity
  8
LAYER3
 62
         4
100
AcDbLine
 10
-1.6710507074
 20
-23.4643754741
 30
0.0
 11
-4.6054935096
 21
-22.8406404017
 31
0.0
  0
LINE
  5
36E
100
AcDbEntity
  8
LAYER3
 62
         4
100
AcDbLine
 10
-1.6710507074
 20
-23.4643754741
 30
0.0
 11
-4.6054935096
 21
-24.0881105466
 31
0.0
  0
LINE
  5
36F
100
AcDbEntity
  8
LAYER0
 62
         2
100
AcDbLine
 10
-59.9210509309
 20
-69.4643754741
 30
0.0
 11
-54.1710509309
 21
-69.4643754741
 31
0.0
  0
LINE
  5
370
100
AcDbEntity
  8
LAYER0
 62
         6
100
AcDbLine
 10
-58.6710507372
 20
-26.2424202413
 30
0.0
 11
-58.6710507372
 21
-66.4643754741
 31
0.0
  0
LINE
  5
371
100
AcDbEntity
  8
LAYER0
 62
         6
100
AcDbLine
 10
-62.9210509681
 20
-26.99180995
 30
0.0
 11
-62.9210509681
 21
-66.4643754741
 31
0.0
  0
LINE
  5
372
100
AcDbEntity
  8
LAYER0
 62
         6
100
AcDbLine
 10
-45.4210508936
 20
-25.9369409983
 30
0.0
 11
-45.4210508936
 21
-66.4643754741
 31
0.0
  0
LINE
  5
373
100
AcDbEntity
  8
LAYER0
 62
         6
100
AcDbLine
 10
-49.6710511246
 20
-26.686330707
 30
0.0
 11
-49.6710511246
 21
-66.4643754741
 31
0.0
  0
LINE
  5
374
100
AcDbEntity
  8
LAYER4
 62
         2
100
AcDbLine
 10
-53.9974027532
 20
-27.4491832272
 30
0.0
 11
-54.3446991085
 21
-25.4795677211
 31
0.0
  0
MTEXT
  5
375
100
AcDbEntity
  8
LAYER4
100
AcDbMText
 10
0.5207543615
 20
-8.8780194379
 30
0.0
 40
1.2884210825
 41
9.2327261668
 71
         1
 72
         1
  1
\W0.8;受金具取付壁
  0
INSERT
  5
377
100
AcDbEntity
  8
0
100
AcDbBlockReference
  2
CLUMP24
 10
0.0
 20
0.0
 30
0.0
  0
ARC
  5
38B
100
AcDbEntity
  8
LAYER0
 62
         4
100
AcDbCircle
 10
-3.9210507074
 20
-38.2143754741
 30
0.0
 40
0.75
210
0.0
220
0.0
230
1.0
100
AcDbArc
 50
90.0000015352
 51
180.0000030705
  0
LINE
  5
38C
100
AcDbEntity
  8
LAYER0
 62
         3
100
AcDbLine
 10
-6.9210507446
 20
-30.9531096092
 30
0.0
 11
-13.9210507446
 21
-30.9531096092
 31
0.0
  0
LINE
  5
38D
100
AcDbEntity
  8
LAYER0
 62
         3
100
AcDbLine
 10
-6.4210507446
 20
-30.4531096092
 30
0.0
 11
-6.4210507446
 21
-16.4531096092
 31
0.0
  0
LINE
  5
38E
100
AcDbEntity
  8
LAYER0
 62
         3
100
AcDbLine
 10
-14.4210507446
 20
-16.4531096092
 30
0.0
 11
-14.4210507446
 21
-30.4531096092
 31
0.0
  0
LINE
  5
38F
100
AcDbEntity
  8
LAYER0
 62
         3
100
AcDbLine
 10
-6.9210507446
 20
-15.9531096092
 30
0.0
 11
-13.9210507446
 21
-15.9531096092
 31
0.0
  0
ARC
  5
390
100
AcDbEntity
  8
LAYER0
 62
         3
100
AcDbCircle
 10
-13.9210507446
 20
-30.4531096092
 30
0.0
 40
0.5
210
0.0
220
0.0
230
1.0
100
AcDbArc
 50
179.9999969295
 51
269.9999984648
  0
ARC
  5
391
100
AcDbEntity
  8
LAYER0
 62
         3
100
AcDbCircle
 10
-6.9210507446
 20
-30.4531096092
 30
0.0
 40
0.5
210
-0.0
220
0.0
230
1.0
100
AcDbArc
 50
269.9999984648
 51
0.0
  0
ARC
  5
392
100
AcDbEntity
  8
LAYER0
 62
         3
100
AcDbCircle
 10
-6.9210507446
 20
-16.4531096092
 30
0.0
 40
0.5
210
0.0
220
-0.0
230
1.0
100
AcDbArc
 50
0.0
 51
90.0000015352
  0
ARC
  5
393
100
AcDbEntity
  8
LAYER0
 62
         3
100
AcDbCircle
 10
-13.9210507446
 20
-16.4531096092
 30
0.0
 40
0.5
210
0.0
220
0.0
230
1.0
100
AcDbArc
 50
90.0000015352
 51
179.9999969295
  0
MTEXT
  5
394
100
AcDbEntity
  8
LAYER0
100
AcDbMText
 10
-12.8210507446
 20
-20.8777922264
 30
0.0
 40
4.2947366714
 41
5.1292919922
 71
         1
 72
         1
  1
\W0.8;開
  0
LINE
  5
395
100
AcDbEntity
  8
LAYER0
 62
         4
100
AcDbLine
 10
-1.9210507074
 20
-54.2143754741
 30
0.0
 11
-3.9210507074
 21
-54.2143754741
 31
0.0
  0
LINE
  5
396
100
AcDbEntity
  8
LAYER0
 62
         4
100
AcDbLine
 10
-1.9210507074
 20
-53.4643754741
 30
0.0
 11
-3.9210507074
 21
-53.4643754741
 31
0.0
  0
LINE
  5
397
100
AcDbEntity
  8
LAYER0
 62
         4
100
AcDbLine
 10
-1.9210507074
 20
-53.4643754741
 30
0.0
 11
-1.9210507074
 21
-54.2143754741
 31
0.0
  0
LINE
  5
398
100
AcDbEntity
  8
LAYER0
 62
         4
100
AcDbLine
 10
-3.5710506403
 20
-68.2143754741
 30
0.0
 11
-2.4210506403
 21
-68.2143754741
 31
0.0
  0
LINE
  5
399
100
AcDbEntity
  8
LAYER0
 62
         5
100
AcDbLine
 10
-4.5639439932
 20
-44.9143754741
 30
0.0
 11
-4.6710507744
 21
-44.807268693
 31
0.0
  0
LINE
  5
39A
100
AcDbEntity
  8
LAYER0
 62
         3
100
AcDbLine
 10
-6.5210507446
 20
-59.9643754741
 30
0.0
 11
-14.3210507446
 21
-59.9643754741
 31
0.0
  0
ARC
  5
39B
100
AcDbEntity
  8
LAYER0
 62
         3
100
AcDbCircle
 10
-14.3210507446
 20
-60.4643754741
 30
0.0
 40
0.5
210
0.0
220
0.0
230
1.0
100
AcDbArc
 50
90.0000015352
 51
179.9999969295
  0
LINE
  5
39C
100
AcDbEntity
  8
LAYER0
 62
         4
100
AcDbLine
 10
-58.4210509309
 20
-37.4643754741
 30
0.0
 11
-58.4210509309
 21
-66.4643754741
 31
0.0
  0
LINE
  5
39D
100
AcDbEntity
  8
LAYER0
 62
         4
100
AcDbLine
 10
-49.9210509309
 20
-37.4643754741
 30
0.0
 11
-49.9210509309
 21
-66.4643754741
 31
0.0
  0
CIRCLE
  5
39E
100
AcDbEntity
  8
LAYER3
 62
         5
100
AcDbCircle
 10
-54.1710509309
 20
-59.9643754741
 30
0.0
 40
1.75
210
0.0
220
0.0
230
1.0
  0
LINE
  5
39F
100
AcDbEntity
  8
LAYER3
 62
         4
100
AcDbLine
 10
-64.5710509309
 20
-66.4643754741
 30
0.0
 11
-72.1673654309
 21
-66.4643754741
 31
0.0
  0
LINE
  5
3A0
100
AcDbEntity
  8
LAYER0
 62
         3
100
AcDbLine
 10
-48.2710509309
 20
-66.3643754741
 30
0.0
 11
-45.4210508936
 21
-66.3643754741
 31
0.0
  0
LINE
  5
3A1
100
AcDbEntity
  8
LAYER0
 62
         3
100
AcDbLine
 10
-45.4210508936
 20
-66.3643754741
 30
0.0
 11
-44.2710509309
 21
-66.3643754741
 31
0.0
  0
LINE
  5
3A2
100
AcDbEntity
  8
LAYER0
 62
         3
100
AcDbLine
 10
-66.3210509309
 20
-59.9643754741
 30
0.0
 11
-65.0710509309
 21
-59.9643754741
 31
0.0
  0
ARC
  5
3A3
100
AcDbEntity
  8
LAYER0
 62
         3
100
AcDbCircle
 10
-66.3210509309
 20
-61.2143754741
 30
0.0
 40
1.25
210
0.0
220
0.0
230
1.0
100
AcDbArc
 50
90.0000015352
 51
180.0000030705
  0
ARC
  5
3A4
100
AcDbEntity
  8
LAYER0
 62
         3
100
AcDbCircle
 10
-61.8210509309
 20
-63.5459349545
 30
0.0
 40
1.75
210
0.0
220
0.0
230
1.0
100
AcDbArc
 50
0.0
 51
63.434949905
  0
LINE
  5
3A5
100
AcDbEntity
  8
LAYER0
 62
         3
100
AcDbLine
 10
-60.0710509309
 20
-66.4643754741
 30
0.0
 11
-60.0710509309
 21
-63.5459349545
 31
0.0
  0
LINE
  5
3A6
100
AcDbEntity
  8
LAYER0
 62
         3
100
AcDbLine
 10
-61.0384271388
 20
-61.9806873702
 30
0.0
 11
-62.9210509681
 21
-61.0393754555
 31
0.0
  0
LINE
  5
3A7
100
AcDbEntity
  8
LAYER0
 62
         3
100
AcDbLine
 10
-62.9210509681
 20
-61.0393754555
 30
0.0
 11
-65.0710509309
 21
-59.9643754741
 31
0.0
  0
LINE
  5
3A8
100
AcDbEntity
  8
LAYER0
 62
         3
100
AcDbLine
 10
-42.0210509309
 20
-59.9643754741
 30
0.0
 11
-43.2710509309
 21
-59.9643754741
 31
0.0
  0
ARC
  5
3A9
100
AcDbEntity
  8
LAYER0
 62
         3
100
AcDbCircle
 10
-42.0210509309
 20
-61.2143754741
 30
0.0
 40
1.25
210
0.0
220
-0.0
230
1.0
100
AcDbArc
 50
0.0
 51
90.0000015352
  0
ARC
  5
3AA
100
AcDbEntity
  8
LAYER0
 62
         3
100
AcDbCircle
 10
-46.5210509309
 20
-63.5459349545
 30
0.0
 40
1.75
210
0.0
220
0.0
230
1.0
100
AcDbArc
 50
116.5650531655
 51
180.0000030705
  0
LINE
  5
3AB
100
AcDbEntity
  8
LAYER0
 62
         3
100
AcDbLine
 10
-48.2710509309
 20
-66.4643754741
 30
0.0
 11
-48.2710509309
 21
-63.5459349545
 31
0.0
  0
LINE
  5
3AC
100
AcDbEntity
  8
LAYER0
 62
         3
100
AcDbLine
 10
-47.303674723
 20
-61.9806873702
 30
0.0
 11
-45.4210508936
 21
-61.0393754555
 31
0.0
  0
LINE
  5
3AD
100
AcDbEntity
  8
LAYER0
 62
         3
100
AcDbLine
 10
-45.4210508936
 20
-61.0393754555
 30
0.0
 11
-43.2710509309
 21
-59.9643754741
 31
0.0
  0
LINE
  5
3AE
100
AcDbEntity
  8
LAYER4
 62
         2
100
AcDbLine
 10
-53.9974027532
 20
-27.4491832272
 30
0.0
 11
-43.9965743747
 21
-25.6857673546
 31
0.0
  0
LINE
  5
3AF
100
AcDbEntity
  8
LAYER4
 62
         2
100
AcDbLine
 10
-54.3446991085
 20
-25.4795677211
 30
0.0
 11
-64.6297502438
 21
-27.2930997342
 31
0.0
  0
LINE
  5
3B0
100
AcDbEntity
  8
LAYER4
 62
         5
100
AcDbLine
 10
-53.8710509309
 20
-27.4269039918
 30
0.0
 11
-53.8710509309
 21
-37.4643754741
 31
0.0
  0
LINE
  5
3B1
100
AcDbEntity
  8
LAYER4
 62
         5
100
AcDbLine
 10
-54.4710509309
 20
-37.4643754741
 30
0.0
 11
-54.4710509309
 21
-25.5018469565
 31
0.0
  0
MTEXT
  5
3B2
100
AcDbEntity
  8
LAYER4
100
AcDbMText
 10
-62.0594091342
 20
-20.7548310988
 30
0.0
 40
1.5461052179
 41
16.618906229
 71
         1
 72
         1
  1
\W0.8;スライド金具取付側
  0
LINE
  5
3B3
100
AcDbEntity
  8
LAYER0
 62
         2
100
AcDbLine
 10
-44.2710509309
 20
-66.4643754741
 30
0.0
 11
-64.0710509309
 21
-66.4643754741
 31
0.0
  0
LINE
  5
3B4
100
AcDbEntity
  8
LAYER0
 62
         2
100
AcDbLine
 10
-48.4210509309
 20
-69.4643754741
 30
0.0
 11
-54.1710509309
 21
-69.4643754741
 31
0.0
  0
LINE
  5
3B5
100
AcDbEntity
  8
LAYER0
 62
         4
100
AcDbLine
 10
-1.1710507744
 20
-97.2143754741
 30
0.0
 11
0.0789492256
 21
-97.2143754741
 31
0.0
  0
LINE
  5
3B6
100
AcDbEntity
  8
LAYER0
 62
         2
100
AcDbLine
 10
-6.0460509383
 20
-81.4643754741
 30
0.0
 11
-0.4210507446
 21
-81.4643754741
 31
0.0
  0
LINE
  5
3B7
100
AcDbEntity
  8
LAYER4
 62
         2
100
AcDbLine
 10
-14.7447235702
 20
-109.4643754741
 30
0.0
 11
-0.9259891319
 21
-108.4073860127
 31
0.0
  0
LINE
  5
3B8
100
AcDbEntity
  8
LAYER0
  6
CENTER
100
AcDbLine
 10
1.8504793395
 20
-73.9643754741
 30
0.0
 11
-21.9173447415
 21
-73.9643754741
 31
0.0
  0
LINE
  5
3B9
100
AcDbEntity
  8
LAYER0
 62
         6
100
AcDbLine
 10
-1.6710507074
 20
-81.4643754741
 30
0.0
 11
-1.6710507074
 21
-108.4643754741
 31
0.0
  0
LINE
  5
3BA
100
AcDbEntity
  8
LAYER3
 62
         4
100
AcDbLine
 10
-71.6673654309
 20
-66.4643754741
 30
0.0
 11
-72.2911005034
 21
-69.3988182763
 31
0.0
  0
LINE
  5
3BB
100
AcDbEntity
  8
LAYER3
 62
         4
100
AcDbLine
 10
-71.6673654309
 20
-66.4643754741
 30
0.0
 11
-71.0436303585
 21
-69.3988182763
 31
0.0
  0
LINE
  5
3BC
100
AcDbEntity
  8
LAYER3
 62
         4
100
AcDbLine
 10
-66.8210509309
 20
-59.9643754741
 30
0.0
 11
-76.0759291185
 21
-59.9643754741
 31
0.0
  0
LINE
  5
3BD
100
AcDbEntity
  8
LAYER3
 62
         4
100
AcDbLine
 10
-75.5759291185
 20
-59.9643754741
 30
0.0
 11
-76.1996641909
 21
-62.8988182763
 31
0.0
  0
LINE
  5
3BE
100
AcDbEntity
  8
LAYER3
 62
         4
100
AcDbLine
 10
-75.5759291185
 20
-59.9643754741
 30
0.0
 11
-74.952194046
 21
-62.8988182763
 31
0.0
  0
INSERT
  5
3C0
100
AcDbEntity
  8
0
100
AcDbBlockReference
  2
CLUMP26
 10
0.0
 20
0.0
 30
0.0
  0
INSERT
  5
3D8
100
AcDbEntity
  8
0
100
AcDbBlockReference
  2
CLUMP28
 10
0.0
 20
0.0
 30
0.0
  0
LINE
  5
3E4
100
AcDbEntity
  8
LAYER0
 62
         3
100
AcDbLine
 10
-60.0710509309
 20
-66.3643754741
 30
0.0
 11
-62.9210509681
 21
-66.3643754741
 31
0.0
  0
LINE
  5
3E5
100
AcDbEntity
  8
LAYER0
 62
         3
100
AcDbLine
 10
-62.9210509681
 20
-66.3643754741
 30
0.0
 11
-64.0710509309
 21
-66.3643754741
 31
0.0
  0
LINE
  5
3E6
100
AcDbEntity
  8
LAYER0
 62
         4
100
AcDbLine
 10
-49.9210509309
 20
-38.2143754741
 30
0.0
 11
-58.4210509309
 21
-38.2143754741
 31
0.0
  0
LINE
  5
3E7
100
AcDbEntity
  8
LAYER0
 62
         4
100
AcDbLine
 10
-58.4210509309
 20
-37.4643754741
 30
0.0
 11
-49.9210509309
 21
-37.4643754741
 31
0.0
  0
LINE
  5
3E8
100
AcDbEntity
  8
LAYER0
 62
         4
100
AcDbLine
 10
-56.1710509309
 20
-53.4643754741
 30
0.0
 11
-52.1710509309
 21
-53.4643754741
 31
0.0
  0
LINE
  5
3E9
100
AcDbEntity
  8
LAYER0
 62
         4
100
AcDbLine
 10
-56.1710509309
 20
-54.2143754741
 30
0.0
 11
-52.1710509309
 21
-54.2143754741
 31
0.0
  0
LINE
  5
3EA
100
AcDbEntity
  8
LAYER0
  6
CENTER
100
AcDbLine
 10
-51.1710509309
 20
-59.9643754741
 30
0.0
 11
-57.1710509309
 21
-59.9643754741
 31
0.0
  0
LINE
  5
3EB
100
AcDbEntity
  8
LAYER0
 62
         4
100
AcDbLine
 10
-52.1710509309
 20
-54.2143754741
 30
0.0
 11
-52.1710509309
 21
-53.3393754741
 31
0.0
  0
LINE
  5
3EC
100
AcDbEntity
  8
LAYER0
 62
         4
100
AcDbLine
 10
-56.1710509309
 20
-54.2143754741
 30
0.0
 11
-56.1710509309
 21
-53.3393754741
 31
0.0
  0
LINE
  5
3ED
100
AcDbEntity
  8
LAYER3
 62
         2
100
AcDbLine
 10
-58.3710509309
 20
-38.3393754741
 30
0.0
 11
-49.9710509309
 21
-38.3393754741
 31
0.0
  0
LINE
  5
3EE
100
AcDbEntity
  8
LAYER3
 62
         2
100
AcDbLine
 10
-58.3710509309
 20
-53.3393754741
 30
0.0
 11
-49.9710509309
 21
-53.3393754741
 31
0.0
  0
LINE
  5
3EF
100
AcDbEntity
  8
LAYER3
 62
         2
100
AcDbLine
 10
-58.3710509309
 20
-53.3393754741
 30
0.0
 11
-58.3710509309
 21
-38.3393754741
 31
0.0
  0
LINE
  5
3F0
100
AcDbEntity
  8
LAYER3
 62
         2
100
AcDbLine
 10
-49.9710509309
 20
-53.3393754741
 30
0.0
 11
-49.9710509309
 21
-38.3393754741
 31
0.0
  0
LINE
  5
3F1
100
AcDbEntity
  8
LAYER4
 62
         2
100
AcDbLine
 10
-14.9210505509
 20
-108.4643754741
 30
0.0
 11
-14.7447235702
 21
-109.4643754741
 31
0.0
  0
LINE
  5
3F2
100
AcDbEntity
  8
LAYER0
 62
         6
100
AcDbLine
 10
-5.9210509383
 20
-81.4643754741
 30
0.0
 11
-5.9210509383
 21
-108.7894562893
 31
0.0
  0
MTEXT
  5
3F3
100
AcDbEntity
  8
LAYER0
100
AcDbMText
 10
-10.6564309049
 20
-126.7970201517
 30
0.0
 40
2.1473683357
 41
7.6538653946
 71
         1
 72
         1
  1
\W0.8;品　番
  0
LINE
  5
3F4
100
AcDbEntity
  8
LAYER0
 62
         3
100
AcDbLine
 10
-25.0
 20
-125.5
 30
0.0
 11
-25.0
 21
-138.5
 31
0.0
  0
MTEXT
  5
3F5
100
AcDbEntity
  8
LAYER0
100
AcDbMText
 10
-15.6501737419
 20
-132.5157576176
 30
0.0
 40
3.0922104359
 41
9.2327256828
 71
         1
 72
         1
  1
\W0.8;MR-21
  0
LINE
  5
3F6
100
AcDbEntity
  8
LAYER0
 62
         4
100
AcDbLine
 10
-0.6710507074
 20
-98.9643754741
 30
0.0
 11
-0.6710507074
 21
-98.2143754741
 31
0.0
  0
LINE
  5
3F7
100
AcDbEntity
  8
LAYER0
 62
         4
100
AcDbLine
 10
-0.6710507074
 20
-98.9643754741
 30
0.0
 11
-3.9210507074
 21
-98.9643754741
 31
0.0
  0
LINE
  5
3F8
100
AcDbEntity
  8
LAYER0
 62
         4
100
AcDbLine
 10
-0.6710507074
 20
-98.2143754741
 30
0.0
 11
-3.9210507074
 21
-98.2143754741
 31
0.0
  0
LINE
  5
3F9
100
AcDbEntity
  8
LAYER0
 62
         4
100
AcDbLine
 10
-1.1710507744
 20
-82.7143754741
 30
0.0
 11
-1.1710507744
 21
-97.2143754741
 31
0.0
  0
ARC
  5
3FA
100
AcDbEntity
  8
LAYER0
 62
         4
100
AcDbCircle
 10
-1.1710507744
 20
-82.7143754741
 30
0.0
 40
1.25
210
0.0
220
-0.0
230
1.0
100
AcDbArc
 50
0.0
 51
90.0000015352
  0
LINE
  5
3FB
100
AcDbEntity
  8
LAYER0
 62
         4
100
AcDbLine
 10
-1.6710507074
 20
-82.7143754741
 30
0.0
 11
-1.1710507744
 21
-82.7143754741
 31
0.0
  0
LINE
  5
3FC
100
AcDbEntity
  8
LAYER0
 62
         2
100
AcDbLine
 10
-1.4210507446
 20
-81.2143754741
 30
0.0
 11
-1.1710507446
 21
-81.4643754741
 31
0.0
  0
LINE
  5
3FD
100
AcDbEntity
  8
LAYER0
 62
         2
100
AcDbLine
 10
-1.1710507446
 20
-78.4643754741
 30
0.0
 11
-1.2710507446
 21
-78.4643754741
 31
0.0
  0
LINE
  5
3FE
100
AcDbEntity
  8
LAYER0
 62
         2
100
AcDbLine
 10
-1.2710507446
 20
-76.9643754741
 30
0.0
 11
-1.1710507446
 21
-76.9643754741
 31
0.0
  0
LINE
  5
3FF
100
AcDbEntity
  8
LAYER0
 62
         2
100
AcDbLine
 10
-1.1710507446
 20
-78.4643754741
 30
0.0
 11
-1.1710507446
 21
-76.9643754741
 31
0.0
  0
ARC
  5
400
100
AcDbEntity
  8
LAYER0
 62
         2
100
AcDbCircle
 10
-1.2710507446
 20
-78.6143754741
 30
0.0
 40
0.15
210
0.0
220
0.0
230
1.0
100
AcDbArc
 50
90.0000015352
 51
179.9999969295
  0
ARC
  5
401
100
AcDbEntity
  8
LAYER0
 62
         2
100
AcDbCircle
 10
-1.2710507446
 20
-76.8143754741
 30
0.0
 40
0.15
210
0.0
220
0.0
230
1.0
100
AcDbArc
 50
179.9999969295
 51
269.9999984648
  0
LINE
  5
402
100
AcDbEntity
  8
LAYER0
 62
         2
100
AcDbLine
 10
-1.4210507446
 20
-81.2143754741
 30
0.0
 11
-1.4210507446
 21
-78.6143754741
 31
0.0
  0
LINE
  5
403
100
AcDbEntity
  8
LAYER0
 62
         2
100
AcDbLine
 10
-0.3210507446
 20
-78.4643754741
 30
0.0
 11
-0.4210507446
 21
-78.4643754741
 31
0.0
  0
LINE
  5
404
100
AcDbEntity
  8
LAYER0
 62
         2
100
AcDbLine
 10
-0.4210507446
 20
-76.9643754741
 30
0.0
 11
-0.3210507446
 21
-76.9643754741
 31
0.0
  0
LINE
  5
405
100
AcDbEntity
  8
LAYER0
 62
         2
100
AcDbLine
 10
-0.1710507446
 20
-78.3143754741
 30
0.0
 11
-0.1710507446
 21
-77.1143754741
 31
0.0
  0
ARC
  5
406
100
AcDbEntity
  8
LAYER0
 62
         2
100
AcDbCircle
 10
-0.3210507446
 20
-78.3143754741
 30
0.0
 40
0.15
210
-0.0
220
0.0
230
1.0
100
AcDbArc
 50
269.9999984648
 51
0.0
  0
ARC
  5
407
100
AcDbEntity
  8
LAYER0
 62
         2
100
AcDbCircle
 10
-0.3210507446
 20
-77.1143754741
 30
0.0
 40
0.15
210
0.0
220
-0.0
230
1.0
100
AcDbArc
 50
0.0
 51
90.0000015352
  0
LINE
  5
408
100
AcDbEntity
  8
LAYER0
 62
         4
100
AcDbLine
 10
-2.4210506403
 20
-82.7143754741
 30
0.0
 11
-1.6710507074
 21
-82.7143754741
 31
0.0
  0
LINE
  5
409
100
AcDbEntity
  8
LAYER0
 62
         4
100
AcDbLine
 10
0.0789492256
 20
-82.7143754741
 30
0.0
 11
0.0789492256
 21
-97.2143754741
 31
0.0
  0
LINE
  5
40A
100
AcDbEntity
  8
LAYER4
 62
         5
100
AcDbLine
 10
-10.1210507446
 20
-87.9643754741
 30
0.0
 11
-10.1210507446
 21
-88.9756413391
 31
0.0
  0
LINE
  5
40B
100
AcDbEntity
  8
LAYER0
 62
         3
100
AcDbLine
 10
-6.1710507446
 20
-76.4643754741
 30
0.0
 11
-14.6710507446
 21
-76.4643754741
 31
0.0
  0
ARC
  5
40C
100
AcDbEntity
  8
LAYER0
 62
         3
100
AcDbCircle
 10
-6.5210507446
 20
-76.9643754741
 30
0.0
 40
0.5
210
0.0
220
-0.0
230
1.0
100
AcDbArc
 50
0.0
 51
90.0000015352
  0
ARC
  5
40D
100
AcDbEntity
  8
LAYER0
 62
         3
100
AcDbCircle
 10
-14.3210507446
 20
-76.9643754741
 30
0.0
 40
0.5
210
0.0
220
0.0
230
1.0
100
AcDbArc
 50
90.0000015352
 51
179.9999969295
  0
ARC
  5
40E
100
AcDbEntity
  8
LAYER0
 62
         3
100
AcDbCircle
 10
-6.1710507446
 20
-76.6143754741
 30
0.0
 40
0.15
210
0.0
220
-0.0
230
1.0
100
AcDbArc
 50
0.0
 51
90.0000015352
  0
ARC
  5
40F
100
AcDbEntity
  8
LAYER0
 62
         3
100
AcDbCircle
 10
-14.6710507446
 20
-76.6143754741
 30
0.0
 40
0.15
210
0.0
220
0.0
230
1.0
100
AcDbArc
 50
90.0000015352
 51
179.9999969295
  0
LINE
  5
410
100
AcDbEntity
  8
LAYER0
 62
         3
100
AcDbLine
 10
-6.5210507446
 20
-87.9643754741
 30
0.0
 11
-14.3210507446
 21
-87.9643754741
 31
0.0
  0
ARC
  5
411
100
AcDbEntity
  8
LAYER0
 62
         3
100
AcDbCircle
 10
-6.5210507446
 20
-87.4643754741
 30
0.0
 40
0.5
210
-0.0
220
0.0
230
1.0
100
AcDbArc
 50
269.9999984648
 51
0.0
  0
ARC
  5
412
100
AcDbEntity
  8
LAYER0
 62
         3
100
AcDbCircle
 10
-14.3210507446
 20
-87.4643754741
 30
0.0
 40
0.5
210
0.0
220
0.0
230
1.0
100
AcDbArc
 50
179.9999969295
 51
269.9999984648
  0
LINE
  5
413
100
AcDbEntity
  8
LAYER0
 62
         5
100
AcDbLine
 10
-11.6710507446
 20
-74.2143754741
 30
0.0
 11
-10.8210507446
 21
-74.2143754741
 31
0.0
  0
LINE
  5
414
100
AcDbEntity
  8
LAYER0
 62
         5
100
AcDbLine
 10
-10.0210507446
 20
-74.2143754741
 30
0.0
 11
-9.1710507446
 21
-74.2143754741
 31
0.0
  0
LINE
  5
415
100
AcDbEntity
  8
LAYER0
 62
         5
100
AcDbLine
 10
-10.1710507446
 20
-74.3643754741
 30
0.0
 11
-10.1710507446
 21
-75.2143754741
 31
0.0
  0
LINE
  5
416
100
AcDbEntity
  8
LAYER0
 62
         5
100
AcDbLine
 10
-10.6710507446
 20
-75.2143754741
 30
0.0
 11
-10.6710507446
 21
-74.3643754741
 31
0.0
  0
ARC
  5
417
100
AcDbEntity
  8
LAYER0
 62
         5
100
AcDbCircle
 10
-10.8210507446
 20
-74.3643754741
 30
0.0
 40
0.15
210
0.0
220
-0.0
230
1.0
100
AcDbArc
 50
0.0
 51
90.0000015352
  0
ARC
  5
418
100
AcDbEntity
  8
LAYER0
 62
         5
100
AcDbCircle
 10
-10.0210507446
 20
-74.3643754741
 30
0.0
 40
0.15
210
0.0
220
0.0
230
1.0
100
AcDbArc
 50
90.0000015352
 51
180.0000030705
  0
ARC
  5
419
100
AcDbEntity
  8
LAYER0
 62
         2
100
AcDbCircle
 10
-11.9210507446
 20
-80.4643754741
 30
0.0
 40
1.0
210
0.0
220
0.0
230
1.0
100
AcDbArc
 50
180.0000030705
 51
269.9999984648
  0
LINE
  5
41A
100
AcDbEntity
  8
LAYER0
 62
         3
100
AcDbLine
 10
-13.2689269239
 20
-79.4643754741
 30
0.0
 11
-7.5731745654
 21
-79.4643754741
 31
0.0
  0
LINE
  5
41B
100
AcDbEntity
  8
LAYER0
 62
         3
100
AcDbLine
 10
-10.8450498966
 20
-84.7859768309
 30
0.0
 11
-13.6929260759
 21
-80.2293749441
 31
0.0
  0
LINE
  5
41C
100
AcDbEntity
  8
LAYER0
 62
         3
100
AcDbLine
 10
-9.9970515926
 20
-84.7859768309
 30
0.0
 11
-7.1491754134
 21
-80.2293749441
 31
0.0
  0
ARC
  5
41D
100
AcDbEntity
  8
LAYER0
 62
         3
100
AcDbCircle
 10
-10.4210507446
 20
-84.5209773609
 30
0.0
 40
0.5
210
0.0
220
0.0
230
1.0
100
AcDbArc
 50
212.0053806836
 51
327.994616246
  0
ARC
  5
41E
100
AcDbEntity
  8
LAYER0
 62
         3
100
AcDbCircle
 10
-13.2689269239
 20
-79.9643754741
 30
0.0
 40
0.5
210
0.0
220
0.0
230
1.0
100
AcDbArc
 50
90.0000015352
 51
212.0053806836
  0
ARC
  5
41F
100
AcDbEntity
  8
LAYER0
 62
         3
100
AcDbCircle
 10
-7.5731745654
 20
-79.9643754741
 30
0.0
 40
0.5
210
-0.0
220
-0.0
230
1.0
100
AcDbArc
 50
327.994616246
 51
90.0000015352
  0
LINE
  5
420
100
AcDbEntity
  8
LAYER0
 62
         2
100
AcDbLine
 10
-11.9210507446
 20
-81.4643754741
 30
0.0
 11
-6.0460509383
 21
-81.4643754741
 31
0.0
  0
LINE
  5
421
100
AcDbEntity
  8
LAYER0
 62
         5
100
AcDbLine
 10
-10.1710507446
 20
-75.2143754741
 30
0.0
 11
-10.6710507446
 21
-75.2143754741
 31
0.0
  0
LINE
  5
422
100
AcDbEntity
  8
LAYER4
 62
         2
100
AcDbLine
 10
-26.5298663709
 20
-109.5442652947
 30
0.0
 11
-14.9210505509
 21
-108.4643754741
 31
0.0
  0
ARC
  5
423
100
AcDbEntity
  8
LAYER0
 62
         2
100
AcDbCircle
 10
-48.4210509309
 20
-77.7143754741
 30
0.0
 40
0.75
210
0.0
220
0.0
230
1.0
100
AcDbArc
 50
269.9999984648
 51
90.0000015352
  0
LINE
  5
424
100
AcDbEntity
  8
LAYER0
 62
         2
100
AcDbLine
 10
-59.9210509309
 20
-78.4643754741
 30
0.0
 11
-54.1710509309
 21
-78.4643754741
 31
0.0
  0
LINE
  5
425
100
AcDbEntity
  8
LAYER0
  6
CENTER
100
AcDbLine
 10
-67.8210509309
 20
-73.9643754741
 30
0.0
 11
-40.5210509309
 21
-73.9643754741
 31
0.0
  0
LINE
  5
426
100
AcDbEntity
  8
LAYER0
 62
         6
100
AcDbLine
 10
-58.6710507372
 20
-81.4643754741
 30
0.0
 11
-58.6710507372
 21
-101.2424202413
 31
0.0
  0
LINE
  5
427
100
AcDbEntity
  8
LAYER0
 62
         6
100
AcDbLine
 10
-62.9210509681
 20
-81.4643754741
 30
0.0
 11
-62.9210509681
 21
-101.99180995
 31
0.0
  0
LINE
  5
428
100
AcDbEntity
  8
LAYER0
 62
         6
100
AcDbLine
 10
-45.4210508936
 20
-81.4643754741
 30
0.0
 11
-45.4210508936
 21
-100.9369409983
 31
0.0
  0
LINE
  5
429
100
AcDbEntity
  8
LAYER0
 62
         6
100
AcDbLine
 10
-49.6710511246
 20
-81.4643754741
 30
0.0
 11
-49.6710511246
 21
-101.686330707
 31
0.0
  0
LINE
  5
42A
100
AcDbEntity
  8
LAYER0
 62
         3
100
AcDbLine
 10
-40.0
 20
-138.5
 30
0.0
 11
-40.0
 21
-125.5
 31
0.0
  0
INSERT
  5
42C
100
AcDbEntity
  8
0
100
AcDbBlockReference
  2
CLUMP30
 10
0.0
 20
0.0
 30
0.0
  0
ARC
  5
440
100
AcDbEntity
  8
LAYER0
 62
         4
100
AcDbCircle
 10
-3.9210507074
 20
-98.2143754741
 30
0.0
 40
0.75
210
0.0
220
0.0
230
1.0
100
AcDbArc
 50
180.0000030705
 51
269.9999984648
  0
LINE
  5
441
100
AcDbEntity
  8
LAYER4
 62
         5
100
AcDbLine
 10
-10.1210507446
 20
-103.9643754741
 30
0.0
 11
-10.1210507446
 21
-109.1107125919
 31
0.0
  0
LINE
  5
442
100
AcDbEntity
  8
LAYER0
 62
         3
100
AcDbLine
 10
-6.9210507446
 20
-103.9643754741
 30
0.0
 11
-13.9210507446
 21
-103.9643754741
 31
0.0
  0
LINE
  5
443
100
AcDbEntity
  8
LAYER0
 62
         3
100
AcDbLine
 10
-6.4210507446
 20
-103.4643754741
 30
0.0
 11
-6.4210507446
 21
-89.4643754741
 31
0.0
  0
LINE
  5
444
100
AcDbEntity
  8
LAYER0
 62
         3
100
AcDbLine
 10
-14.4210507446
 20
-89.4643754741
 30
0.0
 11
-14.4210507446
 21
-103.4643754741
 31
0.0
  0
LINE
  5
445
100
AcDbEntity
  8
LAYER0
 62
         3
100
AcDbLine
 10
-6.9210507446
 20
-88.9643754741
 30
0.0
 11
-13.9210507446
 21
-88.9643754741
 31
0.0
  0
ARC
  5
446
100
AcDbEntity
  8
LAYER0
 62
         3
100
AcDbCircle
 10
-13.9210507446
 20
-103.4643754741
 30
0.0
 40
0.5
210
0.0
220
0.0
230
1.0
100
AcDbArc
 50
179.9999969295
 51
269.9999984648
  0
ARC
  5
447
100
AcDbEntity
  8
LAYER0
 62
         3
100
AcDbCircle
 10
-6.9210507446
 20
-103.4643754741
 30
0.0
 40
0.5
210
-0.0
220
0.0
230
1.0
100
AcDbArc
 50
269.9999984648
 51
0.0
  0
ARC
  5
448
100
AcDbEntity
  8
LAYER0
 62
         3
100
AcDbCircle
 10
-6.9210507446
 20
-89.4643754741
 30
0.0
 40
0.5
210
0.0
220
-0.0
230
1.0
100
AcDbArc
 50
0.0
 51
90.0000015352
  0
ARC
  5
449
100
AcDbEntity
  8
LAYER0
 62
         3
100
AcDbCircle
 10
-13.9210507446
 20
-89.4643754741
 30
0.0
 40
0.5
210
0.0
220
0.0
230
1.0
100
AcDbArc
 50
90.0000015352
 51
179.9999969295
  0
MTEXT
  5
44A
100
AcDbEntity
  8
LAYER0
100
AcDbMText
 10
-12.8210507446
 20
-93.8890580913
 30
0.0
 40
4.2947366714
 41
5.1292919922
 71
         1
 72
         1
  1
\W0.8;閉
  0
LINE
  5
44B
100
AcDbEntity
  8
LAYER4
 62
         5
100
AcDbLine
 10
-10.7210507446
 20
-103.9643754741
 30
0.0
 11
-10.7210507446
 21
-109.1566063516
 31
0.0
  0
LINE
  5
44C
100
AcDbEntity
  8
LAYER4
 62
         5
100
AcDbLine
 10
-10.4210507446
 20
-103.9756413391
 30
0.0
 11
-10.4210507446
 21
-109.1336594718
 31
0.0
  0
ARC
  5
44D
100
AcDbEntity
  8
LAYER0
 62
         4
100
AcDbCircle
 10
-2.4210506403
 20
-81.4643754741
 30
0.0
 40
1.25
210
0.0
220
0.0
230
1.0
100
AcDbArc
 50
180.0000030705
 51
269.9999984648
  0
LINE
  5
44E
100
AcDbEntity
  8
LAYER4
 62
         5
100
AcDbLine
 10
-10.4210507446
 20
-87.9643754741
 30
0.0
 11
-10.4210507446
 21
-88.9643754741
 31
0.0
  0
LINE
  5
44F
100
AcDbEntity
  8
LAYER4
 62
         5
100
AcDbLine
 10
-10.7210507446
 20
-87.9643754741
 30
0.0
 11
-10.7210507446
 21
-88.9756413391
 31
0.0
  0
LINE
  5
450
100
AcDbEntity
  8
LAYER0
 62
         3
100
AcDbLine
 10
-60.0710509309
 20
-81.5643754741
 30
0.0
 11
-62.9210509681
 21
-81.5643754741
 31
0.0
  0
LINE
  5
451
100
AcDbEntity
  8
LAYER0
 62
         3
100
AcDbLine
 10
-62.9210509681
 20
-81.5643754741
 30
0.0
 11
-64.0710509309
 21
-81.5643754741
 31
0.0
  0
LINE
  5
452
100
AcDbEntity
  8
LAYER0
 62
         2
100
AcDbLine
 10
-59.9210509309
 20
-76.9643754741
 30
0.0
 11
-54.1710509309
 21
-76.9643754741
 31
0.0
  0
ARC
  5
453
100
AcDbEntity
  8
LAYER0
 62
         2
100
AcDbCircle
 10
-59.9210509309
 20
-77.7143754741
 30
0.0
 40
0.75
210
0.0
220
0.0
230
1.0
100
AcDbArc
 50
90.0000015352
 51
269.9999984648
  0
LINE
  5
454
100
AcDbEntity
  8
LAYER0
 62
         3
100
AcDbLine
 10
-42.0210509309
 20
-76.4643754741
 30
0.0
 11
-41.2710509309
 21
-76.4643754741
 31
0.0
  0
ARC
  5
455
100
AcDbEntity
  8
LAYER0
 62
         3
100
AcDbCircle
 10
-41.2710509309
 20
-76.9643754741
 30
0.0
 40
0.5
210
0.0
220
-0.0
230
1.0
100
AcDbArc
 50
0.0
 51
90.0000015352
  0
LINE
  5
456
100
AcDbEntity
  8
LAYER0
 62
         3
100
AcDbLine
 10
-40.7710509309
 20
-76.9643754741
 30
0.0
 11
-40.7710509309
 21
-86.7143754741
 31
0.0
  0
LINE
  5
457
100
AcDbEntity
  8
LAYER0
 62
         3
100
AcDbLine
 10
-42.0210509309
 20
-76.4643754741
 30
0.0
 11
-42.0210509309
 21
-73.9643754741
 31
0.0
  0
LINE
  5
458
100
AcDbEntity
  8
LAYER0
 62
         3
100
AcDbLine
 10
-42.0210509309
 20
-87.9643754741
 30
0.0
 11
-43.2710509309
 21
-87.9643754741
 31
0.0
  0
ARC
  5
459
100
AcDbEntity
  8
LAYER0
 62
         3
100
AcDbCircle
 10
-42.0210509309
 20
-86.7143754741
 30
0.0
 40
1.25
210
-0.0
220
0.0
230
1.0
100
AcDbArc
 50
269.9999984648
 51
0.0
  0
ARC
  5
45A
100
AcDbEntity
  8
LAYER0
 62
         3
100
AcDbCircle
 10
-46.5210509309
 20
-84.3828159938
 30
0.0
 40
1.75
210
0.0
220
0.0
230
1.0
100
AcDbArc
 50
179.9999969295
 51
243.4349468345
  0
LINE
  5
45B
100
AcDbEntity
  8
LAYER0
 62
         3
100
AcDbLine
 10
-48.2710509309
 20
-84.3828159938
 30
0.0
 11
-48.2710509309
 21
-81.4643754741
 31
0.0
  0
LINE
  5
45C
100
AcDbEntity
  8
LAYER0
 62
         3
100
AcDbLine
 10
-47.303674723
 20
-85.9480635781
 30
0.0
 11
-45.4210508936
 21
-86.8893754928
 31
0.0
  0
LINE
  5
45D
100
AcDbEntity
  8
LAYER0
 62
         3
100
AcDbLine
 10
-45.4210508936
 20
-86.8893754928
 30
0.0
 11
-43.2710509309
 21
-87.9643754741
 31
0.0
  0
LINE
  5
45E
100
AcDbEntity
  8
LAYER0
 62
         3
100
AcDbLine
 10
-48.2710509309
 20
-81.5643754741
 30
0.0
 11
-45.4210508936
 21
-81.5643754741
 31
0.0
  0
LINE
  5
45F
100
AcDbEntity
  8
LAYER0
 62
         3
100
AcDbLine
 10
-45.4210508936
 20
-81.5643754741
 30
0.0
 11
-44.2710509309
 21
-81.5643754741
 31
0.0
  0
LINE
  5
460
100
AcDbEntity
  8
LAYER4
 62
         2
100
AcDbLine
 10
-53.9974027532
 20
-102.4491832272
 30
0.0
 11
-54.3446991085
 21
-100.4795677211
 31
0.0
  0
LINE
  5
461
100
AcDbEntity
  8
LAYER4
 62
         2
100
AcDbLine
 10
-53.9974027532
 20
-102.4491832272
 30
0.0
 11
-43.9965743747
 21
-100.6857673546
 31
0.0
  0
LINE
  5
462
100
AcDbEntity
  8
LAYER4
 62
         2
100
AcDbLine
 10
-54.3446991085
 20
-100.4795677211
 30
0.0
 11
-64.6297502438
 21
-102.2930997342
 31
0.0
  0
LINE
  5
463
100
AcDbEntity
  8
LAYER4
 62
         5
100
AcDbLine
 10
-53.8710509309
 20
-98.9643754741
 30
0.0
 11
-53.8710509309
 21
-102.4269039918
 31
0.0
  0
LINE
  5
464
100
AcDbEntity
  8
LAYER4
 62
         5
100
AcDbLine
 10
-53.8710509309
 20
-98.9643754741
 30
0.0
 11
-53.8710509309
 21
-102.4269039918
 31
0.0
  0
LINE
  5
465
100
AcDbEntity
  8
LAYER4
 62
         5
100
AcDbLine
 10
-54.4710509309
 20
-100.5018469565
 30
0.0
 11
-54.4710509309
 21
-98.9643754741
 31
0.0
  0
LINE
  5
466
100
AcDbEntity
  8
LAYER0
 62
         2
100
AcDbLine
 10
-64.0710509309
 20
-81.4643754741
 30
0.0
 11
-44.2710509309
 21
-81.4643754741
 31
0.0
  0
LINE
  5
467
100
AcDbEntity
  8
LAYER0
 62
         2
100
AcDbLine
 10
-48.4210509309
 20
-78.4643754741
 30
0.0
 11
-54.1710509309
 21
-78.4643754741
 31
0.0
  0
LINE
  5
468
100
AcDbEntity
  8
LAYER0
 62
         2
100
AcDbLine
 10
-48.4210509309
 20
-76.9643754741
 30
0.0
 11
-54.1710509309
 21
-76.9643754741
 31
0.0
  0
LINE
  5
469
100
AcDbEntity
  8
LAYER3
 62
         4
100
AcDbLine
 10
-71.6673654309
 20
-81.4643754741
 30
0.0
 11
-71.0436303585
 21
-78.5299326719
 31
0.0
  0
LINE
  5
46A
100
AcDbEntity
  8
LAYER3
 62
         4
100
AcDbLine
 10
-71.6673654309
 20
-81.4643754741
 30
0.0
 11
-72.2911005034
 21
-78.5299326719
 31
0.0
  0
MTEXT
  5
46B
100
AcDbEntity
  8
LAYER3
100
AcDbMText
 10
-73.5611947766
 20
-75.1643755115
 30
0.0
 40
1.0736841679
 41
1.282322998
 71
         1
 72
         1
  1
\W0.8;30
 11
-0.0000000268
 21
1.0
 31
0.0
  0
LINE
  5
46C
100
AcDbEntity
  8
LAYER3
 62
         4
100
AcDbLine
 10
-66.8210509309
 20
-87.9643754741
 30
0.0
 11
-76.0759291185
 21
-87.9643754741
 31
0.0
  0
LINE
  5
46D
100
AcDbEntity
  8
LAYER3
 62
         4
100
AcDbLine
 10
-75.5759291185
 20
-87.9643754741
 30
0.0
 11
-74.952194046
 21
-85.0299326719
 31
0.0
  0
LINE
  5
46E
100
AcDbEntity
  8
LAYER3
 62
         4
100
AcDbLine
 10
-75.5759291185
 20
-87.9643754741
 30
0.0
 11
-76.1996641909
 21
-85.0299326719
 31
0.0
  0
MTEXT
  5
46F
100
AcDbEntity
  8
LAYER3
100
AcDbMText
 10
-77.4697584642
 20
-75.1643755115
 30
0.0
 40
1.0736841679
 41
1.282322998
 71
         1
 72
         1
  1
\W0.8;56
 11
-0.0000000268
 21
1.0
 31
0.0
  0
INSERT
  5
471
100
AcDbEntity
  8
0
100
AcDbBlockReference
  2
CLUMP32
 10
0.0
 20
0.0
 30
0.0
  0
LINE
  5
488
100
AcDbEntity
  8
LAYER0
 62
         4
100
AcDbLine
 10
-49.9210509309
 20
-98.2143754741
 30
0.0
 11
-58.4210509309
 21
-98.2143754741
 31
0.0
  0
LINE
  5
489
100
AcDbEntity
  8
LAYER0
 62
         4
100
AcDbLine
 10
-58.4210509309
 20
-98.9643754741
 30
0.0
 11
-49.9210509309
 21
-98.9643754741
 31
0.0
  0
LINE
  5
48A
100
AcDbEntity
  8
LAYER0
 62
         4
100
AcDbLine
 10
-58.4210509309
 20
-81.4643754741
 30
0.0
 11
-58.4210509309
 21
-98.9643754741
 31
0.0
  0
LINE
  5
48B
100
AcDbEntity
  8
LAYER0
 62
         4
100
AcDbLine
 10
-49.9210509309
 20
-81.4643754741
 30
0.0
 11
-49.9210509309
 21
-98.9643754741
 31
0.0
  0
LINE
  5
48C
100
AcDbEntity
  8
LAYER0
  6
CENTER
100
AcDbLine
 10
-51.1710509309
 20
-89.9643754741
 30
0.0
 11
-57.1710509309
 21
-89.9643754741
 31
0.0
  0
CIRCLE
  5
48D
100
AcDbEntity
  8
LAYER3
 62
         5
100
AcDbCircle
 10
-54.1710509309
 20
-89.9643754741
 30
0.0
 40
1.75
210
0.0
220
0.0
230
1.0
  0
LINE
  5
48E
100
AcDbEntity
  8
LAYER3
 62
         4
100
AcDbLine
 10
-64.5710509309
 20
-81.4643754741
 30
0.0
 11
-72.1673654309
 21
-81.4643754741
 31
0.0
  0
LINE
  5
48F
100
AcDbEntity
  8
LAYER0
 62
         3
100
AcDbLine
 10
-66.3210509309
 20
-76.4643754741
 30
0.0
 11
-67.0710509309
 21
-76.4643754741
 31
0.0
  0
ARC
  5
490
100
AcDbEntity
  8
LAYER0
 62
         3
100
AcDbCircle
 10
-67.0710509309
 20
-76.9643754741
 30
0.0
 40
0.5
210
0.0
220
0.0
230
1.0
100
AcDbArc
 50
90.0000015352
 51
180.0000030705
  0
LINE
  5
491
100
AcDbEntity
  8
LAYER0
 62
         3
100
AcDbLine
 10
-67.5710509309
 20
-76.9643754741
 30
0.0
 11
-67.5710509309
 21
-86.7143754741
 31
0.0
  0
LINE
  5
492
100
AcDbEntity
  8
LAYER0
 62
         3
100
AcDbLine
 10
-66.3210509309
 20
-76.4643754741
 30
0.0
 11
-66.3210509309
 21
-73.9643754741
 31
0.0
  0
LINE
  5
493
100
AcDbEntity
  8
LAYER0
 62
         3
100
AcDbLine
 10
-66.3210509309
 20
-87.9643754741
 30
0.0
 11
-65.0710509309
 21
-87.9643754741
 31
0.0
  0
ARC
  5
494
100
AcDbEntity
  8
LAYER0
 62
         3
100
AcDbCircle
 10
-66.3210509309
 20
-86.7143754741
 30
0.0
 40
1.25
210
0.0
220
0.0
230
1.0
100
AcDbArc
 50
180.0000030705
 51
269.9999984648
  0
ARC
  5
495
100
AcDbEntity
  8
LAYER0
 62
         3
100
AcDbCircle
 10
-61.8210509309
 20
-84.3828159938
 30
0.0
 40
1.75
210
-0.0
220
0.0
230
1.0
100
AcDbArc
 50
296.565050095
 51
0.0
  0
LINE
  5
496
100
AcDbEntity
  8
LAYER0
 62
         3
100
AcDbLine
 10
-60.0710509309
 20
-84.3828159938
 30
0.0
 11
-60.0710509309
 21
-81.4643754741
 31
0.0
  0
LINE
  5
497
100
AcDbEntity
  8
LAYER0
 62
         3
100
AcDbLine
 10
-61.0384271388
 20
-85.9480635781
 30
0.0
 11
-62.9210509681
 21
-86.8893754928
 31
0.0
  0
LINE
  5
498
100
AcDbEntity
  8
LAYER0
 62
         3
100
AcDbLine
 10
-62.9210509681
 20
-86.8893754928
 30
0.0
 11
-65.0710509309
 21
-87.9643754741
 31
0.0
  0
LINE
  5
499
100
AcDbEntity
  8
LAYER3
 62
         4
100
AcDbLine
 10
-33.9119100142
 20
97.0700040974
 30
0.0
 11
-33.2881749418
 21
100.0044468996
 31
0.0
  0
LINE
  5
49A
100
AcDbEntity
  8
LAYER3
 62
         4
100
AcDbLine
 10
-33.9119100142
 20
97.0700040974
 30
0.0
 11
-34.5356450867
 21
100.0044468996
 31
0.0
  0
MTEXT
  5
49B
100
AcDbEntity
  8
LAYER3
100
AcDbMText
 10
-35.8057393599
 20
108.07000406
 30
0.0
 40
1.0736841679
 41
2.5646459961
 71
         1
 72
         1
  1
\W0.8;53.6
 11
-0.0000000268
 21
1.0
 31
0.0
  0
LINE
  5
49C
100
AcDbEntity
  8
LAYER3
 62
         4
100
AcDbLine
 10
-14.8210507446
 20
123.8700040974
 30
0.0
 11
-34.4119100142
 21
123.8700040974
 31
0.0
  0
LINE
  5
49D
100
AcDbEntity
  8
LAYER3
 62
         4
100
AcDbLine
 10
-14.7860644508
 20
97.0700040974
 30
0.0
 11
-34.4119100142
 21
97.0700040974
 31
0.0
  0
LINE
  5
49E
100
AcDbEntity
  8
LAYER3
 62
         4
100
AcDbLine
 10
-33.9119100142
 20
123.8700040974
 30
0.0
 11
-33.9119100142
 21
97.0700040974
 31
0.0
  0
LINE
  5
49F
100
AcDbEntity
  8
LAYER3
 62
         4
100
AcDbLine
 10
-33.9119100142
 20
123.8700040974
 30
0.0
 11
-34.5356450867
 21
120.9355612952
 31
0.0
  0
LINE
  5
4A0
100
AcDbEntity
  8
LAYER3
 62
         4
100
AcDbLine
 10
53.3289490691
 20
8.2200040974
 30
0.0
 11
41.387939879
 21
8.2200040974
 31
0.0
  0
LINE
  5
4A1
100
AcDbEntity
  8
LAYER3
 62
         4
100
AcDbLine
 10
55.3289490691
 20
37.2200040974
 30
0.0
 11
41.387939879
 21
37.2200040974
 31
0.0
  0
CIRCLE
  5
4A2
100
AcDbEntity
  8
LAYER3
 62
         5
100
AcDbCircle
 10
55.8289490691
 20
18.7200040974
 30
0.0
 40
1.75
210
0.0
220
0.0
230
1.0
  0
CIRCLE
  5
4A3
100
AcDbEntity
  8
LAYER3
 62
         5
100
AcDbCircle
 10
55.8289490691
 20
12.2200040974
 30
0.0
 40
1.75
210
0.0
220
0.0
230
1.0
  0
LINE
  5
4A4
100
AcDbEntity
  8
LAYER0
 62
         5
100
AcDbLine
 10
55.5089490691
 20
12.4200040974
 30
0.0
 11
54.8289490691
 21
12.4200040974
 31
0.0
  0
LINE
  5
4A5
100
AcDbEntity
  8
LAYER0
 62
         5
100
AcDbLine
 10
54.8289490691
 20
12.0200040974
 30
0.0
 11
55.5089490691
 21
12.0200040974
 31
0.0
  0
LINE
  5
4A6
100
AcDbEntity
  8
LAYER0
 62
         4
100
AcDbLine
 10
59.3289490691
 20
22.7200040974
 30
0.0
 11
52.3289490691
 21
22.7200040974
 31
0.0
  0
LINE
  5
4A7
100
AcDbEntity
  8
LAYER0
 62
         4
100
AcDbLine
 10
52.3289490691
 20
9.7200040974
 30
0.0
 11
52.3289490691
 21
33.7200040974
 31
0.0
  0
ARC
  5
4A8
100
AcDbEntity
  8
LAYER0
 62
         4
100
AcDbCircle
 10
55.8289490691
 20
33.7200040974
 30
0.0
 40
3.5
210
-0.0
220
0.0
230
1.0
100
AcDbArc
 50
0.0
 51
180.0000030705
  0
ARC
  5
4A9
100
AcDbEntity
  8
LAYER0
 62
         4
100
AcDbCircle
 10
53.8289490691
 20
9.7200040974
 30
0.0
 40
1.5
210
0.0
220
0.0
230
1.0
100
AcDbArc
 50
180.0000030705
 51
269.9999984648
  0
LINE
  5
4AA
100
AcDbEntity
  8
LAYER0
 62
         5
100
AcDbLine
 10
54.8289490691
 20
18.9200040974
 30
0.0
 11
54.8289490691
 21
18.5200040974
 31
0.0
  0
LINE
  5
4AB
100
AcDbEntity
  8
LAYER0
 62
         5
100
AcDbLine
 10
55.5089490691
 20
18.9200040974
 30
0.0
 11
54.8289490691
 21
18.9200040974
 31
0.0
  0
LINE
  5
4AC
100
AcDbEntity
  8
LAYER0
 62
         5
100
AcDbLine
 10
54.8289490691
 20
18.5200040974
 30
0.0
 11
55.5089490691
 21
18.5200040974
 31
0.0
  0
LINE
  5
4AD
100
AcDbEntity
  8
LAYER0
 62
         5
100
AcDbLine
 10
54.8289490691
 20
12.4200040974
 30
0.0
 11
54.8289490691
 21
12.0200040974
 31
0.0
  0
LINE
  5
4AE
100
AcDbEntity
  8
LAYER4
 62
         2
100
AcDbLine
 10
55.6553008915
 20
4.9548118504
 30
0.0
 11
45.3702497562
 21
3.1412798373
 31
0.0
  0
LINE
  5
4AF
100
AcDbEntity
  8
LAYER0
 62
         4
100
AcDbLine
 10
57.8289490691
 20
8.2200040974
 30
0.0
 11
53.8289490691
 21
8.2200040974
 31
0.0
  0
MTEXT
  5
4B0
100
AcDbEntity
  8
LAYER4
100
AcDbMText
 10
50.4765345299
 20
85.02423384
 30
0.0
 40
1.5461052179
 41
11.0792708193
 71
         1
 72
         1
  1
\W0.8;受金具取付側
  0
LINE
  5
4B1
100
AcDbEntity
  8
LAYER4
 62
         2
100
AcDbLine
 10
55.6553008915
 20
79.9548118504
 30
0.0
 11
45.3702497562
 21
78.1412798373
 31
0.0
  0
MTEXT
  5
4B2
100
AcDbEntity
  8
LAYER0
100
AcDbMText
 10
-35.7051459079
 20
-126.6461242782
 30
0.0
 40
2.1473683357
 41
6.4116149902
 71
         1
 72
         1
  1
\W0.8;Ｎｏ.
  0
CIRCLE
  5
4B3
100
AcDbEntity
  8
LAYER3
 62
         5
100
AcDbCircle
 10
55.3289490691
 20
-86.7143754741
 30
0.0
 40
1.75
210
0.0
220
0.0
230
1.0
  0
CIRCLE
  5
4B4
100
AcDbEntity
  8
LAYER3
 62
         5
100
AcDbCircle
 10
55.3289490691
 20
-93.2143754741
 30
0.0
 40
1.75
210
0.0
220
0.0
230
1.0
  0
LINE
  5
4B5
100
AcDbEntity
  8
LAYER3
 62
         4
100
AcDbLine
 10
51.8289490691
 20
-94.7143754741
 30
0.0
 11
51.8289490691
 21
-110.4158699331
 31
0.0
  0
LINE
  5
4B6
100
AcDbEntity
  8
LAYER3
 62
         4
100
AcDbLine
 10
51.8289490691
 20
-109.9158699331
 30
0.0
 11
58.8289490691
 21
-109.9158699331
 31
0.0
  0
LINE
  5
4B7
100
AcDbEntity
  8
LAYER3
 62
         4
100
AcDbLine
 10
51.8289490691
 20
-109.9158699331
 30
0.0
 11
54.7633918713
 21
-110.5396050055
 31
0.0
  0
LINE
  5
4B8
100
AcDbEntity
  8
LAYER3
 62
         4
100
AcDbLine
 10
51.8289490691
 20
-109.9158699331
 30
0.0
 11
54.7633918713
 21
-109.2921348606
 31
0.0
  0
LINE
  5
4B9
100
AcDbEntity
  8
LAYER3
 62
         4
100
AcDbLine
 10
54.1378511486
 20
-97.2143754741
 30
0.0
 11
40.887939879
 21
-97.2143754741
 31
0.0
  0
ARC
  5
4BA
100
AcDbEntity
  8
LAYER3
 62
         4
100
AcDbCircle
 10
55.3289490691
 20
-93.7143754741
 30
0.0
 40
3.5
210
-0.0
220
0.0
230
1.0
100
AcDbArc
 50
180.0000030705
 51
0.0
  0
LINE
  5
4BB
100
AcDbEntity
  8
LAYER0
 62
         5
100
AcDbLine
 10
55.0089490691
 20
-93.0143754741
 30
0.0
 11
54.3289490691
 21
-93.0143754741
 31
0.0
  0
LINE
  5
4BC
100
AcDbEntity
  8
LAYER0
 62
         5
100
AcDbLine
 10
54.3289490691
 20
-93.4143754741
 30
0.0
 11
55.0089490691
 21
-93.4143754741
 31
0.0
  0
ARC
  5
4BD
100
AcDbEntity
  8
LAYER0
 62
         5
100
AcDbCircle
 10
55.0089490691
 20
-93.5343754741
 30
0.0
 40
0.12
210
0.0
220
-0.0
230
1.0
100
AcDbArc
 50
0.0
 51
90.0000015352
  0
ARC
  5
4BE
100
AcDbEntity
  8
LAYER0
 62
         5
100
AcDbCircle
 10
55.0089490691
 20
-92.8943754741
 30
0.0
 40
0.12
210
-0.0
220
0.0
230
1.0
100
AcDbArc
 50
269.9999984648
 51
0.0
  0
LINE
  5
4BF
100
AcDbEntity
  8
LAYER0
 62
         4
100
AcDbLine
 10
58.8289490691
 20
-82.7143754741
 30
0.0
 11
51.8289490691
 21
-82.7143754741
 31
0.0
  0
LINE
  5
4C0
100
AcDbEntity
  8
LAYER0
 62
         5
100
AcDbLine
 10
54.3289490691
 20
-86.5143754741
 30
0.0
 11
54.3289490691
 21
-86.9143754741
 31
0.0
  0
LINE
  5
4C1
100
AcDbEntity
  8
LAYER0
 62
         5
100
AcDbLine
 10
55.0089490691
 20
-86.5143754741
 30
0.0
 11
54.3289490691
 21
-86.5143754741
 31
0.0
  0
LINE
  5
4C2
100
AcDbEntity
  8
LAYER0
 62
         5
100
AcDbLine
 10
54.3289490691
 20
-86.9143754741
 30
0.0
 11
55.0089490691
 21
-86.9143754741
 31
0.0
  0
ARC
  5
4C3
100
AcDbEntity
  8
LAYER0
 62
         5
100
AcDbCircle
 10
55.0089490691
 20
-87.0343754741
 30
0.0
 40
0.12
210
0.0
220
-0.0
230
1.0
100
AcDbArc
 50
0.0
 51
90.0000015352
  0
ARC
  5
4C4
100
AcDbEntity
  8
LAYER0
 62
         5
100
AcDbCircle
 10
55.0089490691
 20
-86.3943754741
 30
0.0
 40
0.12
210
-0.0
220
0.0
230
1.0
100
AcDbArc
 50
269.9999984648
 51
0.0
  0
LINE
  5
4C5
100
AcDbEntity
  8
LAYER0
 62
         5
100
AcDbLine
 10
54.3289490691
 20
-93.0143754741
 30
0.0
 11
54.3289490691
 21
-93.4143754741
 31
0.0
  0
LINE
  5
4C6
100
AcDbEntity
  8
LAYER0
  6
CENTER
100
AcDbLine
 10
57.8289490691
 20
-86.7143754741
 30
0.0
 11
52.8289490691
 21
-86.7143754741
 31
0.0
  0
LINE
  5
4C7
100
AcDbEntity
  8
LAYER0
  6
CENTER
100
AcDbLine
 10
57.8289490691
 20
-93.2143754741
 30
0.0
 11
52.8289490691
 21
-93.2143754741
 31
0.0
  0
LINE
  5
4C8
100
AcDbEntity
  8
LAYER3
 62
         4
100
AcDbLine
 10
54.8289490691
 20
-68.2143754741
 30
0.0
 11
40.887939879
 21
-68.2143754741
 31
0.0
  0
MTEXT
  5
4C9
100
AcDbEntity
  8
LAYER4
100
AcDbMText
 10
49.9765345299
 20
-20.4101457315
 30
0.0
 40
1.5461052179
 41
11.0792708193
 71
         1
 72
         1
  1
\W0.8;受金具取付壁
  0
LINE
  5
4CA
100
AcDbEntity
  8
LAYER3
 62
         4
100
AcDbLine
 10
-33.9119100142
 20
123.8700040974
 30
0.0
 11
-33.2881749418
 21
120.9355612952
 31
0.0
  0
LINE
  5
4CB
100
AcDbEntity
  8
LAYER0
 62
         6
100
AcDbLine
 10
-5.9210509383
 20
81.6449232822
 30
0.0
 11
-5.9210509383
 21
38.9700040974
 31
0.0
  0
LINE
  5
4CC
100
AcDbEntity
  8
LAYER4
 62
         5
100
AcDbLine
 10
-10.4210507446
 20
45.4700040974
 30
0.0
 11
-10.4210507446
 21
81.3007200997
 31
0.0
  0
LINE
  5
4CD
100
AcDbEntity
  8
LAYER4
 62
         5
100
AcDbLine
 10
-10.1210507446
 20
45.4700040974
 30
0.0
 11
-10.1210507446
 21
81.3236669796
 31
0.0
  0
LINE
  5
4CE
100
AcDbEntity
  8
LAYER0
 62
         6
100
AcDbLine
 10
-58.6710507372
 20
79.1919593302
 30
0.0
 11
-58.6710507372
 21
38.9700040974
 31
0.0
  0
LINE
  5
4CF
100
AcDbEntity
  8
LAYER0
 62
         6
100
AcDbLine
 10
-62.9210509681
 20
78.4425696215
 30
0.0
 11
-62.9210509681
 21
38.9700040974
 31
0.0
  0
LINE
  5
4D0
100
AcDbEntity
  8
LAYER0
 62
         6
100
AcDbLine
 10
-45.4210508936
 20
79.4974385733
 30
0.0
 11
-45.4210508936
 21
38.9700040974
 31
0.0
  0
LINE
  5
4D1
100
AcDbEntity
  8
LAYER0
 62
         6
100
AcDbLine
 10
-49.6710511246
 20
78.7480488645
 30
0.0
 11
-49.6710511246
 21
38.9700040974
 31
0.0
  0
LINE
  5
4D2
100
AcDbEntity
  8
LAYER0
  6
CENTER
100
AcDbLine
 10
-54.1710509309
 20
81.9985199021
 30
0.0
 11
-54.1710509309
 21
0.3753424646
 31
0.0
  0
LINE
  5
4D3
100
AcDbEntity
  8
LAYER3
 62
         2
100
AcDbLine
 10
-1.4210507074
 20
67.0950040974
 30
0.0
 11
-1.4210507074
 21
52.0950040974
 31
0.0
  0
LINE
  5
4D4
100
AcDbEntity
  8
LAYER0
 62
         6
100
AcDbLine
 10
-0.1710507074
 20
80.9700040974
 30
0.0
 11
-0.1710507074
 21
3.9700040974
 31
0.0
  0
LINE
  5
4D5
100
AcDbEntity
  8
LAYER0
 62
         6
100
AcDbLine
 10
-1.6710507074
 20
81.9700040974
 30
0.0
 11
-1.6710507074
 21
38.9700040974
 31
0.0
  0
LINE
  5
4D6
100
AcDbEntity
  8
LAYER0
 62
         3
100
AcDbLine
 10
12.5789493299
 20
17.9700040974
 30
0.0
 11
12.5789493299
 21
72.9700040974
 31
0.0
  0
LINE
  5
4D7
100
AcDbEntity
  8
LAYER4
 62
         5
100
AcDbLine
 10
18.7789493671
 20
81.5837316204
 30
0.0
 11
18.7789493671
 21
3.9700040974
 31
0.0
  0
LINE
  5
4D8
100
AcDbEntity
  8
LAYER4
 62
         5
100
AcDbLine
 10
19.0789493671
 20
81.6066785002
 30
0.0
 11
19.0789493671
 21
3.9700040974
 31
0.0
  0
LINE
  5
4D9
100
AcDbEntity
  8
LAYER4
 62
         5
100
AcDbLine
 10
19.3789493671
 20
81.62962538
 30
0.0
 11
19.3789493671
 21
3.9700040974
 31
0.0
  0
LINE
  5
4DA
100
AcDbEntity
  8
LAYER0
 62
         6
100
AcDbLine
 10
60.3289488754
 20
78.7480488645
 30
0.0
 11
60.3289488754
 21
31.4700040974
 31
0.0
  0
LINE
  5
4DB
100
AcDbEntity
  8
LAYER0
 62
         6
100
AcDbLine
 10
64.5789491064
 20
79.4974385733
 30
0.0
 11
64.5789491064
 21
31.4700040974
 31
0.0
  0
LINE
  5
4DC
100
AcDbEntity
  8
LAYER0
 62
         6
100
AcDbLine
 10
47.0789490319
 20
78.4425696215
 30
0.0
 11
47.0789490319
 21
31.4700040974
 31
0.0
  0
LINE
  5
4DD
100
AcDbEntity
  8
LAYER0
 62
         6
100
AcDbLine
 10
51.3289492628
 20
79.1919593302
 30
0.0
 11
51.3289492628
 21
31.4700040974
 31
0.0
  0
LINE
  5
4DE
100
AcDbEntity
  8
LAYER4
 62
         5
100
AcDbLine
 10
55.5289490691
 20
79.932532615
 30
0.0
 11
55.5289490691
 21
37.2071232522
 31
0.0
  0
LINE
  5
4DF
100
AcDbEntity
  8
LAYER4
 62
         5
100
AcDbLine
 10
56.1289490691
 20
37.2071232522
 30
0.0
 11
56.1289490691
 21
78.0074755797
 31
0.0
  0
LINE
  5
4E0
100
AcDbEntity
  8
LAYER0
 62
         6
100
AcDbLine
 10
23.8289493671
 20
81.9700040974
 30
0.0
 11
23.8289493671
 21
3.9700040974
 31
0.0
  0
LINE
  5
4E1
100
AcDbEntity
  8
LAYER0
 62
         6
100
AcDbLine
 10
16.2289493299
 20
81.3886831391
 30
0.0
 11
16.2289493299
 21
3.9700040974
 31
0.0
  0
LINE
  5
4E2
100
AcDbEntity
  8
LAYER0
 62
         6
100
AcDbLine
 10
13.0789491362
 20
81.1477408861
 30
0.0
 11
13.0789491362
 21
3.9700040974
 31
0.0
  0
LINE
  5
4E3
100
AcDbEntity
  8
LAYER0
  6
CENTER
100
AcDbLine
 10
55.8289490691
 20
82.4837358298
 30
0.0
 11
55.8289490691
 21
-0.8684413381
 31
0.0
  0
LINE
  5
4E4
100
AcDbEntity
  8
LAYER3
 62
         4
100
AcDbLine
 10
16.6781427395
 20
-59.9643754741
 30
0.0
 11
16.6781427395
 21
-73.9643754741
 31
0.0
  0
LINE
  5
4E5
100
AcDbEntity
  8
LAYER3
 62
         4
100
AcDbLine
 10
16.6781427395
 20
-73.9643754741
 30
0.0
 11
17.3018778119
 21
-71.0299326719
 31
0.0
  0
LINE
  5
4E6
100
AcDbEntity
  8
LAYER3
 62
         4
100
AcDbLine
 10
16.6781427395
 20
-73.9643754741
 30
0.0
 11
16.054407667
 21
-71.0299326719
 31
0.0
  0
LINE
  5
4E7
100
AcDbEntity
  8
LAYER3
 62
         4
100
AcDbLine
 10
41.387939879
 20
-68.2143754741
 30
0.0
 11
41.387939879
 21
-97.2143754741
 31
0.0
  0
LINE
  5
4E8
100
AcDbEntity
  8
LAYER3
 62
         4
100
AcDbLine
 10
41.387939879
 20
-68.2143754741
 30
0.0
 11
40.7642048066
 21
-71.1488182763
 31
0.0
  0
LINE
  5
4E9
100
AcDbEntity
  8
LAYER3
 62
         4
100
AcDbLine
 10
41.387939879
 20
-68.2143754741
 30
0.0
 11
42.0116749515
 21
-71.1488182763
 31
0.0
  0
LINE
  5
4EA
100
AcDbEntity
  8
LAYER0
 62
         4
100
AcDbLine
 10
58.8289490691
 20
-71.7143754741
 30
0.0
 11
58.8289490691
 21
-93.7143754741
 31
0.0
  0
LINE
  5
4EB
100
AcDbEntity
  8
LAYER0
 62
         4
100
AcDbLine
 10
51.8289490691
 20
-93.7143754741
 30
0.0
 11
51.8289490691
 21
-71.7143754741
 31
0.0
  0
ARC
  5
4EC
100
AcDbEntity
  8
LAYER0
 62
         4
100
AcDbCircle
 10
55.3289490691
 20
-71.7143754741
 30
0.0
 40
3.5
210
-0.0
220
0.0
230
1.0
100
AcDbArc
 50
0.0
 51
180.0000030705
  0
LINE
  5
4ED
100
AcDbEntity
  8
LAYER0
  6
CENTER
100
AcDbLine
 10
55.3289490691
 20
-22.9506437417
 30
0.0
 11
55.3289490691
 21
-106.3028209096
 31
0.0
  0
LINE
  5
4EE
100
AcDbEntity
  8
LAYER0
 62
         3
100
AcDbLine
 10
4.5789493299
 20
72.9700040974
 30
0.0
 11
4.5789493299
 21
17.9700040974
 31
0.0
  0
LINE
  5
4EF
100
AcDbEntity
  8
LAYER0
 62
         6
100
AcDbLine
 10
4.0789495236
 20
81.3653529476
 30
0.0
 11
4.0789495236
 21
3.9700040974
 31
0.0
  0
LINE
  5
4F0
100
AcDbEntity
  8
LAYER0
 62
         4
100
AcDbLine
 10
-4.6710507074
 20
67.2200040974
 30
0.0
 11
-4.6710507074
 21
7.2200040974
 31
0.0
  0
LINE
  5
4F1
100
AcDbEntity
  8
LAYER0
 62
         4
100
AcDbLine
 10
-3.9210507074
 20
7.2200040974
 30
0.0
 11
-3.9210507074
 21
67.2200040974
 31
0.0
  0
LINE
  5
4F2
100
AcDbEntity
  8
LAYER3
 62
         2
100
AcDbLine
 10
-58.3710509309
 20
52.0950040974
 30
0.0
 11
-58.3710509309
 21
67.0950040974
 31
0.0
  0
LINE
  5
4F3
100
AcDbEntity
  8
LAYER3
 62
         2
100
AcDbLine
 10
-49.9710509309
 20
52.0950040974
 30
0.0
 11
-49.9710509309
 21
67.0950040974
 31
0.0
  0
LINE
  5
4F4
100
AcDbEntity
  8
LAYER0
 62
         4
100
AcDbLine
 10
-58.4210509309
 20
67.9700040974
 30
0.0
 11
-58.4210509309
 21
38.9700040974
 31
0.0
  0
LINE
  5
4F5
100
AcDbEntity
  8
LAYER0
 62
         4
100
AcDbLine
 10
-49.9210509309
 20
67.9700040974
 30
0.0
 11
-49.9210509309
 21
38.9700040974
 31
0.0
  0
LINE
  5
4F6
100
AcDbEntity
  8
LAYER4
 62
         5
100
AcDbLine
 10
-20.9210507819
 20
81.411864553
 30
0.0
 11
-20.9210507819
 21
3.9700040974
 31
0.0
  0
LINE
  5
4F7
100
AcDbEntity
  8
LAYER4
 62
         5
100
AcDbLine
 10
-21.2210507819
 20
81.3839575769
 30
0.0
 11
-21.2210507819
 21
3.9700040974
 31
0.0
  0
LINE
  5
4F8
100
AcDbEntity
  8
LAYER4
 62
         5
100
AcDbLine
 10
-20.6210507819
 20
81.4397715291
 30
0.0
 11
-20.6210507819
 21
3.9700040974
 31
0.0
  0
LINE
  5
4F9
100
AcDbEntity
  8
LAYER4
 62
         5
100
AcDbLine
 10
-10.7210507446
 20
45.4700040974
 30
0.0
 11
-10.7210507446
 21
81.2777732199
 31
0.0
  0
LINE
  5
4FA
100
AcDbEntity
  8
LAYER0
 62
         6
100
AcDbLine
 10
-14.9210505509
 20
80.9565169173
 30
0.0
 11
-14.9210505509
 21
3.9700040974
 31
0.0
  0
LINE
  5
4FB
100
AcDbEntity
  8
LAYER0
 62
         6
100
AcDbLine
 10
-18.0710507446
 20
81.6769808298
 30
0.0
 11
-18.0710507446
 21
3.9700040974
 31
0.0
  0
LINE
  5
4FC
100
AcDbEntity
  8
LAYER0
 62
         6
100
AcDbLine
 10
-25.6710507819
 20
80.9700040974
 30
0.0
 11
-25.6710507819
 21
3.9700040974
 31
0.0
  0
ARC
  5
4FD
100
AcDbEntity
  8
LAYER0
 62
         5
100
AcDbCircle
 10
-10.0210507446
 20
-73.5643754741
 30
0.0
 40
0.15
210
0.0
220
0.0
230
1.0
100
AcDbArc
 50
180.0000030705
 51
269.9999984648
  0
ARC
  5
4FE
100
AcDbEntity
  8
LAYER0
 62
         5
100
AcDbCircle
 10
-10.8210507446
 20
-73.5643754741
 30
0.0
 40
0.15
210
-0.0
220
0.0
230
1.0
100
AcDbArc
 50
269.9999984648
 51
0.0
  0
LINE
  5
4FF
100
AcDbEntity
  8
LAYER0
 62
         4
100
AcDbLine
 10
-2.4210506403
 20
-68.2143754741
 30
0.0
 11
-2.4210506403
 21
-81.4643754741
 31
0.0
  0
LINE
  5
500
100
AcDbEntity
  8
LAYER0
 62
         3
100
AcDbLine
 10
-6.0210507446
 20
-87.4643754741
 30
0.0
 11
-6.0210507446
 21
-60.4643754741
 31
0.0
  0
LINE
  5
501
100
AcDbEntity
  8
LAYER0
 62
         3
100
AcDbLine
 10
-14.8210507446
 20
-87.4643754741
 30
0.0
 11
-14.8210507446
 21
-60.4643754741
 31
0.0
  0
LINE
  5
502
100
AcDbEntity
  8
LAYER0
 62
         3
100
AcDbLine
 10
-6.1710507446
 20
-71.4643754741
 30
0.0
 11
-14.6710507446
 21
-71.4643754741
 31
0.0
  0
LINE
  5
503
100
AcDbEntity
  8
LAYER0
 62
         2
100
AcDbLine
 10
-12.9210507446
 20
-67.4643754741
 30
0.0
 11
-12.9210507446
 21
-80.4643754741
 31
0.0
  0
CIRCLE
  5
504
100
AcDbEntity
  8
LAYER0
 62
         3
100
AcDbCircle
 10
-10.4210507446
 20
-73.9643754741
 30
0.0
 40
2.1
210
0.0
220
0.0
230
1.0
  0
CIRCLE
  5
505
100
AcDbEntity
  8
LAYER0
 62
         5
100
AcDbCircle
 10
-10.4210507446
 20
-73.9643754741
 30
0.0
 40
2.0
210
0.0
220
0.0
230
1.0
  0
LINE
  5
506
100
AcDbEntity
  8
LAYER0
 62
         5
100
AcDbLine
 10
-10.1710507446
 20
-72.7143754741
 30
0.0
 11
-10.6710507446
 21
-72.7143754741
 31
0.0
  0
LINE
  5
507
100
AcDbEntity
  8
LAYER4
 62
         5
100
AcDbLine
 10
-20.9210507819
 20
-13.0225150185
 30
0.0
 11
-20.9210507819
 21
-109.0225150185
 31
0.0
  0
LINE
  5
508
100
AcDbEntity
  8
LAYER4
 62
         5
100
AcDbLine
 10
-21.2210507819
 20
-13.0504219947
 30
0.0
 11
-21.2210507819
 21
-109.0504219947
 31
0.0
  0
LINE
  5
509
100
AcDbEntity
  8
LAYER4
 62
         5
100
AcDbLine
 10
-20.6210507819
 20
-12.9946080424
 30
0.0
 11
-20.6210507819
 21
-108.9946080424
 31
0.0
  0
LINE
  5
50A
100
AcDbEntity
  8
LAYER0
 62
         6
100
AcDbLine
 10
-14.9210505509
 20
-12.4643754741
 30
0.0
 11
-14.9210505509
 21
-108.4643754741
 31
0.0
  0
LINE
  5
50B
100
AcDbEntity
  8
LAYER0
 62
         6
100
AcDbLine
 10
-18.0710507446
 20
-12.7573987417
 30
0.0
 11
-18.0710507446
 21
-108.7573987417
 31
0.0
  0
LINE
  5
50C
100
AcDbEntity
  8
LAYER0
 62
         6
100
AcDbLine
 10
-25.6710507819
 20
-13.4643754741
 30
0.0
 11
-25.6710507819
 21
-109.4643754741
 31
0.0
  0
LINE
  5
50D
100
AcDbEntity
  8
LAYER0
 62
         2
100
AcDbLine
 10
-1.2710507446
 20
-70.9643754741
 30
0.0
 11
-1.1710507446
 21
-70.9643754741
 31
0.0
  0
LINE
  5
50E
100
AcDbEntity
  8
LAYER0
 62
         2
100
AcDbLine
 10
-1.1710507446
 20
-69.4643754741
 30
0.0
 11
-1.1710507446
 21
-70.9643754741
 31
0.0
  0
ARC
  5
50F
100
AcDbEntity
  8
LAYER0
 62
         2
100
AcDbCircle
 10
-1.2710507446
 20
-71.1143754741
 30
0.0
 40
0.15
210
0.0
220
0.0
230
1.0
100
AcDbArc
 50
90.0000015352
 51
180.0000030705
  0
LINE
  5
510
100
AcDbEntity
  8
LAYER0
 62
         2
100
AcDbLine
 10
-1.4210507446
 20
-76.8143754741
 30
0.0
 11
-1.4210507446
 21
-71.1143754741
 31
0.0
  0
LINE
  5
511
100
AcDbEntity
  8
LAYER0
 62
         2
100
AcDbLine
 10
-0.4210507446
 20
-66.4643754741
 30
0.0
 11
-0.4210507446
 21
-81.4643754741
 31
0.0
  0
LINE
  5
512
100
AcDbEntity
  8
LAYER0
 62
         2
100
AcDbLine
 10
-0.4210507446
 20
-70.9643754741
 30
0.0
 11
-0.3210507446
 21
-70.9643754741
 31
0.0
  0
LINE
  5
513
100
AcDbEntity
  8
LAYER0
 62
         2
100
AcDbLine
 10
-0.1710507446
 20
-69.6143754741
 30
0.0
 11
-0.1710507446
 21
-70.8143754741
 31
0.0
  0
ARC
  5
514
100
AcDbEntity
  8
LAYER0
 62
         2
100
AcDbCircle
 10
-0.3210507446
 20
-70.8143754741
 30
0.0
 40
0.15
210
-0.0
220
0.0
230
1.0
100
AcDbArc
 50
269.9999984648
 51
0.0
  0
LINE
  5
515
100
AcDbEntity
  8
LAYER4
 62
         6
100
AcDbLine
 10
0.0789492256
 20
-10.7930111782
 30
0.0
 11
0.0789492256
 21
-116.2692798005
 31
0.0
  0
LINE
  5
516
100
AcDbEntity
  8
LAYER0
 62
         3
100
AcDbLine
 10
-44.2710509309
 20
-81.5643754741
 30
0.0
 11
-44.2710509309
 21
-66.3643754741
 31
0.0
  0
LINE
  5
517
100
AcDbEntity
  8
LAYER0
 62
         3
100
AcDbLine
 10
-42.0210509309
 20
-71.4643754741
 30
0.0
 11
-41.2710509309
 21
-71.4643754741
 31
0.0
  0
ARC
  5
518
100
AcDbEntity
  8
LAYER0
 62
         3
100
AcDbCircle
 10
-41.2710509309
 20
-70.9643754741
 30
0.0
 40
0.5
210
-0.0
220
0.0
230
1.0
100
AcDbArc
 50
269.9999984648
 51
0.0
  0
LINE
  5
519
100
AcDbEntity
  8
LAYER0
 62
         3
100
AcDbLine
 10
-40.7710509309
 20
-70.9643754741
 30
0.0
 11
-40.7710509309
 21
-61.2143754741
 31
0.0
  0
LINE
  5
51A
100
AcDbEntity
  8
LAYER0
 62
         3
100
AcDbLine
 10
-42.0210509309
 20
-71.4643754741
 30
0.0
 11
-42.0210509309
 21
-73.9643754741
 31
0.0
  0
LINE
  5
51B
100
AcDbEntity
  8
LAYER0
 62
         2
100
AcDbLine
 10
-44.2710509309
 20
-66.4643754741
 30
0.0
 11
-44.2710509309
 21
-81.4643754741
 31
0.0
  0
LINE
  5
51C
100
AcDbEntity
  8
LAYER0
 62
         2
100
AcDbLine
 10
-64.0710509309
 20
-66.4643754741
 30
0.0
 11
-64.0710509309
 21
-81.4643754741
 31
0.0
  0
LINE
  5
51D
100
AcDbEntity
  8
LAYER0
 62
         2
100
AcDbLine
 10
-48.4210509309
 20
-70.9643754741
 30
0.0
 11
-54.1710509309
 21
-70.9643754741
 31
0.0
  0
ARC
  5
51E
100
AcDbEntity
  8
LAYER0
 62
         2
100
AcDbCircle
 10
-48.4210509309
 20
-70.2143754741
 30
0.0
 40
0.75
210
0.0
220
0.0
230
1.0
100
AcDbArc
 50
269.9999984648
 51
90.0000015352
  0
LINE
  5
51F
100
AcDbEntity
  8
LAYER0
 62
         2
100
AcDbLine
 10
-59.9210509309
 20
-70.9643754741
 30
0.0
 11
-54.1710509309
 21
-70.9643754741
 31
0.0
  0
ARC
  5
520
100
AcDbEntity
  8
LAYER0
 62
         2
100
AcDbCircle
 10
-59.9210509309
 20
-70.2143754741
 30
0.0
 40
0.75
210
0.0
220
0.0
230
1.0
100
AcDbArc
 50
90.0000015352
 51
269.9999984648
  0
LINE
  5
521
100
AcDbEntity
  8
LAYER0
  6
CENTER
100
AcDbLine
 10
-54.1710509309
 20
-23.4358596694
 30
0.0
 11
-54.1710509309
 21
-105.059037107
 31
0.0
  0
LINE
  5
522
100
AcDbEntity
  8
LAYER0
 62
         4
100
AcDbLine
 10
-3.9210507074
 20
-98.2143754741
 30
0.0
 11
-3.9210507074
 21
-38.2143754741
 31
0.0
  0
LINE
  5
523
100
AcDbEntity
  8
LAYER0
 62
         4
100
AcDbLine
 10
-4.6710507074
 20
-38.2143754741
 30
0.0
 11
-4.6710507074
 21
-98.2143754741
 31
0.0
  0
ARC
  5
524
100
AcDbEntity
  8
LAYER0
 62
         3
100
AcDbCircle
 10
-6.5210507446
 20
-70.9643754741
 30
0.0
 40
0.5
210
-0.0
220
0.0
230
1.0
100
AcDbArc
 50
269.9999984648
 51
0.0
  0
ARC
  5
525
100
AcDbEntity
  8
LAYER0
 62
         3
100
AcDbCircle
 10
-14.3210507446
 20
-70.9643754741
 30
0.0
 40
0.5
210
0.0
220
0.0
230
1.0
100
AcDbArc
 50
179.9999969295
 51
269.9999984648
  0
ARC
  5
526
100
AcDbEntity
  8
LAYER0
 62
         3
100
AcDbCircle
 10
-6.1710507446
 20
-71.3143754741
 30
0.0
 40
0.15
210
-0.0
220
0.0
230
1.0
100
AcDbArc
 50
269.9999984648
 51
0.0
  0
ARC
  5
527
100
AcDbEntity
  8
LAYER0
 62
         3
100
AcDbCircle
 10
-14.6710507446
 20
-71.3143754741
 30
0.0
 40
0.15
210
0.0
220
0.0
230
1.0
100
AcDbArc
 50
179.9999969295
 51
269.9999984648
  0
LINE
  5
528
100
AcDbEntity
  8
LAYER0
 62
         4
100
AcDbLine
 10
-3.6710506403
 20
-68.2143754741
 30
0.0
 11
-3.6710506403
 21
-81.4643754741
 31
0.0
  0
LINE
  5
529
100
AcDbEntity
  8
LAYER0
 62
         5
100
AcDbLine
 10
-11.6710507446
 20
-73.7143754741
 30
0.0
 11
-11.6710507446
 21
-74.2143754741
 31
0.0
  0
LINE
  5
52A
100
AcDbEntity
  8
LAYER0
 62
         5
100
AcDbLine
 10
-9.1710507446
 20
-73.7143754741
 30
0.0
 11
-9.1710507446
 21
-74.2143754741
 31
0.0
  0
LINE
  5
52B
100
AcDbEntity
  8
LAYER0
 62
         5
100
AcDbLine
 10
-9.1710507446
 20
-73.7143754741
 30
0.0
 11
-10.0210507446
 21
-73.7143754741
 31
0.0
  0
LINE
  5
52C
100
AcDbEntity
  8
LAYER0
 62
         5
100
AcDbLine
 10
-10.8210507446
 20
-73.7143754741
 30
0.0
 11
-11.6710507446
 21
-73.7143754741
 31
0.0
  0
LINE
  5
52D
100
AcDbEntity
  8
LAYER0
 62
         5
100
AcDbLine
 10
-10.1710507446
 20
-72.7143754741
 30
0.0
 11
-10.1710507446
 21
-73.5643754741
 31
0.0
  0
LINE
  5
52E
100
AcDbEntity
  8
LAYER0
 62
         5
100
AcDbLine
 10
-10.6710507446
 20
-73.5643754741
 30
0.0
 11
-10.6710507446
 21
-72.7143754741
 31
0.0
  0
LINE
  5
52F
100
AcDbEntity
  8
LAYER4
 62
         2
100
AcDbLine
 10
10.5789495236
 20
4.4700040974
 30
0.0
 11
10.7552765043
 21
3.4700040974
 31
0.0
  0
LINE
  5
530
100
AcDbEntity
  8
LAYER4
 62
         2
100
AcDbLine
 10
10.7552765043
 20
3.4700040974
 30
0.0
 11
23.8289493671
 21
4.4700040974
 31
0.0
  0
MTEXT
  5
531
100
AcDbEntity
  8
LAYER4
100
AcDbMText
 10
6.8837808425
 20
85.5828774119
 30
0.0
 40
1.2884210825
 41
9.2327261668
 71
         1
 72
         1
  1
\W0.8;受金具取付側
  0
LINE
  5
532
100
AcDbEntity
  8
LAYER4
 62
         3
100
AcDbLine
 10
12.5789493299
 20
116.3200040676
 30
0.0
 11
4.5789493299
 21
116.3200040676
 31
0.0
  0
LINE
  5
533
100
AcDbEntity
  8
LAYER4
 62
         3
100
AcDbLine
 10
12.5789493299
 20
104.6200041272
 30
0.0
 11
4.5789493299
 21
104.6200041272
 31
0.0
  0
LINE
  5
534
100
AcDbEntity
  8
LAYER4
 62
         5
100
AcDbLine
 10
8.2789493299
 20
81.4700040974
 30
0.0
 11
8.2789493299
 21
73.4700040974
 31
0.0
  0
LINE
  5
535
100
AcDbEntity
  8
LAYER4
 62
         5
100
AcDbLine
 10
8.5789493299
 20
81.4700040974
 30
0.0
 11
8.5789493299
 21
73.4700040974
 31
0.0
  0
LINE
  5
536
100
AcDbEntity
  8
LAYER4
 62
         5
100
AcDbLine
 10
8.8789493299
 20
81.4700040974
 30
0.0
 11
8.8789493299
 21
73.4700040974
 31
0.0
  0
LINE
  5
537
100
AcDbEntity
  8
LAYER4
 62
         5
100
AcDbLine
 10
8.2789493299
 20
3.9700040974
 30
0.0
 11
8.2789493299
 21
17.4700040974
 31
0.0
  0
LINE
  5
538
100
AcDbEntity
  8
LAYER4
 62
         5
100
AcDbLine
 10
8.5789493299
 20
3.9700040974
 30
0.0
 11
8.5789493299
 21
17.4700040974
 31
0.0
  0
LINE
  5
539
100
AcDbEntity
  8
LAYER4
 62
         5
100
AcDbLine
 10
8.8789493299
 20
3.9700040974
 30
0.0
 11
8.8789493299
 21
17.4700040974
 31
0.0
  0
INSERT
  5
53B
100
AcDbEntity
  8
0
100
AcDbBlockReference
  2
CLUMP34
 10
0.0
 20
0.0
 30
0.0
  0
INSERT
  5
550
100
AcDbEntity
  8
0
100
AcDbBlockReference
  2
CLUMP36
 10
0.0
 20
0.0
 30
0.0
  0
INSERT
  5
565
100
AcDbEntity
  8
0
100
AcDbBlockReference
  2
CLUMP38
 10
0.0
 20
0.0
 30
0.0
  0
INSERT
  5
57A
100
AcDbEntity
  8
0
100
AcDbBlockReference
  2
CLUMP40
 10
0.0
 20
0.0
 30
0.0
  0
LINE
  5
5FA
100
AcDbEntity
  8
LAYER3
 62
         4
100
AcDbLine
 10
-0.1710507074
 20
92.7388398294
 30
0.0
 11
23.8289493671
 21
92.7388398294
 31
0.0
  0
LINE
  5
5FB
100
AcDbEntity
  8
LAYER4
 62
         2
100
AcDbLine
 10
-0.1710507074
 20
80.9700040974
 30
0.0
 11
10.5789495236
 21
81.9700040974
 31
0.0
  0
LINE
  5
5FC
100
AcDbEntity
  8
LAYER4
 62
         2
100
AcDbLine
 10
-0.1710507074
 20
3.4700040974
 30
0.0
 11
10.5789495236
 21
4.4700040974
 31
0.0
  0
LINE
  5
5FD
100
AcDbEntity
  8
LAYER3
 62
         4
100
AcDbLine
 10
-75.5759291185
 20
-59.9643754741
 30
0.0
 11
-75.5759291185
 21
-87.9643754741
 31
0.0
  0
LINE
  5
5FE
100
AcDbEntity
  8
LAYER3
 62
         4
100
AcDbLine
 10
-71.6673654309
 20
-66.4643754741
 30
0.0
 11
-71.6673654309
 21
-81.4643754741
 31
0.0
  0
LINE
  5
5FF
100
AcDbEntity
  8
LAYER0
 62
         3
100
AcDbLine
 10
-64.0710509309
 20
-81.5643754741
 30
0.0
 11
-64.0710509309
 21
-66.3643754741
 31
0.0
  0
LINE
  5
600
100
AcDbEntity
  8
LAYER0
 62
         3
100
AcDbLine
 10
-66.3210509309
 20
-71.4643754741
 30
0.0
 11
-67.0710509309
 21
-71.4643754741
 31
0.0
  0
ARC
  5
601
100
AcDbEntity
  8
LAYER0
 62
         3
100
AcDbCircle
 10
-67.0710509309
 20
-70.9643754741
 30
0.0
 40
0.5
210
0.0
220
0.0
230
1.0
100
AcDbArc
 50
180.0000030705
 51
269.9999984648
  0
LINE
  5
602
100
AcDbEntity
  8
LAYER0
 62
         3
100
AcDbLine
 10
-67.5710509309
 20
-70.9643754741
 30
0.0
 11
-67.5710509309
 21
-61.2143754741
 31
0.0
  0
LINE
  5
603
100
AcDbEntity
  8
LAYER0
 62
         3
100
AcDbLine
 10
-66.3210509309
 20
-71.4643754741
 30
0.0
 11
-66.3210509309
 21
-73.9643754741
 31
0.0
  0
LINE
  5
604
100
AcDbEntity
  8
LAYER1
 62
         5
100
AcDbLine
 10
0.0789492256
 20
-86.0879922862
 30
0.0
 11
10.0789492256
 21
-80.3144895943
 31
0.0
  0
LINE
  5
605
100
AcDbEntity
  8
LAYER1
 62
         5
100
AcDbLine
 10
0.0789492256
 20
-84.9332917478
 30
0.0
 11
10.0789492256
 21
-79.1597890559
 31
0.0
  0
LINE
  5
606
100
AcDbEntity
  8
LAYER1
 62
         5
100
AcDbLine
 10
0.0789492256
 20
-83.7785912094
 30
0.0
 11
10.0789492256
 21
-78.0050885175
 31
0.0
  0
LINE
  5
607
100
AcDbEntity
  8
LAYER1
 62
         5
100
AcDbLine
 10
0.0789492256
 20
-82.623890671
 30
0.0
 11
10.0789492256
 21
-76.8503879791
 31
0.0
  0
LINE
  5
608
100
AcDbEntity
  8
LAYER1
 62
         5
100
AcDbLine
 10
0.0789492256
 20
-81.4691901326
 30
0.0
 11
10.0789492256
 21
-75.6956874407
 31
0.0
  0
LINE
  5
609
100
AcDbEntity
  8
LAYER1
 62
         5
100
AcDbLine
 10
0.0789492256
 20
-80.3144895943
 30
0.0
 11
10.0789492256
 21
-74.5409869024
 31
0.0
  0
LINE
  5
60A
100
AcDbEntity
  8
LAYER1
 62
         5
100
AcDbLine
 10
0.0789492256
 20
-79.1597890559
 30
0.0
 11
10.0789492256
 21
-73.386286364
 31
0.0
  0
LINE
  5
60B
100
AcDbEntity
  8
LAYER1
 62
         5
100
AcDbLine
 10
0.0789492256
 20
-78.0050885175
 30
0.0
 11
10.0789492256
 21
-72.2315858256
 31
0.0
  0
LINE
  5
60C
100
AcDbEntity
  8
LAYER1
 62
         5
100
AcDbLine
 10
0.0789492256
 20
-76.8503879791
 30
0.0
 11
10.0789492256
 21
-71.0768852872
 31
0.0
  0
LINE
  5
60D
100
AcDbEntity
  8
LAYER1
 62
         5
100
AcDbLine
 10
0.0789492256
 20
-75.6956874407
 30
0.0
 11
10.0789492256
 21
-69.9221847488
 31
0.0
  0
LINE
  5
60E
100
AcDbEntity
  8
LAYER1
 62
         5
100
AcDbLine
 10
0.0789492256
 20
-116.110206284
 30
0.0
 11
10.0789492256
 21
-110.3367035921
 31
0.0
  0
LINE
  5
60F
100
AcDbEntity
  8
LAYER0
 62
         3
100
AcDbLine
 10
95.0
 20
-138.5
 30
0.0
 11
-40.0
 21
-138.5
 31
0.0
  0
LINE
  5
610
100
AcDbEntity
  8
LAYER0
 62
         3
100
AcDbLine
 10
95.0
 20
-130.5
 30
0.0
 11
-40.0
 21
-130.5
 31
0.0
  0
LINE
  5
611
100
AcDbEntity
  8
LAYER0
 62
         3
100
AcDbLine
 10
95.0
 20
-125.5
 30
0.0
 11
-40.0
 21
-125.5
 31
0.0
  0
LINE
  5
612
100
AcDbEntity
  8
LAYER3
 62
         4
100
AcDbLine
 10
2.3504793395
 20
31.4700040974
 30
0.0
 11
29.0377326541
 21
31.4700040974
 31
0.0
  0
LINE
  5
613
100
AcDbEntity
  8
LAYER3
 62
         4
100
AcDbLine
 10
8.5789493597
 20
18.7200040974
 30
0.0
 11
29.0377326541
 21
18.7200040974
 31
0.0
  0
LINE
  5
614
100
AcDbEntity
  8
LAYER3
 62
         4
100
AcDbLine
 10
8.5789493597
 20
12.2200040974
 30
0.0
 11
29.0377326541
 21
12.2200040974
 31
0.0
  0
LINE
  5
615
100
AcDbEntity
  8
LAYER3
 62
         4
100
AcDbLine
 10
9.0789493597
 20
18.7200040974
 30
0.0
 11
29.0377326541
 21
18.7200040974
 31
0.0
  0
LINE
  5
616
100
AcDbEntity
  8
LAYER0
 62
         3
100
AcDbLine
 10
5.0789493299
 20
73.4700040974
 30
0.0
 11
12.0789493299
 21
73.4700040974
 31
0.0
  0
LINE
  5
617
100
AcDbEntity
  8
LAYER0
 62
         3
100
AcDbLine
 10
4.5789493299
 20
45.4700040974
 30
0.0
 11
12.5789493299
 21
45.4700040974
 31
0.0
  0
LINE
  5
618
100
AcDbEntity
  8
LAYER0
 62
         3
100
AcDbLine
 10
5.0789493299
 20
17.4700040974
 30
0.0
 11
12.0789493299
 21
17.4700040974
 31
0.0
  0
MTEXT
  5
619
100
AcDbEntity
  8
LAYER0
100
AcDbMText
 10
6.1789495236
 20
62.0453214802
 30
0.0
 40
4.2947366714
 41
5.1292919922
 71
         1
 72
         1
  1
\W0.8;開
  0
MTEXT
  5
61A
100
AcDbEntity
  8
LAYER0
100
AcDbMText
 10
6.1789495236
 20
34.0453214802
 30
0.0
 40
4.2947366714
 41
5.1292919922
 71
         1
 72
         1
  1
\W0.8;閉
  0
LINE
  5
61B
100
AcDbEntity
  8
LAYER4
 62
         2
100
AcDbLine
 10
10.5789495236
 20
81.9700040974
 30
0.0
 11
10.7552765043
 21
80.9700040974
 31
0.0
  0
LINE
  5
61C
100
AcDbEntity
  8
LAYER4
 62
         2
100
AcDbLine
 10
10.7552765043
 20
80.9700040974
 30
0.0
 11
23.8289493671
 21
81.9700040974
 31
0.0
  0
LINE
  5
61D
100
AcDbEntity
  8
LAYER1
 62
         5
100
AcDbLine
 10
0.0789492256
 20
-57.2204788267
 30
0.0
 11
10.0789492256
 21
-51.4469761348
 31
0.0
  0
LINE
  5
61E
100
AcDbEntity
  8
LAYER1
 62
         5
100
AcDbLine
 10
0.0789492256
 20
-56.0657782883
 30
0.0
 11
10.0789492256
 21
-50.2922755964
 31
0.0
  0
LINE
  5
61F
100
AcDbEntity
  8
LAYER1
 62
         5
100
AcDbLine
 10
0.0789492256
 20
-54.9110777499
 30
0.0
 11
10.0789492256
 21
-49.137575058
 31
0.0
  0
LINE
  5
620
100
AcDbEntity
  8
LAYER1
 62
         5
100
AcDbLine
 10
0.0789492256
 20
-53.7563772115
 30
0.0
 11
10.0789492256
 21
-47.9828745196
 31
0.0
  0
LINE
  5
621
100
AcDbEntity
  8
LAYER1
 62
         5
100
AcDbLine
 10
0.0789492256
 20
-52.6016766732
 30
0.0
 11
10.0789492256
 21
-46.8281739813
 31
0.0
  0
LINE
  5
622
100
AcDbEntity
  8
LAYER1
 62
         5
100
AcDbLine
 10
0.0789492256
 20
-51.4469761348
 30
0.0
 11
10.0789492256
 21
-45.6734734429
 31
0.0
  0
LINE
  5
623
100
AcDbEntity
  8
LAYER1
 62
         5
100
AcDbLine
 10
0.0789492256
 20
-50.2922755964
 30
0.0
 11
10.0789492256
 21
-44.5187729045
 31
0.0
  0
LINE
  5
624
100
AcDbEntity
  8
LAYER1
 62
         5
100
AcDbLine
 10
0.0789492256
 20
-49.137575058
 30
0.0
 11
10.0789492256
 21
-43.3640723661
 31
0.0
  0
LINE
  5
625
100
AcDbEntity
  8
LAYER1
 62
         5
100
AcDbLine
 10
0.0789492256
 20
-47.9828745196
 30
0.0
 11
10.0789492256
 21
-42.2093718277
 31
0.0
  0
LINE
  5
626
100
AcDbEntity
  8
LAYER1
 62
         5
100
AcDbLine
 10
0.0789492256
 20
-46.8281739813
 30
0.0
 11
10.0789492256
 21
-41.0546712894
 31
0.0
  0
LINE
  5
627
100
AcDbEntity
  8
LAYER1
 62
         5
100
AcDbLine
 10
0.0789492256
 20
-114.9555057456
 30
0.0
 11
10.0789492256
 21
-109.1820030537
 31
0.0
  0
LINE
  5
628
100
AcDbEntity
  8
LAYER1
 62
         5
100
AcDbLine
 10
0.0789492256
 20
-102.2537998235
 30
0.0
 11
10.0789492256
 21
-96.4802971316
 31
0.0
  0
LINE
  5
629
100
AcDbEntity
  8
LAYER1
 62
         5
100
AcDbLine
 10
0.0789492256
 20
-101.0990992851
 30
0.0
 11
10.0789492256
 21
-95.3255965932
 31
0.0
  0
LINE
  5
62A
100
AcDbEntity
  8
LAYER1
 62
         5
100
AcDbLine
 10
0.0789492256
 20
-99.9443987467
 30
0.0
 11
10.0789492256
 21
-94.1708960548
 31
0.0
  0
LINE
  5
62B
100
AcDbEntity
  8
LAYER1
 62
         5
100
AcDbLine
 10
0.0789492256
 20
-98.7896982083
 30
0.0
 11
10.0789492256
 21
-93.0161955164
 31
0.0
  0
LINE
  5
62C
100
AcDbEntity
  8
LAYER1
 62
         5
100
AcDbLine
 10
0.0789492256
 20
-97.6349976699
 30
0.0
 11
10.0789492256
 21
-91.8614949781
 31
0.0
  0
LINE
  5
62D
100
AcDbEntity
  8
LAYER1
 62
         5
100
AcDbLine
 10
0.0789492256
 20
-96.4802971316
 30
0.0
 11
10.0789492256
 21
-90.7067944397
 31
0.0
  0
LINE
  5
62E
100
AcDbEntity
  8
LAYER1
 62
         5
100
AcDbLine
 10
0.0789492256
 20
-95.3255965932
 30
0.0
 11
10.0789492256
 21
-89.5520939013
 31
0.0
  0
LINE
  5
62F
100
AcDbEntity
  8
LAYER1
 62
         5
100
AcDbLine
 10
0.0789492256
 20
-94.1708960548
 30
0.0
 11
10.0789492256
 21
-88.3973933629
 31
0.0
  0
LINE
  5
630
100
AcDbEntity
  8
LAYER1
 62
         5
100
AcDbLine
 10
0.0789492256
 20
-93.0161955164
 30
0.0
 11
10.0789492256
 21
-87.2426928245
 31
0.0
  0
LINE
  5
631
100
AcDbEntity
  8
LAYER1
 62
         5
100
AcDbLine
 10
0.0789492256
 20
-91.8614949781
 30
0.0
 11
10.0789492256
 21
-86.0879922862
 31
0.0
  0
LINE
  5
632
100
AcDbEntity
  8
LAYER1
 62
         5
100
AcDbLine
 10
0.0789492256
 20
-90.7067944397
 30
0.0
 11
10.0789492256
 21
-84.9332917478
 31
0.0
  0
LINE
  5
633
100
AcDbEntity
  8
LAYER1
 62
         5
100
AcDbLine
 10
0.0789492256
 20
-89.5520939013
 30
0.0
 11
10.0789492256
 21
-83.7785912094
 31
0.0
  0
LINE
  5
634
100
AcDbEntity
  8
LAYER1
 62
         5
100
AcDbLine
 10
0.0789492256
 20
-88.3973933629
 30
0.0
 11
10.0789492256
 21
-82.623890671
 31
0.0
  0
LINE
  5
635
100
AcDbEntity
  8
LAYER1
 62
         5
100
AcDbLine
 10
0.0789492256
 20
-87.2426928245
 30
0.0
 11
10.0789492256
 21
-81.4691901326
 31
0.0
  0
LINE
  5
636
100
AcDbEntity
  8
LAYER1
 62
         5
100
AcDbLine
 10
0.0789492256
 20
-42.2093718277
 30
0.0
 11
10.0789492256
 21
-36.4358691358
 31
0.0
  0
LINE
  5
637
100
AcDbEntity
  8
LAYER1
 62
         5
100
AcDbLine
 10
0.0789492256
 20
-41.0546712894
 30
0.0
 11
10.0789492256
 21
-35.2811685975
 31
0.0
  0
LINE
  5
638
100
AcDbEntity
  8
LAYER1
 62
         5
100
AcDbLine
 10
0.0789492256
 20
-39.899970751
 30
0.0
 11
10.0789492256
 21
-34.1264680591
 31
0.0
  0
LINE
  5
639
100
AcDbEntity
  8
LAYER1
 62
         5
100
AcDbLine
 10
0.0789492256
 20
-38.7452702126
 30
0.0
 11
10.0789492256
 21
-32.9717675207
 31
0.0
  0
LINE
  5
63A
100
AcDbEntity
  8
LAYER1
 62
         5
100
AcDbLine
 10
0.0789492256
 20
-37.5905696742
 30
0.0
 11
10.0789492256
 21
-31.8170669823
 31
0.0
  0
LINE
  5
63B
100
AcDbEntity
  8
LAYER1
 62
         5
100
AcDbLine
 10
0.0789492256
 20
-30.662366444
 30
0.0
 11
10.0789492256
 21
-24.8888637521
 31
0.0
  0
LINE
  5
63C
100
AcDbEntity
  8
LAYER1
 62
         5
100
AcDbLine
 10
0.0789492256
 20
-21.4247621369
 30
0.0
 11
10.0789492256
 21
-15.651259445
 31
0.0
  0
LINE
  5
63D
100
AcDbEntity
  8
LAYER1
 62
         5
100
AcDbLine
 10
0.0789492256
 20
-20.2700615985
 30
0.0
 11
10.0789492256
 21
-14.4965589066
 31
0.0
  0
LINE
  5
63E
100
AcDbEntity
  8
LAYER1
 62
         5
100
AcDbLine
 10
0.0789492256
 20
-19.1153610602
 30
0.0
 11
10.0789492256
 21
-13.3418583683
 31
0.0
  0
LINE
  5
63F
100
AcDbEntity
  8
LAYER1
 62
         5
100
AcDbLine
 10
0.0789492256
 20
-17.9606605218
 30
0.0
 11
9.5970044179
 21
-12.4654087943
 31
0.0
  0
LINE
  5
640
100
AcDbEntity
  8
LAYER1
 62
         5
100
AcDbLine
 10
0.0789492256
 20
-74.5409869024
 30
0.0
 11
10.0789492256
 21
-68.7674842105
 31
0.0
  0
LINE
  5
641
100
AcDbEntity
  8
LAYER1
 62
         5
100
AcDbLine
 10
0.0789492256
 20
-73.386286364
 30
0.0
 11
10.0789492256
 21
-67.6127836721
 31
0.0
  0
LINE
  5
642
100
AcDbEntity
  8
LAYER1
 62
         5
100
AcDbLine
 10
0.0789492256
 20
-72.2315858256
 30
0.0
 11
10.0789492256
 21
-66.4580831337
 31
0.0
  0
LINE
  5
643
100
AcDbEntity
  8
LAYER1
 62
         5
100
AcDbLine
 10
0.0789492256
 20
-71.0768852872
 30
0.0
 11
10.0789492256
 21
-65.3033825953
 31
0.0
  0
LINE
  5
644
100
AcDbEntity
  8
LAYER1
 62
         5
100
AcDbLine
 10
0.0789492256
 20
-69.9221847488
 30
0.0
 11
10.0789492256
 21
-64.148682057
 31
0.0
  0
LINE
  5
645
100
AcDbEntity
  8
LAYER1
 62
         5
100
AcDbLine
 10
0.0789492256
 20
-68.7674842105
 30
0.0
 11
10.0789492256
 21
-62.9939815186
 31
0.0
  0
LINE
  5
646
100
AcDbEntity
  8
LAYER1
 62
         5
100
AcDbLine
 10
0.0789492256
 20
-67.6127836721
 30
0.0
 11
10.0789492256
 21
-61.8392809802
 31
0.0
  0
LINE
  5
647
100
AcDbEntity
  8
LAYER1
 62
         5
100
AcDbLine
 10
0.0789492256
 20
-66.4580831337
 30
0.0
 11
10.0789492256
 21
-60.6845804418
 31
0.0
  0
LINE
  5
648
100
AcDbEntity
  8
LAYER1
 62
         5
100
AcDbLine
 10
0.0789492256
 20
-65.3033825953
 30
0.0
 11
10.0789492256
 21
-59.5298799034
 31
0.0
  0
LINE
  5
649
100
AcDbEntity
  8
LAYER1
 62
         5
100
AcDbLine
 10
0.0789492256
 20
-64.148682057
 30
0.0
 11
10.0789492256
 21
-58.3751793651
 31
0.0
  0
LINE
  5
64A
100
AcDbEntity
  8
LAYER1
 62
         5
100
AcDbLine
 10
0.0789492256
 20
-62.9939815186
 30
0.0
 11
10.0789492256
 21
-57.2204788267
 31
0.0
  0
LINE
  5
64B
100
AcDbEntity
  8
LAYER1
 62
         5
100
AcDbLine
 10
0.0789492256
 20
-61.8392809802
 30
0.0
 11
10.0789492256
 21
-56.0657782883
 31
0.0
  0
LINE
  5
64C
100
AcDbEntity
  8
LAYER1
 62
         5
100
AcDbLine
 10
0.0789492256
 20
-60.6845804418
 30
0.0
 11
10.0789492256
 21
-54.9110777499
 31
0.0
  0
LINE
  5
64D
100
AcDbEntity
  8
LAYER1
 62
         5
100
AcDbLine
 10
0.0789492256
 20
-59.5298799034
 30
0.0
 11
10.0789492256
 21
-53.7563772115
 31
0.0
  0
LINE
  5
64E
100
AcDbEntity
  8
LAYER1
 62
         5
100
AcDbLine
 10
0.0789492256
 20
-58.3751793651
 30
0.0
 11
10.0789492256
 21
-52.6016766732
 31
0.0
  0
LINE
  5
64F
100
AcDbEntity
  8
LAYER1
 62
         5
100
AcDbLine
 10
0.0789492256
 20
-23.7341632137
 30
0.0
 11
10.0789492256
 21
-17.9606605218
 31
0.0
  0
LINE
  5
650
100
AcDbEntity
  8
LAYER1
 62
         5
100
AcDbLine
 10
0.0789492256
 20
-24.8888637521
 30
0.0
 11
10.0789492256
 21
-19.1153610602
 31
0.0
  0
LINE
  5
651
100
AcDbEntity
  8
LAYER1
 62
         5
100
AcDbLine
 10
0.0789492256
 20
-26.0435642904
 30
0.0
 11
10.0789492256
 21
-20.2700615985
 31
0.0
  0
LINE
  5
652
100
AcDbEntity
  8
LAYER1
 62
         5
100
AcDbLine
 10
0.0789492256
 20
-27.1982648288
 30
0.0
 11
10.0789492256
 21
-21.4247621369
 31
0.0
  0
LINE
  5
653
100
AcDbEntity
  8
LAYER1
 62
         5
100
AcDbLine
 10
0.0789492256
 20
-28.3529653672
 30
0.0
 11
10.0789492256
 21
-22.5794626753
 31
0.0
  0
LINE
  5
654
100
AcDbEntity
  8
LAYER1
 62
         5
100
AcDbLine
 10
0.0789492256
 20
-34.1264680591
 30
0.0
 11
10.0789492256
 21
-28.3529653672
 31
0.0
  0
LINE
  5
655
100
AcDbEntity
  8
LAYER1
 62
         5
100
AcDbLine
 10
0.0789492256
 20
-35.2811685975
 30
0.0
 11
10.0789492256
 21
-29.5076659056
 31
0.0
  0
LINE
  5
656
100
AcDbEntity
  8
LAYER1
 62
         5
100
AcDbLine
 10
0.0789492256
 20
-36.4358691358
 30
0.0
 11
10.0789492256
 21
-30.662366444
 31
0.0
  0
LINE
  5
657
100
AcDbEntity
  8
LAYER1
 62
         5
100
AcDbLine
 10
0.0789492256
 20
-114.9555057456
 30
0.0
 11
10.0789492256
 21
-109.1820030537
 31
0.0
  0
LINE
  5
658
100
AcDbEntity
  8
LAYER1
 62
         5
100
AcDbLine
 10
0.0789492256
 20
-113.8008052073
 30
0.0
 11
10.0789492256
 21
-108.0273025154
 31
0.0
  0
LINE
  5
659
100
AcDbEntity
  8
LAYER1
 62
         5
100
AcDbLine
 10
0.0789492256
 20
-112.6461046689
 30
0.0
 11
10.0789492256
 21
-106.872601977
 31
0.0
  0
LINE
  5
65A
100
AcDbEntity
  8
LAYER1
 62
         5
100
AcDbLine
 10
0.0789492256
 20
-111.4914041305
 30
0.0
 11
10.0789492256
 21
-105.7179014386
 31
0.0
  0
LINE
  5
65B
100
AcDbEntity
  8
LAYER1
 62
         5
100
AcDbLine
 10
0.0789492256
 20
-110.3367035921
 30
0.0
 11
10.0789492256
 21
-104.5632009002
 31
0.0
  0
LINE
  5
65C
100
AcDbEntity
  8
LAYER1
 62
         5
100
AcDbLine
 10
0.0789492256
 20
-109.1820030537
 30
0.0
 11
10.0789492256
 21
-103.4085003618
 31
0.0
  0
LINE
  5
65D
100
AcDbEntity
  8
LAYER1
 62
         5
100
AcDbLine
 10
0.0789492256
 20
-108.0273025154
 30
0.0
 11
10.0789492256
 21
-102.2537998235
 31
0.0
  0
LINE
  5
65E
100
AcDbEntity
  8
LAYER1
 62
         5
100
AcDbLine
 10
0.0789492256
 20
-106.872601977
 30
0.0
 11
10.0789492256
 21
-101.0990992851
 31
0.0
  0
LINE
  5
65F
100
AcDbEntity
  8
LAYER1
 62
         5
100
AcDbLine
 10
0.0789492256
 20
-105.7179014386
 30
0.0
 11
10.0789492256
 21
-99.9443987467
 31
0.0
  0
LINE
  5
660
100
AcDbEntity
  8
LAYER1
 62
         5
100
AcDbLine
 10
0.0789492256
 20
-104.5632009002
 30
0.0
 11
10.0789492256
 21
-98.7896982083
 31
0.0
  0
LINE
  5
661
100
AcDbEntity
  8
LAYER1
 62
         5
100
AcDbLine
 10
0.0789492256
 20
-103.4085003618
 30
0.0
 11
10.0789492256
 21
-97.6349976699
 31
0.0
  0
LINE
  5
662
100
AcDbEntity
  8
LAYER1
 62
         5
100
AcDbLine
 10
0.0789492256
 20
-30.662366444
 30
0.0
 11
10.0789492256
 21
-24.8888637521
 31
0.0
  0
LINE
  5
663
100
AcDbEntity
  8
LAYER1
 62
         5
100
AcDbLine
 10
0.0789492256
 20
-31.8170669823
 30
0.0
 11
10.0789492256
 21
-26.0435642904
 31
0.0
  0
LINE
  5
664
100
AcDbEntity
  8
LAYER1
 62
         5
100
AcDbLine
 10
0.0789492256
 20
-32.9717675207
 30
0.0
 11
10.0789492256
 21
-27.1982648288
 31
0.0
  0
LINE
  5
665
100
AcDbEntity
  8
LAYER1
 62
         5
100
AcDbLine
 10
0.0789492256
 20
-45.6734734429
 30
0.0
 11
10.0789492256
 21
-39.899970751
 31
0.0
  0
LINE
  5
666
100
AcDbEntity
  8
LAYER1
 62
         5
100
AcDbLine
 10
0.0789492256
 20
-44.5187729045
 30
0.0
 11
10.0789492256
 21
-38.7452702126
 31
0.0
  0
LINE
  5
667
100
AcDbEntity
  8
LAYER1
 62
         5
100
AcDbLine
 10
0.0789492256
 20
-43.3640723661
 30
0.0
 11
10.0789492256
 21
-37.5905696742
 31
0.0
  0
LINE
  5
668
100
AcDbEntity
  8
LAYER3
 62
         4
100
AcDbLine
 10
52.3289490691
 20
-4.3814903616
 30
0.0
 11
59.3289490691
 21
-4.3814903616
 31
0.0
  0
LINE
  5
669
100
AcDbEntity
  8
LAYER3
 62
         4
100
AcDbLine
 10
52.3289490691
 20
-4.3814903616
 30
0.0
 11
55.2633918713
 21
-5.005225434
 31
0.0
  0
LINE
  5
66A
100
AcDbEntity
  8
LAYER3
 62
         4
100
AcDbLine
 10
52.3289490691
 20
-4.3814903616
 30
0.0
 11
55.2633918713
 21
-3.7577552891
 31
0.0
  0
LINE
  5
66B
100
AcDbEntity
  8
LAYER3
 62
         4
100
AcDbLine
 10
59.3289490691
 20
-4.3814903616
 30
0.0
 11
56.3945062669
 21
-3.7577552891
 31
0.0
  0
LINE
  5
66C
100
AcDbEntity
  8
LAYER3
 62
         4
100
AcDbLine
 10
59.3289490691
 20
-4.3814903616
 30
0.0
 11
56.3945062669
 21
-5.005225434
 31
0.0
  0
MTEXT
  5
66D
100
AcDbEntity
  8
LAYER3
100
AcDbMText
 10
54.6289490691
 20
-2.4876610159
 30
0.0
 40
1.0736841679
 41
1.282322998
 71
         1
 72
         1
  1
\W0.8;14
  0
LINE
  5
66E
100
AcDbEntity
  8
LAYER3
 62
         4
100
AcDbLine
 10
52.3289490691
 20
9.3200040974
 30
0.0
 11
52.3289490691
 21
-4.8814903616
 31
0.0
  0
LINE
  5
66F
100
AcDbEntity
  8
LAYER3
 62
         4
100
AcDbLine
 10
59.3289490691
 20
9.3200040974
 30
0.0
 11
59.3289490691
 21
-4.8814903616
 31
0.0
  0
LINE
  5
670
100
AcDbEntity
  8
LAYER3
 62
         4
100
AcDbLine
 10
2.3504793395
 20
-73.9643754741
 30
0.0
 11
17.1781427395
 21
-73.9643754741
 31
0.0
  0
LINE
  5
671
100
AcDbEntity
  8
LAYER3
 62
         4
100
AcDbLine
 10
2.3504793395
 20
-73.9643754741
 30
0.0
 11
17.1781427395
 21
-73.9643754741
 31
0.0
  0
LINE
  5
672
100
AcDbEntity
  8
LAYER3
 62
         4
100
AcDbLine
 10
9.3289492256
 20
-86.7143754741
 30
0.0
 11
17.1781427395
 21
-86.7143754741
 31
0.0
  0
LINE
  5
673
100
AcDbEntity
  8
LAYER3
 62
         4
100
AcDbLine
 10
9.3289492256
 20
-86.7143754741
 30
0.0
 11
17.1781427395
 21
-86.7143754741
 31
0.0
  0
LINE
  5
674
100
AcDbEntity
  8
LAYER3
 62
         4
100
AcDbLine
 10
9.3289492256
 20
-93.2143754741
 30
0.0
 11
17.1781427395
 21
-93.2143754741
 31
0.0
  0
LINE
  5
675
100
AcDbEntity
  8
LAYER1
 62
         5
100
AcDbLine
 10
2.0789492256
 20
-116.110206284
 30
0.0
 11
10.0789492256
 21
-111.4914041305
 31
0.0
  0
LINE
  5
676
100
AcDbEntity
  8
LAYER1
 62
         5
100
AcDbLine
 10
4.0789492256
 20
-116.110206284
 30
0.0
 11
10.0789492256
 21
-112.6461046689
 31
0.0
  0
LINE
  5
677
100
AcDbEntity
  8
LAYER1
 62
         5
100
AcDbLine
 10
6.0789492256
 20
-116.110206284
 30
0.0
 11
10.0789492256
 21
-113.8008052073
 31
0.0
  0
LINE
  5
678
100
AcDbEntity
  8
LAYER1
 62
         5
100
AcDbLine
 10
8.0789492256
 20
-116.110206284
 30
0.0
 11
10.0789492256
 21
-114.9555057456
 31
0.0
  0
LINE
  5
679
100
AcDbEntity
  8
LAYER0
 62
         3
100
AcDbLine
 10
10.0
 20
-138.5
 30
0.0
 11
10.0
 21
-125.5
 31
0.0
  0
LINE
  5
67A
100
AcDbEntity
  8
LAYER3
 62
         4
100
AcDbLine
 10
-2.2210507074
 20
-59.9643754741
 30
0.0
 11
17.1781427395
 21
-59.9643754741
 31
0.0
  0
LINE
  5
67B
100
AcDbEntity
  8
LAYER3
 62
         4
100
AcDbLine
 10
14.1789492256
 20
-23.4643754741
 30
0.0
 11
0.0789492256
 21
-23.4643754741
 31
0.0
  0
INSERT
  5
67D
100
AcDbEntity
  8
0
100
AcDbBlockReference
  2
CLUMP42
 10
0.0
 20
0.0
 30
0.0
  0
INSERT
  5
692
100
AcDbEntity
  8
0
100
AcDbBlockReference
  2
CLUMP44
 10
0.0
 20
0.0
 30
0.0
  0
LINE
  5
6A6
100
AcDbEntity
  8
LAYER1
 62
         5
100
AcDbLine
 10
0.0789492256
 20
-29.5076659056
 30
0.0
 11
10.0789492256
 21
-23.7341632137
 31
0.0
  0
LINE
  5
6A7
100
AcDbEntity
  8
LAYER1
 62
         5
100
AcDbLine
 10
0.0789492256
 20
-22.5794626753
 30
0.0
 11
10.0789492256
 21
-16.8059599834
 31
0.0
  0
LINE
  5
6A8
100
AcDbEntity
  8
LAYER1
 62
         5
100
AcDbLine
 10
0.0789492256
 20
-22.5794626753
 30
0.0
 11
10.0789492256
 21
-16.8059599834
 31
0.0
  0
ENDSEC
  0
SECTION
  2
OBJECTS
  0
DICTIONARY
  5
19
100
AcDbDictionary
280
         0
281
         1
  3
ACAD_GROUP
350
1A
  3
ACAD_MLINESTYLE
350
1B
  3
ACAD_LAYOUT
350
1E
  3
ACAD_PLOTSETTINGS
350
22
  3
ACAD_PLOTSTYLENAME
350
1F
  3
ACAD_WIPEOUT_VARS
350
23
  0
DICTIONARY
  5
1A
102
{ACAD_REACTORS
330
19
102
}
100
AcDbDictionary
280
         0
281
         1
  0
DICTIONARY
  5
1B
102
{ACAD_REACTORS
330
19
102
}
100
AcDbDictionary
280
         0
281
         1
  3
Standard
350
1C
  0
MLINESTYLE
  5
1C
102
{ACAD_REACTORS
330
1B
102
}
100
AcDbMlineStyle
  2
Standard
 70
         0
  3

 62
         0
 51
90.0
 52
90.0
 71
         2
 49
0.5
 62
       256
  6
BYLAYER
 49
-0.5
 62
       256
  6
BYLAYER
  0
ACDBDICTIONARYWDFLT
  5
1F
102
{ACAD_REACTORS
330
19
102
}
100
AcDbDictionary
281
         1
  3
Normal
350
1D
100
AcDbDictionaryWithDefault
340
1D
  0
ACDBPLACEHOLDER
  5
1D
102
{ACAD_REACTORS
330
1F
102
}
  0
LAYOUT
  5
20
102
{ACAD_REACTORS
330
1E
102
}
100
AcDbPlotSettings
  1

  2

  4

  6

 40
0.0
 41
0.0
 42
0.0
 43
0.0
 44
0.0
 45
0.0
 46
0.0
 47
0.0
 48
0.0
 49
0.0
140
0.0
141
0.0
142
1.0
143
1.0
 70
         0
 72
         0
 73
         0
 74
         0
  7

 75
         0
147
1.0
148
0.0
149
0.0
100
AcDbLayout
  1
Model
 70
         0
 71
         0
 10
0.0
 20
0.0
 11
0.0
 21
0.0
 12
0.0
 22
0.0
 32
0.0
 14
0.0
 24
0.0
 34
0.0
 15
0.0
 25
0.0
 35
0.0
146
0.0
 13
0.0
 23
0.0
 33
0.0
 16
0.0
 26
0.0
 36
0.0
 17
0.0
 27
0.0
 37
0.0
 76
         0
330
A
331
0
345
0
346
0
  0
LAYOUT
  5
21
102
{ACAD_REACTORS
330
1E
102
}
100
AcDbPlotSettings
  1

  2

  4

  6

 40
0.0
 41
0.0
 42
0.0
 43
0.0
 44
0.0
 45
0.0
 46
0.0
 47
0.0
 48
0.0
 49
0.0
140
0.0
141
0.0
142
1.0
143
1.0
 70
         0
 72
         0
 73
         0
 74
         0
  7

 75
         0
147
1.0
148
0.0
149
0.0
100
AcDbLayout
  1
Layout1
 70
         0
 71
         0
 10
0.0
 20
0.0
 11
0.0
 21
0.0
 12
0.0
 22
0.0
 32
0.0
 14
0.0
 24
0.0
 34
0.0
 15
0.0
 25
0.0
 35
0.0
146
0.0
 13
0.0
 23
0.0
 33
0.0
 16
0.0
 26
0.0
 36
0.0
 17
0.0
 27
0.0
 37
0.0
 76
         0
330
B
331
0
345
0
346
0
  0
DICTIONARY
  5
1E
102
{ACAD_REACTORS
330
19
102
}
100
AcDbDictionary
280
         0
281
         1
  3
Layout1
350
21
  3
Model
350
20
  0
DICTIONARY
  5
22
102
{ACAD_REACTORS
330
19
102
}
100
AcDbDictionary
280
         0
281
         1
  0
WIPEOUTVARIABLES
  5
23
100
AcDbWipeoutVariables
 70
         1
  0
ENDSEC
  0
EOF
