  0
SECTION
  2
HEADER
  9
$ACADVER
  1
AC1015
  9
$ACADMAINTVER
 70
         6
  9
$DWGCODEPAGE
  3
ANSI_932
  9
$INSBASE
 10
0.0
 20
0.0
 30
0.0
  9
$EXTMIN
 10
1.0000000000E+20
 20
1.0000000000E+20
 30
1.0000000000E+20
  9
$EXTMAX
 10
-1.0000000000E+20
 20
-1.0000000000E+20
 30
-1.0000000000E+20
  9
$LIMMIN
 10
0.0
 20
0.0
  9
$LIMMAX
 10
0.0
 20
0.0
  9
$ORTHOMODE
 70
         0
  9
$REGENMODE
 70
         1
  9
$FILLMODE
 70
         1
  9
$QTEXTMODE
 70
         0
  9
$MIRRTEXT
 70
         1
  9
$LTSCALE
 40
1.0
  9
$ATTMODE
 70
         1
  9
$TEXTSIZE
 40
0.2
  9
$TRACEWID
 40
0.05
  9
$TEXTSTYLE
  7
Standard
  9
$CLAYER
  8
0
  9
$CELTYPE
  6
Continuous
  9
$CECOLOR
 62
       256
  9
$CELTSCALE
 40
1.0
  9
$DISPSILH
 70
         0
  9
$DIMSCALE
 40
1.0
  9
$DIMASZ
 40
0.18
  9
$DIMEXO
 40
0.0625
  9
$DIMDLI
 40
0.38
  9
$DIMRND
 40
0.0
  9
$DIMDLE
 40
0.0
  9
$DIMEXE
 40
0.18
  9
$DIMTP
 40
0.0
  9
$DIMTM
 40
0.0
  9
$DIMTXT
 40
0.18
  9
$DIMCEN
 40
0.09
  9
$DIMTSZ
 40
0.0
  9
$DIMTOL
 70
         0
  9
$DIMLIM
 70
         0
  9
$DIMTIH
 70
         1
  9
$DIMTOH
 70
         1
  9
$DIMSE1
 70
         0
  9
$DIMSE2
 70
         0
  9
$DIMTAD
 70
         0
  9
$DIMZIN
 70
         0
  9
$DIMBLK
  1

  9
$DIMASO
 70
         1
  9
$DIMSHO
 70
         1
  9
$DIMPOST
  1

  9
$DIMAPOST
  1

  9
$DIMALT
 70
         0
  9
$DIMALTD
 70
         2
  9
$DIMALTF
 40
25.4
  9
$DIMLFAC
 40
1.0
  9
$DIMTOFL
 70
         0
  9
$DIMTVP
 40
0.0
  9
$DIMTIX
 70
         0
  9
$DIMSOXD
 70
         0
  9
$DIMSAH
 70
         0
  9
$DIMBLK1
  1

  9
$DIMBLK2
  1

  9
$DIMSTYLE
  2
Standard
  9
$DIMCLRD
 70
         0
  9
$DIMCLRE
 70
         0
  9
$DIMCLRT
 70
         0
  9
$DIMTFAC
 40
1.0
  9
$DIMGAP
 40
0.09
  9
$DIMJUST
 70
         0
  9
$DIMSD1
 70
         0
  9
$DIMSD2
 70
         0
  9
$DIMTOLJ
 70
         1
  9
$DIMTZIN
 70
         0
  9
$DIMALTZ
 70
         0
  9
$DIMALTTZ
 70
         0
  9
$DIMUPT
 70
         0
  9
$DIMDEC
 70
         4
  9
$DIMTDEC
 70
         4
  9
$DIMALTU
 70
         2
  9
$DIMALTTD
 70
         2
  9
$DIMTXSTY
  7
Standard
  9
$DIMAUNIT
 70
         0
  9
$DIMADEC
 70
         0
  9
$DIMALTRND
 40
0.0
  9
$DIMAZIN
 70
         0
  9
$DIMDSEP
 70
         0
  9
$DIMATFIT
 70
         3
  9
$DIMFRAC
 70
         0
  9
$DIMLDRBLK
  1

  9
$DIMLUNIT
 70
         2
  9
$DIMLWD
 70
         0
  9
$DIMLWE
 70
         0
  9
$DIMTMOVE
 70
         0
  9
$LUNITS
 70
         2
  9
$LUPREC
 70
         4
  9
$SKETCHINC
 40
0.1
  9
$FILLETRAD
 40
0.0
  9
$AUNITS
 70
         0
  9
$AUPREC
 70
         0
  9
$MENU
  1
acad
  9
$ELEVATION
 40
0.0
  9
$PELEVATION
 40
0.0
  9
$THICKNESS
 40
0.0
  9
$LIMCHECK
 70
         0
  9
$CHAMFERA
 40
0.0
  9
$CHAMFERB
 40
0.0
  9
$CHAMFERC
 40
0.0
  9
$CHAMFERD
 40
0.0
  9
$SKPOLY
 70
         0
  9
$TDCREATE
 40
0.000000000
  9
$TDUCREATE
 40
0.000000000
  9
$TDUPDATE
 40
0.000000000
  9
$TDUUPDATE
 40
0.000000000
  9
$TDINDWG
 40
0.0000000000
  9
$TDUSRTIMER
 40
0.0000000000
  9
$USRTIMER
 70
         1
  9
$ANGBASE
 50
0.0
  9
$ANGDIR
 70
         0
  9
$PDMODE
 70
         3
  9
$PDSIZE
 40
-1.0
  9
$PLINEWID
 40
0.0
  9
$SPLFRAME
 70
         0
  9
$SPLINETYPE
 70
         6
  9
$SPLINESEGS
 70
         8
  9
$HANDSEED
  5
124
  9
$SURFTAB1
 70
         6
  9
$SURFTAB2
 70
         6
  9
$SURFTYPE
 70
         6
  9
$SURFU
 70
         6
  9
$SURFV
 70
         6
  9
$UCSBASE
  2

  9
$UCSNAME
  2

  9
$UCSORG
 10
0.0
 20
0.0
 30
0.0
  9
$UCSXDIR
 10
1.0
 20
0.0
 30
0.0
  9
$UCSYDIR
 10
0.0
 20
1.0
 30
0.0
  9
$UCSORTHOREF
  2

  9
$UCSORTHOVIEW
 70
         0
  9
$UCSORGTOP
 10
0.0
 20
0.0
 30
0.0
  9
$UCSORGBOTTOM
 10
0.0
 20
0.0
 30
0.0
  9
$UCSORGLEFT
 10
0.0
 20
0.0
 30
0.0
  9
$UCSORGRIGHT
 10
0.0
 20
0.0
 30
0.0
  9
$UCSORGFRONT
 10
0.0
 20
0.0
 30
0.0
  9
$UCSORGBACK
 10
0.0
 20
0.0
 30
0.0
  9
$PUCSBASE
  2

  9
$PUCSNAME
  2

  9
$PUCSORG
 10
0.0
 20
0.0
 30
0.0
  9
$PUCSXDIR
 10
1.0
 20
0.0
 30
0.0
  9
$PUCSYDIR
 10
0.0
 20
1.0
 30
0.0
  9
$PUCSORTHOREF
  2

  9
$PUCSORTHOVIEW
 70
         0
  9
$PUCSORGTOP
 10
0.0
 20
0.0
 30
0.0
  9
$PUCSORGBOTTOM
 10
0.0
 20
0.0
 30
0.0
  9
$PUCSORGLEFT
 10
0.0
 20
0.0
 30
0.0
  9
$PUCSORGRIGHT
 10
0.0
 20
0.0
 30
0.0
  9
$PUCSORGFRONT
 10
0.0
 20
0.0
 30
0.0
  9
$PUCSORGBACK
 10
0.0
 20
0.0
 30
0.0
  9
$USERI1
 70
         0
  9
$USERI2
 70
         0
  9
$USERI3
 70
         0
  9
$USERI4
 70
         0
  9
$USERI5
 70
         0
  9
$USERR1
 40
0.0
  9
$USERR2
 40
0.0
  9
$USERR3
 40
0.0
  9
$USERR4
 40
0.0
  9
$USERR5
 40
0.0
  9
$WORLDVIEW
 70
         1
  9
$SHADEDGE
 70
         3
  9
$SHADEDIF
 70
        70
  9
$TILEMODE
 70
         1
  9
$MAXACTVP
 70
        16
  9
$PINSBASE
 10
0.0
 20
0.0
 30
0.0
  9
$PLIMCHECK
 70
         0
  9
$PEXTMIN
 10
1.0000000000E+20
 20
1.0000000000E+20
 30
1.0000000000E+20
  9
$PEXTMAX
 10
-1.0000000000E+20
 20
-1.0000000000E+20
 30
-1.0000000000E+20
  9
$PLIMMIN
 10
0.0
 20
0.0
  9
$PLIMMAX
 10
12.0
 20
9.0
  9
$UNITMODE
 70
         0
  9
$VISRETAIN
 70
         0
  9
$PLINEGEN
 70
         1
  9
$PSLTSCALE
 70
         0
  9
$TREEDEPTH
 70
      3020
  9
$CMLSTYLE
  2
Standard
  9
$CMLJUST
 70
         0
  9
$CMLSCALE
 40
1.0
  9
$PROXYGRAPHICS
 70
         0
  9
$MEASUREMENT
 70
         0
  9
$CELWEIGHT
370
         0
  9
$ENDCAPS
280
         0
  9
$JOINSTYLE
280
         0
  9
$LWDISPLAY
290
         0
  9
$INSUNITS
 70
         0
  9
$HYPERLINKBASE
  1

  9
$XEDIT
290
         1
  9
$CEPSNTYPE
380
         0
  9
$PSTYLEMODE
290
         0
  9
$FINGERPRINTGUID
  2

  9
$VERSIONGUID
  2

  9
$EXTNAMES
290
         1
  9
$PSVPSCALE
 40
0.0
  0
ENDSEC
  0
SECTION
  2
CLASSES
  0
CLASS
  1
LWPOLYLINE
  2
AcDbPolyline
  3
"AutoCAD"
 90
        0
280
         0
281
         1
  0
CLASS
  1
IMAGE
  2
AcDbRasterImage
  3
ISM
 90
      127
280
         0
281
         1
  0
CLASS
  1
OLE2FRAME
  2
AcDbOle2Frame
  3
""
 90
        0
280
         0
281
         1
  0
CLASS
  1
HATCH
  2
AcDbHatch
  3
"ACAD_SEDONA"
 90
        0
280
         0
281
         1
  0
CLASS
  1
DICTIONARYVAR
  2
AcDbDictionaryVar
  3
"AutoCAD"
 90
        0
280
         0
281
         0
  0
CLASS
  1
RASTERVARIABLES
  2
AcDbRasterVariables
  3
ISM
 90
        0
280
         0
281
         0
  0
CLASS
  1
IMAGEDEF
  2
AcDbRasterImageDef
  3
ISM
 90
        0
280
         0
281
         0
  0
CLASS
  1
IMAGEDEF_REACTOR
  2
AcDbRasterImageDefReactor
  3
ISM
 90
        1
280
         0
281
         0
  0
CLASS
  1
IDBUFFER
  2
AcDbIdBuffer
  3
"Acad"
 90
        0
280
         0
281
         0
  0
CLASS
  1
SPATIAL_FILTER
  2
AcDbSpatialFilter
  3
"Acad"
 90
        0
280
         0
281
         0
  0
CLASS
  1
XRECORD
  2
AcDbXrecord
  3
"<Built In>"
 90
        0
280
         0
281
         0
  0
CLASS
  1
SORTENTSTABLE
  2
AcDbSortentsTable
  3
"AutoCAD"
 90
        0
280
         0
281
         0
  0
CLASS
  1
LAYER_INDEX
  2
AcDbLayerIndex
  3
"Acad"
 90
        0
280
         0
281
         0
  0
CLASS
  1
SPATIAL_INDEX
  2
AcDbSpatialIndex
  3
"Acad"
 90
        0
280
         0
281
         0
  0
CLASS
  1
OBJECT_PTR
  2
CAseDLPNTableRecord
  3
"ASE-LPNTableRecord"
 90
        1
280
         0
281
         0
  0
CLASS
  1
LAYOUT
  2
AcDbLayout
  3
"AutoCAD 2000"
 90
        1
280
         0
281
         0
  0
CLASS
  1
PLOTSETTINGS
  2
AcDbPlotSettings
  3
"AutoCAD 2000"
 90
        1
280
         0
281
         0
  0
CLASS
  1
ACDBDICTIONARYWDFLT
  2
AcDbDictionaryWithDefault
  3
"AutoCAD 2000"
 90
        1
280
         0
281
         0
  0
CLASS
  1
ACDBPLACEHOLDER
  2
AcDbPlaceHolder
  3
"AutoCAD 2000"
 90
        1
280
         0
281
         0
  0
CLASS
  1
VBA_PROJECT
  2
AcDbVbaProject
  3
"acadvba"
 90
        1
280
         0
281
         0
  0
CLASS
  1
WIPEOUT
  2
AcDbWipeout
  3
WipeOut|AutoCAD Express Tool|expresstools@autodesk.com
 90
      127
280
         0
281
         1
  0
CLASS
  1
WIPEOUTVARIABLES
  2
AcDbWipeoutVariables
  3
WipeOut|AutoCAD Express Tool|expresstools@autodesk.com
 90
        0
280
         0
281
         0
  0
CLASS
  1
RTEXT
  2
RText
  3
RText|AutoCAD Express Tool|expresstools@autodesk.com
 90
        0
280
         0
281
         1
  0
CLASS
  1
ARCALIGNEDTEXT
  2
AcDbArcAlignedText
  3
ATEXT|AutoCAD Express Tool|expresstools@autodesk.com
 90
        0
280
         0
281
         1
  0
ENDSEC
  0
SECTION
  2
TABLES
  0
TABLE
  2
VPORT
  5
7
100
AcDbSymbolTable
 70
         1
  0
VPORT
  5
15
100
AcDbSymbolTableRecord
100
AcDbViewportTableRecord
  2
*ACTIVE
 70
         0
 10
0.0
 20
0.0
 11
1.0
 21
1.0
 12
6.591288
 22
4.579184
 13
0.0
 23
0.0
 14
1.0
 24
1.0
 15
0.0
 25
0.0
 16
0.0
 26
0.0
 36
1.0
 17
0.0
 27
0.0
 37
0.0
 40
9.158369
 41
0.688564
 42
50.0
 43
0.0
 44
0.0
 50
0.0
 51
0.0
 71
         0
 72
       100
 73
         1
 74
         1
 75
         0
 76
         0
 77
         0
 78
         0
281
         0
 65
         0
110
0.0
120
0.0
130
0.0
111
1.0
121
0.0
131
0.0
112
0.0
122
1.0
132
0.0
345
0
346
0
 79
         0
146
0.0
  0
ENDTAB
  0
TABLE
  2
LTYPE
  5
4
100
AcDbSymbolTable
 70
        13
  0
LTYPE
  5
11
100
AcDbSymbolTableRecord
100
AcDbLinetypeTableRecord
  2
ByBlock
 70
        64
  3

 72
        65
 73
         0
 40
0.0
  0
LTYPE
  5
12
100
AcDbSymbolTableRecord
100
AcDbLinetypeTableRecord
  2
ByLayer
 70
        64
  3

 72
        65
 73
         0
 40
0.0
  0
LTYPE
  5
13
100
AcDbSymbolTableRecord
100
AcDbLinetypeTableRecord
  2
Continuous
 70
        64
  3
Solid line
 72
        65
 73
         0
 40
0.0
  0
LTYPE
  5
24
100
AcDbSymbolTableRecord
100
AcDbLinetypeTableRecord
  2
DOT
 70
        64
  3
. . . . . . . . 
 72
        65
 73
         2
 40
1.0
 49
0.0
 74
         0
 49
-1.0
 74
         0
  0
LTYPE
  5
25
100
AcDbSymbolTableRecord
100
AcDbLinetypeTableRecord
  2
DASHED
 70
        64
  3
___  ___  ___  ___  
 72
        65
 73
         2
 40
4.0
 49
3.0
 74
         0
 49
-1.0
 74
         0
  0
LTYPE
  5
26
100
AcDbSymbolTableRecord
100
AcDbLinetypeTableRecord
  2
HIDDEN
 70
        64
  3
__ __ __ __ 
 72
        65
 73
         2
 40
3.0
 49
2.0
 74
         0
 49
-1.0
 74
         0
  0
LTYPE
  5
27
100
AcDbSymbolTableRecord
100
AcDbLinetypeTableRecord
  2
STITCH
 70
        64
  3
_ _ _ _ 
 72
        65
 73
         2
 40
2.0
 49
1.0
 74
         0
 49
-1.0
 74
         0
  0
LTYPE
  5
28
100
AcDbSymbolTableRecord
100
AcDbLinetypeTableRecord
  2
CENTER
 70
        64
  3
______  __  ______  __  
 72
        65
 73
         4
 40
43.0
 49
40.0
 74
         0
 49
-1.0
 74
         0
 49
1.0
 74
         0
 49
-1.0
 74
         0
  0
LTYPE
  5
29
100
AcDbSymbolTableRecord
100
AcDbLinetypeTableRecord
  2
DASHDOT
 70
        64
  3
____ . ____ . 
 72
        65
 73
         4
 40
32.0
 49
30.0
 74
         0
 49
-1.0
 74
         0
 49
0.0
 74
         0
 49
-1.0
 74
         0
  0
LTYPE
  5
2A
100
AcDbSymbolTableRecord
100
AcDbLinetypeTableRecord
  2
BORDER
 70
        64
  3
__ . __ . 
 72
        65
 73
         4
 40
22.0
 49
20.0
 74
         0
 49
-1.0
 74
         0
 49
0.0
 74
         0
 49
-1.0
 74
         0
  0
LTYPE
  5
2B
100
AcDbSymbolTableRecord
100
AcDbLinetypeTableRecord
  2
CUTTING
 70
        64
  3
________   ___   ___   
 72
        65
 73
         6
 40
45.0
 49
40.0
 74
         0
 49
-1.0
 74
         0
 49
1.0
 74
         0
 49
-1.0
 74
         0
 49
1.0
 74
         0
 49
-1.0
 74
         0
  0
LTYPE
  5
2C
100
AcDbSymbolTableRecord
100
AcDbLinetypeTableRecord
  2
PHANTOM
 70
        64
  3
______  __  __  
 72
        65
 73
         6
 40
35.0
 49
30.0
 74
         0
 49
-1.0
 74
         0
 49
1.0
 74
         0
 49
-1.0
 74
         0
 49
1.0
 74
         0
 49
-1.0
 74
         0
  0
LTYPE
  5
2D
100
AcDbSymbolTableRecord
100
AcDbLinetypeTableRecord
  2
DIVIDE
 70
        64
  3
____ . . ____ . . 
 72
        65
 73
         6
 40
23.0
 49
20.0
 74
         0
 49
-1.0
 74
         0
 49
0.0
 74
         0
 49
-1.0
 74
         0
 49
0.0
 74
         0
 49
-1.0
 74
         0
  0
ENDTAB
  0
TABLE
  2
LAYER
  5
2
100
AcDbSymbolTable
 70
         3
  0
LAYER
  5
14
100
AcDbSymbolTableRecord
100
AcDbLayerTableRecord
  2
0
 70
         0
 62
         7
  6
Continuous
290
         1
370
        -3
390
1D
  0
LAYER
  5
2E
100
AcDbSymbolTableRecord
100
AcDbLayerTableRecord
  2
LAYER0
 70
         0
 62
         7
  6
Continuous
290
         1
370
        -3
390
1F
  0
LAYER
  5
3A
100
AcDbSymbolTableRecord
100
AcDbLayerTableRecord
  2
LAYER3
 70
         0
 62
         7
  6
Continuous
290
         1
370
        -3
390
1F
  0
ENDTAB
  0
TABLE
  2
STYLE
  5
3
100
AcDbSymbolTable
 70
         1
  0
STYLE
  5
17
100
AcDbSymbolTableRecord
100
AcDbTextStyleTableRecord
  2
Standard
 70
         0
 40
0.0
 41
1.0
 50
0.0
 71
         0
 42
0.0
  3
txt
  4
extfont
  0
ENDTAB
  0
TABLE
  2
VIEW
  5
5
100
AcDbSymbolTable
 70
         0
  0
ENDTAB
  0
TABLE
  2
UCS
  5
6
100
AcDbSymbolTable
 70
         0
  0
ENDTAB
  0
TABLE
  2
APPID
  5
8
100
AcDbSymbolTable
 70
         1
  0
APPID
  5
16
100
AcDbSymbolTableRecord
100
AcDbRegAppTableRecord
  2
ACAD
 70
         0
  0
ENDTAB
  0
TABLE
  2
DIMSTYLE
  5
9
100
AcDbSymbolTable
 70
         1
100
AcDbDimStyleTable
 71
         0
  0
DIMSTYLE
105
18
100
AcDbSymbolTableRecord
100
AcDbDimStyleTableRecord
  2
Standard
 70
         0
  3

  4

 40
1.0
 41
0.18
 42
0.0625
 43
0.38
 44
0.18
 45
0.0
 46
0.0
 47
0.0
 48
0.0
 71
         0
 72
         0
 73
         1
 74
         1
 75
         0
 76
         0
 77
         0
 78
         0
 79
         0
140
0.18
141
0.09
142
0.0
143
25.4
144
1.0
145
0.0
146
1.0
147
0.09
148
0.0
170
         0
171
         2
172
         0
173
         0
174
         0
175
         0
176
         0
177
         0
178
         0
179
         0
271
         4
272
         4
273
         2
274
         2
275
         0
276
         0
277
         2
278
        46
279
         0
280
         0
281
         0
282
         0
283
         1
284
         0
285
         0
286
         0
288
         0
340
17
341
0
342
0
343
0
344
0
371
        -2
372
        -2
  0
ENDTAB
  0
TABLE
  2
BLOCK_RECORD
  5
1
100
AcDbSymbolTable
 70
         0
  0
BLOCK_RECORD
  5
A
100
AcDbSymbolTableRecord
100
AcDbBlockTableRecord
  2
*MODEL_SPACE
340
20
  0
BLOCK_RECORD
  5
B
100
AcDbSymbolTableRecord
100
AcDbBlockTableRecord
  2
*PAPER_SPACE
340
21
  0
ENDTAB
  0
ENDSEC
  0
SECTION
  2
BLOCKS
  0
BLOCK
  5
D
100
AcDbEntity
  8
0
100
AcDbBlockBegin
  2
*MODEL_SPACE
 70
         0
 10
0.0
 20
0.0
 30
0.0
  3
*MODEL_SPACE
  1

  0
ENDBLK
  5
E
100
AcDbEntity
  8
0
100
AcDbBlockEnd
  0
BLOCK
  5
F
100
AcDbEntity
 67
         1
  8
0
100
AcDbBlockBegin
  2
*PAPER_SPACE
 70
         0
 10
0.0
 20
0.0
 30
0.0
  3
*PAPER_SPACE
  1

  0
ENDBLK
  5
10
100
AcDbEntity
 67
         1
  8
0
100
AcDbBlockEnd
  0
ENDSEC
  0
SECTION
  2
ENTITIES
  0
ARC
  5
2F
100
AcDbEntity
  8
LAYER0
 62
         3
100
AcDbCircle
 10
31.5794303061
 20
7.125401829
 30
0.0
 40
0.4816857371
210
0.0
220
0.0
230
1.0
100
AcDbArc
 50
198.8489660787
 51
266.9999984136
  0
ARC
  5
30
100
AcDbEntity
  8
LAYER0
 62
         3
100
AcDbCircle
 10
31.5794303061
 20
9.5953138789
 30
0.0
 40
0.4816857371
210
0.0
220
0.0
230
1.0
100
AcDbArc
 50
93.0000015864
 51
161.1510339213
  0
LINE
  5
31
100
AcDbEntity
  8
LAYER0
 62
         3
100
AcDbLine
 10
32.20333002
 20
6.6103578539
 30
0.0
 11
31.5542208225
 21
6.6443762255
 31
0.0
  0
LINE
  5
32
100
AcDbEntity
  8
LAYER0
 62
         3
100
AcDbLine
 10
32.20333002
 20
10.1103578539
 30
0.0
 11
31.5542208225
 21
10.0763394824
 31
0.0
  0
LINE
  5
33
100
AcDbEntity
  8
LAYER0
 62
         3
100
AcDbLine
 10
32.20333002
 20
10.1103578539
 30
0.0
 11
32.20333002
 21
6.6103578539
 31
0.0
  0
LINE
  5
34
100
AcDbEntity
  8
LAYER0
 62
         6
100
AcDbLine
 10
36.65333002
 20
20.3603578539
 30
0.0
 11
36.65333002
 21
18.3603578539
 31
0.0
  0
LINE
  5
35
100
AcDbEntity
  8
LAYER0
 62
         3
100
AcDbLine
 10
32.20333002
 20
20.3603578539
 30
0.0
 11
32.20333002
 21
75.3603578539
 31
0.0
  0
LINE
  5
36
100
AcDbEntity
  8
LAYER0
 62
         3
100
AcDbLine
 10
38.70333002
 20
75.3603578539
 30
0.0
 11
38.70333002
 21
20.3603578539
 31
0.0
  0
ARC
  5
37
100
AcDbEntity
  8
LAYER0
 62
         3
100
AcDbCircle
 10
27.2934280687
 20
15.8603578539
 30
0.0
 40
0.5
210
0.0
220
0.0
230
1.0
100
AcDbArc
 50
269.9999984648
 51
348.6900673331
  0
ARC
  5
38
100
AcDbEntity
  8
LAYER0
 62
         3
100
AcDbCircle
 10
26.20333002
 20
16.8603578539
 30
0.0
 40
1.5
210
0.0
220
0.0
230
1.0
100
AcDbArc
 50
180.0000030705
 51
269.9999984648
  0
LINE
  5
39
100
AcDbEntity
  8
LAYER0
 62
         6
100
AcDbLine
 10
34.25333002
 20
18.3603578539
 30
0.0
 11
34.25333002
 21
20.3603578539
 31
0.0
  0
LINE
  5
3B
100
AcDbEntity
  8
LAYER3
 62
         4
100
AcDbLine
 10
32.20333002
 20
60.2057798674
 30
0.0
 11
29.2688872178
 21
59.582044795
 31
0.0
  0
LINE
  5
3C
100
AcDbEntity
  8
LAYER3
 62
         4
100
AcDbLine
 10
32.20333002
 20
60.2057798674
 30
0.0
 11
29.2688872178
 21
60.8295149399
 31
0.0
  0
LINE
  5
3D
100
AcDbEntity
  8
LAYER3
 62
         4
100
AcDbLine
 10
27.20333002
 20
60.2057798674
 30
0.0
 11
32.20333002
 21
60.2057798674
 31
0.0
  0
LINE
  5
3E
100
AcDbEntity
  8
LAYER3
 62
         4
100
AcDbLine
 10
38.70333002
 20
60.2057798674
 30
0.0
 11
41.6377728222
 21
60.8295149399
 31
0.0
  0
LINE
  5
3F
100
AcDbEntity
  8
LAYER3
 62
         4
100
AcDbLine
 10
38.70333002
 20
60.2057798674
 30
0.0
 11
41.6377728222
 21
59.582044795
 31
0.0
  0
LINE
  5
40
100
AcDbEntity
  8
LAYER3
 62
         4
100
AcDbLine
 10
50.90333002
 20
60.2057798674
 30
0.0
 11
38.70333002
 21
60.2057798674
 31
0.0
  0
MTEXT
  5
41
100
AcDbEntity
  8
LAYER3
100
AcDbMText
 10
42.70333002
 20
63.9934385588
 30
0.0
 40
2.1473683357
 41
5.1292919922
 71
         1
 72
         1
  1
\W0.8;φ13
  0
LINE
  5
42
100
AcDbEntity
  8
LAYER3
 62
         4
100
AcDbLine
 10
32.20333002
 20
60.2057798674
 30
0.0
 11
38.70333002
 21
60.2057798674
 31
0.0
  0
LINE
  5
43
100
AcDbEntity
  8
LAYER0
 62
         5
100
AcDbLine
 10
32.70333002
 20
25.8101053222
 30
0.0
 11
31.70333002
 21
24.8101053222
 31
0.0
  0
LINE
  5
44
100
AcDbEntity
  8
LAYER0
 62
         5
100
AcDbLine
 10
32.70333002
 20
25.1029985411
 30
0.0
 11
31.70333002
 21
24.1029985411
 31
0.0
  0
LINE
  5
45
100
AcDbEntity
  8
LAYER0
 62
         5
100
AcDbLine
 10
32.70333002
 20
24.3958917599
 30
0.0
 11
31.70333002
 21
23.3958917599
 31
0.0
  0
LINE
  5
46
100
AcDbEntity
  8
LAYER0
 62
         5
100
AcDbLine
 10
32.70333002
 20
23.6887849787
 30
0.0
 11
31.70333002
 21
22.6887849787
 31
0.0
  0
LINE
  5
47
100
AcDbEntity
  8
LAYER0
 62
         5
100
AcDbLine
 10
32.70333002
 20
22.9816781975
 30
0.0
 11
31.70333002
 21
21.9816781975
 31
0.0
  0
LINE
  5
48
100
AcDbEntity
  8
LAYER0
 62
         5
100
AcDbLine
 10
32.70333002
 20
22.2745714163
 30
0.0
 11
31.70333002
 21
21.2745714163
 31
0.0
  0
LINE
  5
49
100
AcDbEntity
  8
LAYER0
 62
         5
100
AcDbLine
 10
32.70333002
 20
21.5674646351
 30
0.0
 11
31.70333002
 21
20.5674646351
 31
0.0
  0
LINE
  5
4A
100
AcDbEntity
  8
LAYER0
 62
         5
100
AcDbLine
 10
32.20333002
 20
20.3603578539
 30
0.0
 11
32.70333002
 21
20.8603578539
 31
0.0
  0
LINE
  5
4B
100
AcDbEntity
  8
LAYER0
 62
         5
100
AcDbLine
 10
32.5464757705
 20
20.3603578539
 30
0.0
 11
31.70333002
 21
21.2035036044
 31
0.0
  0
LINE
  5
4C
100
AcDbEntity
  8
LAYER0
 62
         5
100
AcDbLine
 10
32.70333002
 20
20.9106103856
 30
0.0
 11
31.70333002
 21
21.9106103856
 31
0.0
  0
LINE
  5
4D
100
AcDbEntity
  8
LAYER0
 62
         5
100
AcDbLine
 10
32.70333002
 20
21.6177171668
 30
0.0
 11
31.70333002
 21
22.6177171668
 31
0.0
  0
LINE
  5
4E
100
AcDbEntity
  8
LAYER0
 62
         5
100
AcDbLine
 10
32.70333002
 20
22.324823948
 30
0.0
 11
31.70333002
 21
23.324823948
 31
0.0
  0
LINE
  5
4F
100
AcDbEntity
  8
LAYER0
 62
         5
100
AcDbLine
 10
32.70333002
 20
23.0319307292
 30
0.0
 11
31.70333002
 21
24.0319307292
 31
0.0
  0
CIRCLE
  5
50
100
AcDbEntity
  8
LAYER0
 62
         5
100
AcDbCircle
 10
35.45333002
 20
8.3603578539
 30
0.0
 40
1.5
210
0.0
220
0.0
230
1.0
  0
LINE
  5
51
100
AcDbEntity
  8
LAYER0
 62
         6
100
AcDbLine
 10
28.95333002
 20
20.3603578539
 30
0.0
 11
28.95333002
 21
18.3603578539
 31
0.0
  0
LINE
  5
52
100
AcDbEntity
  8
LAYER0
 62
         6
100
AcDbLine
 10
41.95333002
 20
20.3603578539
 30
0.0
 11
41.95333002
 21
18.3603578539
 31
0.0
  0
LINE
  5
53
100
AcDbEntity
  8
LAYER0
 62
         6
100
AcDbLine
 10
28.95333002
 20
18.3603578539
 30
0.0
 11
41.95333002
 21
18.3603578539
 31
0.0
  0
LINE
  5
54
100
AcDbEntity
  8
LAYER0
 62
         6
100
AcDbLine
 10
28.95333002
 20
20.3603578539
 30
0.0
 11
41.95333002
 21
20.3603578539
 31
0.0
  0
LINE
  5
55
100
AcDbEntity
  8
LAYER0
 62
         3
100
AcDbLine
 10
28.70333002
 20
20.3603578539
 30
0.0
 11
27.7837184065
 21
15.7622997864
 31
0.0
  0
LINE
  5
56
100
AcDbEntity
  8
LAYER0
 62
         5
100
AcDbLine
 10
38.2273273082
 20
7.3603578539
 30
0.0
 11
38.2273273082
 21
9.3603578539
 31
0.0
  0
LINE
  5
57
100
AcDbEntity
  8
LAYER0
 62
         5
100
AcDbLine
 10
32.20333002
 20
7.3603578539
 30
0.0
 11
38.2273273082
 21
7.3603578539
 31
0.0
  0
LINE
  5
58
100
AcDbEntity
  8
LAYER0
 62
         5
100
AcDbLine
 10
32.20333002
 20
9.3603578539
 30
0.0
 11
38.2273273082
 21
9.3603578539
 31
0.0
  0
LINE
  5
59
100
AcDbEntity
  8
LAYER0
 62
         5
100
AcDbLine
 10
32.20333002
 20
7.4853578539
 30
0.0
 11
38.2273273082
 21
7.4853578539
 31
0.0
  0
LINE
  5
5A
100
AcDbEntity
  8
LAYER0
 62
         5
100
AcDbLine
 10
32.20333002
 20
9.2353578539
 30
0.0
 11
38.2273273082
 21
9.2353578539
 31
0.0
  0
ARC
  5
5B
100
AcDbEntity
  8
LAYER0
 62
         3
100
AcDbCircle
 10
35.40333002
 20
8.3603578539
 30
0.0
 40
4.5
210
0.0
220
0.0
230
1.0
100
AcDbArc
 50
162.0000027634
 51
197.9999972366
  0
LINE
  5
5C
100
AcDbEntity
  8
LAYER3
 62
         4
100
AcDbLine
 10
17.95333002
 20
-77.2220020429
 30
0.0
 11
41.95333002
 21
-77.2220020429
 31
0.0
  0
LINE
  5
5D
100
AcDbEntity
  8
LAYER3
 62
         4
100
AcDbLine
 10
41.95333002
 20
-54.6396421461
 30
0.0
 11
41.95333002
 21
-78.2220020429
 31
0.0
  0
LINE
  5
5E
100
AcDbEntity
  8
LAYER3
 62
         4
100
AcDbLine
 10
41.95333002
 20
-72.1341789594
 30
0.0
 11
44.8877728222
 21
-71.5104438869
 31
0.0
  0
LINE
  5
5F
100
AcDbEntity
  8
LAYER3
 62
         4
100
AcDbLine
 10
41.95333002
 20
-72.1341789594
 30
0.0
 11
44.8877728222
 21
-72.7579140318
 31
0.0
  0
LINE
  5
60
100
AcDbEntity
  8
LAYER3
 62
         4
100
AcDbLine
 10
46.95333002
 20
-72.1341789594
 30
0.0
 11
41.95333002
 21
-72.1341789594
 31
0.0
  0
LINE
  5
61
100
AcDbEntity
  8
LAYER0
 62
         3
100
AcDbLine
 10
17.95333002
 20
77.6103578539
 30
0.0
 11
18.45333002
 21
77.1103578539
 31
0.0
  0
LINE
  5
62
100
AcDbEntity
  8
LAYER0
 62
         3
100
AcDbLine
 10
17.95333002
 20
83.1103578539
 30
0.0
 11
18.45333002
 21
83.6103578539
 31
0.0
  0
LINE
  5
63
100
AcDbEntity
  8
LAYER0
 62
         3
100
AcDbLine
 10
18.45333002
 20
77.1103578539
 30
0.0
 11
30.45333002
 21
77.1103578539
 31
0.0
  0
LINE
  5
64
100
AcDbEntity
  8
LAYER0
 62
         3
100
AcDbLine
 10
18.45333002
 20
83.6103578539
 30
0.0
 11
30.45333002
 21
83.6103578539
 31
0.0
  0
LINE
  5
65
100
AcDbEntity
  8
LAYER0
 62
         3
100
AcDbLine
 10
17.95333002
 20
77.6103578539
 30
0.0
 11
17.95333002
 21
83.1103578539
 31
0.0
  0
LINE
  5
66
100
AcDbEntity
  8
LAYER0
 62
         5
100
AcDbLine
 10
32.70333002
 20
23.7390375104
 30
0.0
 11
31.70333002
 21
24.7390375104
 31
0.0
  0
LINE
  5
67
100
AcDbEntity
  8
LAYER0
 62
         5
100
AcDbLine
 10
32.70333002
 20
24.4461442916
 30
0.0
 11
31.70333002
 21
25.4461442916
 31
0.0
  0
LINE
  5
68
100
AcDbEntity
  8
LAYER0
 62
         5
100
AcDbLine
 10
32.70333002
 20
25.1532510727
 30
0.0
 11
31.70333002
 21
26.1532510727
 31
0.0
  0
LINE
  5
69
100
AcDbEntity
  8
LAYER0
 62
         5
100
AcDbLine
 10
32.20333002
 20
26.3603578539
 30
0.0
 11
32.70333002
 21
25.8603578539
 31
0.0
  0
LINE
  5
6A
100
AcDbEntity
  8
LAYER0
 62
         5
100
AcDbLine
 10
32.70333002
 20
26.3603578539
 30
0.0
 11
32.70333002
 21
20.3603578539
 31
0.0
  0
LINE
  5
6B
100
AcDbEntity
  8
LAYER0
 62
         5
100
AcDbLine
 10
31.70333002
 20
20.3603578539
 30
0.0
 11
31.70333002
 21
26.3603578539
 31
0.0
  0
LINE
  5
6C
100
AcDbEntity
  8
LAYER0
 62
         3
100
AcDbLine
 10
28.70333002
 20
20.3603578539
 30
0.0
 11
35.45333002
 21
20.3603578539
 31
0.0
  0
LINE
  5
6D
100
AcDbEntity
  8
LAYER0
 62
         3
100
AcDbLine
 10
27.2934280687
 20
15.3603578539
 30
0.0
 11
26.20333002
 21
15.3603578539
 31
0.0
  0
LINE
  5
6E
100
AcDbEntity
  8
LAYER0
 62
         3
100
AcDbLine
 10
24.70333002
 20
23.3603578539
 30
0.0
 11
24.70333002
 21
16.8603578539
 31
0.0
  0
ARC
  5
6F
100
AcDbEntity
  8
LAYER0
 62
         3
100
AcDbCircle
 10
27.70333002
 20
23.3603578539
 30
0.0
 40
3.0
210
0.0
220
0.0
230
1.0
100
AcDbArc
 50
90.0000015352
 51
179.9999969295
  0
LINE
  5
70
100
AcDbEntity
  8
LAYER0
 62
         3
100
AcDbLine
 10
32.20333002
 20
26.3603578539
 30
0.0
 11
27.70333002
 21
26.3603578539
 31
0.0
  0
ARC
  5
71
100
AcDbEntity
  8
LAYER0
 62
         3
100
AcDbCircle
 10
30.45333002
 20
75.3603578539
 30
0.0
 40
8.25
210
0.0
220
-0.0
230
1.0
100
AcDbArc
 50
0.0
 51
90.0000015352
  0
ARC
  5
72
100
AcDbEntity
  8
LAYER0
 62
         3
100
AcDbCircle
 10
30.45333002
 20
75.3603578539
 30
0.0
 40
1.75
210
0.0
220
-0.0
230
1.0
100
AcDbArc
 50
0.0
 51
90.0000015352
  0
LINE
  5
73
100
AcDbEntity
  8
LAYER0
 62
         3
100
AcDbLine
 10
18.45333002
 20
77.1103578539
 30
0.0
 11
18.45333002
 21
83.6103578539
 31
0.0
  0
LINE
  5
74
100
AcDbEntity
  8
LAYER0
 62
         5
100
AcDbLine
 10
32.5464757705
 20
26.3603578539
 30
0.0
 11
31.70333002
 21
25.5172121034
 31
0.0
  0
LINE
  5
75
100
AcDbEntity
  8
LAYER0
 62
         3
100
AcDbLine
 10
60.0
 20
-125.5
 30
0.0
 11
60.0
 21
-138.5
 31
0.0
  0
MTEXT
  5
76
100
AcDbEntity
  8
LAYER0
100
AcDbMText
 10
72.5158633528
 20
-126.7970201517
 30
0.0
 40
2.1473683357
 41
10.2585839844
 71
         1
 72
         1
  1
\W0.8;管理図番
  0
MTEXT
  5
77
100
AcDbEntity
  8
LAYER0
100
AcDbMText
 10
32.0542682872
 20
-126.7970201517
 30
0.0
 40
2.1473683357
 41
7.6538653946
 71
         1
 72
         1
  1
\W0.8;品　名
  0
LINE
  5
78
100
AcDbEntity
  8
LAYER0
 62
         3
100
AcDbLine
 10
10.0
 20
-138.5
 30
0.0
 11
10.0
 21
-125.5
 31
0.0
  0
LINE
  5
79
100
AcDbEntity
  8
LAYER0
 62
         3
100
AcDbLine
 10
95.0
 20
-138.5
 30
0.0
 11
95.0
 21
-125.5
 31
0.0
  0
LINE
  5
7A
100
AcDbEntity
  8
LAYER0
 62
         3
100
AcDbLine
 10
38.70333002
 20
-69.1396421461
 30
0.0
 11
32.20333002
 21
-69.1396421461
 31
0.0
  0
CIRCLE
  5
7B
100
AcDbEntity
  8
LAYER0
 62
         5
100
AcDbCircle
 10
35.45333002
 20
-41.6396421461
 30
0.0
 40
1.5
210
0.0
220
0.0
230
1.0
  0
LINE
  5
7C
100
AcDbEntity
  8
LAYER0
 62
         6
100
AcDbLine
 10
41.95333002
 20
-53.6396421461
 30
0.0
 11
41.95333002
 21
-51.6396421461
 31
0.0
  0
LINE
  5
7D
100
AcDbEntity
  8
LAYER0
 62
         6
100
AcDbLine
 10
28.95333002
 20
-53.6396421461
 30
0.0
 11
28.95333002
 21
-51.6396421461
 31
0.0
  0
LINE
  5
7E
100
AcDbEntity
  8
LAYER0
 62
         6
100
AcDbLine
 10
28.95333002
 20
-51.6396421461
 30
0.0
 11
41.95333002
 21
-51.6396421461
 31
0.0
  0
LINE
  5
7F
100
AcDbEntity
  8
LAYER0
 62
         6
100
AcDbLine
 10
28.95333002
 20
-53.6396421461
 30
0.0
 11
41.95333002
 21
-53.6396421461
 31
0.0
  0
LINE
  5
80
100
AcDbEntity
  8
LAYER0
 62
         3
100
AcDbLine
 10
32.20333002
 20
-69.1396421461
 30
0.0
 11
32.20333002
 21
-53.6396421461
 31
0.0
  0
LINE
  5
81
100
AcDbEntity
  8
LAYER0
 62
         3
100
AcDbLine
 10
38.70333002
 20
-53.6396421461
 30
0.0
 11
38.70333002
 21
-69.1396421461
 31
0.0
  0
LINE
  5
82
100
AcDbEntity
  8
LAYER3
 62
         4
100
AcDbLine
 10
28.95333002
 20
-72.1341789594
 30
0.0
 11
26.0188872178
 21
-72.7579140318
 31
0.0
  0
LINE
  5
83
100
AcDbEntity
  8
LAYER3
 62
         4
100
AcDbLine
 10
28.95333002
 20
-72.1341789594
 30
0.0
 11
26.0188872178
 21
-71.5104438869
 31
0.0
  0
LINE
  5
84
100
AcDbEntity
  8
LAYER3
 62
         4
100
AcDbLine
 10
19.15333002
 20
-72.1341789594
 30
0.0
 11
28.95333002
 21
-72.1341789594
 31
0.0
  0
MTEXT
  5
85
100
AcDbEntity
  8
LAYER3
100
AcDbMText
 10
20.15333002
 20
-68.346520268
 30
0.0
 40
2.1473683357
 41
2.5646459961
 71
         1
 72
         1
  1
\W0.8;26
  0
LINE
  5
86
100
AcDbEntity
  8
LAYER3
 62
         4
100
AcDbLine
 10
41.95333002
 20
-72.1341789594
 30
0.0
 11
28.95333002
 21
-72.1341789594
 31
0.0
  0
LINE
  5
87
100
AcDbEntity
  8
LAYER3
 62
         4
100
AcDbLine
 10
28.95333002
 20
-54.6396421461
 30
0.0
 11
28.95333002
 21
-73.1341789594
 31
0.0
  0
LINE
  5
88
100
AcDbEntity
  8
LAYER3
 62
         4
100
AcDbLine
 10
41.95333002
 20
-54.6396421461
 30
0.0
 11
41.95333002
 21
-73.1341789594
 31
0.0
  0
MTEXT
  5
89
100
AcDbEntity
  8
LAYER3
100
AcDbMText
 10
27.55333002
 20
-73.4343433515
 30
0.0
 40
2.1473683357
 41
2.5646459961
 71
         1
 72
         1
  1
\W0.8;48
  0
LINE
  5
8A
100
AcDbEntity
  8
LAYER3
 62
         4
100
AcDbLine
 10
41.95333002
 20
-77.2220020429
 30
0.0
 11
39.0188872178
 21
-77.8457371154
 31
0.0
  0
LINE
  5
8B
100
AcDbEntity
  8
LAYER3
 62
         4
100
AcDbLine
 10
41.95333002
 20
-77.2220020429
 30
0.0
 11
39.0188872178
 21
-76.5982669705
 31
0.0
  0
LINE
  5
8C
100
AcDbEntity
  8
LAYER3
 62
         4
100
AcDbLine
 10
17.95333002
 20
-77.2220020429
 30
0.0
 11
20.8877728222
 21
-76.5982669705
 31
0.0
  0
LINE
  5
8D
100
AcDbEntity
  8
LAYER3
 62
         4
100
AcDbLine
 10
17.95333002
 20
-77.2220020429
 30
0.0
 11
20.8877728222
 21
-77.8457371154
 31
0.0
  0
LINE
  5
8E
100
AcDbEntity
  8
LAYER0
 62
         6
100
AcDbLine
 10
-26.04666998
 20
6.8603578539
 30
0.0
 11
-24.04666998
 21
6.8603578539
 31
0.0
  0
LINE
  5
8F
100
AcDbEntity
  8
LAYER0
 62
         6
100
AcDbLine
 10
-24.04666998
 20
9.8603578539
 30
0.0
 11
-26.04666998
 21
9.8603578539
 31
0.0
  0
LINE
  5
90
100
AcDbEntity
  8
LAYER0
  6
CENTER
100
AcDbLine
 10
-29.6465861498
 20
8.3603578539
 30
0.0
 11
-21.1483120725
 21
8.3603578539
 31
0.0
  0
LINE
  5
91
100
AcDbEntity
  8
LAYER0
 62
         6
100
AcDbLine
 10
-17.84666998
 20
20.3603578539
 30
0.0
 11
-24.04666998
 21
20.3603578539
 31
0.0
  0
LINE
  5
92
100
AcDbEntity
  8
LAYER0
 62
         6
100
AcDbLine
 10
-10.54666998
 20
20.3603578539
 30
0.0
 11
-16.24666998
 21
20.3603578539
 31
0.0
  0
LINE
  5
93
100
AcDbEntity
  8
LAYER0
 62
         6
100
AcDbLine
 10
-16.24666998
 20
18.3603578539
 30
0.0
 11
-10.54666998
 21
18.3603578539
 31
0.0
  0
LINE
  5
94
100
AcDbEntity
  8
LAYER0
 62
         6
100
AcDbLine
 10
-24.04666998
 20
18.3603578539
 30
0.0
 11
-17.84666998
 21
18.3603578539
 31
0.0
  0
LINE
  5
95
100
AcDbEntity
  8
LAYER0
 62
         3
100
AcDbLine
 10
-20.29666998
 20
80.3603578539
 30
0.0
 11
-20.29666998
 21
20.3603578539
 31
0.0
  0
LINE
  5
96
100
AcDbEntity
  8
LAYER0
 62
         3
100
AcDbLine
 10
-13.79666998
 20
80.3603578539
 30
0.0
 11
-13.79666998
 21
20.3603578539
 31
0.0
  0
ARC
  5
97
100
AcDbEntity
  8
LAYER0
 62
         3
100
AcDbCircle
 10
-17.54666998
 20
7.8603578539
 30
0.0
 40
0.25
210
0.0
220
-0.0
230
1.0
100
AcDbArc
 50
0.0
 51
90.0000015352
  0
LINE
  5
98
100
AcDbEntity
  8
LAYER3
 62
         4
100
AcDbLine
 10
-41.5227174864
 20
20.3603578539
 30
0.0
 11
-40.898982414
 21
17.4259150517
 31
0.0
  0
LINE
  5
99
100
AcDbEntity
  8
LAYER3
 62
         4
100
AcDbLine
 10
-41.5227174864
 20
20.3603578539
 30
0.0
 11
-42.1464525589
 21
17.4259150517
 31
0.0
  0
LINE
  5
9A
100
AcDbEntity
  8
LAYER3
 62
         4
100
AcDbLine
 10
-25.04666998
 20
20.3603578539
 30
0.0
 11
-42.5227174864
 21
20.3603578539
 31
0.0
  0
MTEXT
  5
9B
100
AcDbEntity
  8
LAYER3
100
AcDbMText
 10
-53.3490016519
 20
0.9853577792
 30
0.0
 40
2.1473683357
 41
6.4116149902
 71
         1
 72
         1
  1
\W0.8;306.5
 11
-0.0000000268
 21
1.0
 31
0.0
  0
LINE
  5
9C
100
AcDbEntity
  8
LAYER3
 62
         4
100
AcDbLine
 10
-49.5613429605
 20
83.6103578539
 30
0.0
 11
-48.937607888
 21
80.6759150517
 31
0.0
  0
LINE
  5
9D
100
AcDbEntity
  8
LAYER3
 62
         4
100
AcDbLine
 10
-49.5613429605
 20
83.6103578539
 30
0.0
 11
-50.1850780329
 21
80.6759150517
 31
0.0
  0
LINE
  5
9E
100
AcDbEntity
  8
LAYER3
 62
         4
100
AcDbLine
 10
-18.29666998
 20
83.6103578539
 30
0.0
 11
-50.5613429605
 21
83.6103578539
 31
0.0
  0
LINE
  5
9F
100
AcDbEntity
  8
LAYER3
 62
         4
100
AcDbLine
 10
-33.519609285
 20
8.3603578539
 30
0.0
 11
-32.8958742126
 21
5.4259150517
 31
0.0
  0
LINE
  5
A0
100
AcDbEntity
  8
LAYER3
 62
         4
100
AcDbLine
 10
-33.519609285
 20
8.3603578539
 30
0.0
 11
-34.1433443575
 21
5.4259150517
 31
0.0
  0
LINE
  5
A1
100
AcDbEntity
  8
LAYER3
 62
         4
100
AcDbLine
 10
-29.6465861498
 20
8.3603578539
 30
0.0
 11
-34.519609285
 21
8.3603578539
 31
0.0
  0
LINE
  5
A2
100
AcDbEntity
  8
LAYER0
 62
         3
100
AcDbLine
 10
38.20333002
 20
-69.6396421461
 30
0.0
 11
38.70333002
 21
-69.1396421461
 31
0.0
  0
LINE
  5
A3
100
AcDbEntity
  8
LAYER0
 62
         3
100
AcDbLine
 10
32.70333002
 20
-69.6396421461
 30
0.0
 11
32.20333002
 21
-69.1396421461
 31
0.0
  0
LINE
  5
A4
100
AcDbEntity
  8
LAYER0
 62
         3
100
AcDbLine
 10
38.20333002
 20
-69.6396421461
 30
0.0
 11
32.70333002
 21
-69.6396421461
 31
0.0
  0
MTEXT
  5
A5
100
AcDbEntity
  8
LAYER0
100
AcDbMText
 10
27.3808602544
 20
-132.8866032766
 30
0.0
 40
2.4737683892
 41
14.7723613344
 71
         1
 72
         1
  1
\W0.8;φ13丸落し
  0
MTEXT
  5
A6
100
AcDbEntity
  8
LAYER0
100
AcDbMText
 10
69.2920019132
 20
-133.1354167344
 30
0.0
 40
2.4737683892
 41
8.8634168007
 71
         1
 72
         1
  1
\W0.8;D56059
  0
LINE
  5
A7
100
AcDbEntity
  8
LAYER0
 62
         5
100
AcDbLine
 10
-15.74666998
 20
25.1029985411
 30
0.0
 11
-16.24666998
 21
24.6029985411
 31
0.0
  0
LINE
  5
A8
100
AcDbEntity
  8
LAYER0
 62
         5
100
AcDbLine
 10
-15.74666998
 20
24.3958917599
 30
0.0
 11
-16.24666998
 21
23.8958917599
 31
0.0
  0
LINE
  5
A9
100
AcDbEntity
  8
LAYER0
 62
         5
100
AcDbLine
 10
-15.74666998
 20
23.6887849787
 30
0.0
 11
-16.24666998
 21
23.1887849787
 31
0.0
  0
LINE
  5
AA
100
AcDbEntity
  8
LAYER0
 62
         5
100
AcDbLine
 10
-15.74666998
 20
22.9816781975
 30
0.0
 11
-16.24666998
 21
22.4816781975
 31
0.0
  0
LINE
  5
AB
100
AcDbEntity
  8
LAYER0
 62
         5
100
AcDbLine
 10
-15.74666998
 20
22.2745714163
 30
0.0
 11
-16.24666998
 21
21.7745714163
 31
0.0
  0
LINE
  5
AC
100
AcDbEntity
  8
LAYER0
 62
         5
100
AcDbLine
 10
-15.74666998
 20
21.5674646351
 30
0.0
 11
-16.24666998
 21
21.0674646351
 31
0.0
  0
LINE
  5
AD
100
AcDbEntity
  8
LAYER0
 62
         3
100
AcDbLine
 10
-15.8219251086
 20
8.1103578539
 30
0.0
 11
-16.54666998
 21
8.1103578539
 31
0.0
  0
CIRCLE
  5
AE
100
AcDbEntity
  8
LAYER0
 62
         3
100
AcDbCircle
 10
-17.04666998
 20
8.3603578539
 30
0.0
 40
1.75
210
0.0
220
0.0
230
1.0
  0
LINE
  5
AF
100
AcDbEntity
  8
LAYER0
 62
         6
100
AcDbLine
 10
-22.29666998
 20
20.3603578539
 30
0.0
 11
-22.29666998
 21
18.3603578539
 31
0.0
  0
ARC
  5
B0
100
AcDbEntity
  8
LAYER0
 62
         6
100
AcDbCircle
 10
-24.04666998
 20
18.3603578539
 30
0.0
 40
2.0
210
0.0
220
0.0
230
1.0
100
AcDbArc
 50
90.0000015352
 51
179.9999969295
  0
LINE
  5
B1
100
AcDbEntity
  8
LAYER0
 62
         6
100
AcDbLine
 10
-10.54666998
 20
20.3603578539
 30
0.0
 11
-10.54666998
 21
18.3603578539
 31
0.0
  0
ARC
  5
B2
100
AcDbEntity
  8
LAYER0
 62
         3
100
AcDbCircle
 10
-17.54666998
 20
8.8603578539
 30
0.0
 40
0.25
210
-0.0
220
0.0
230
1.0
100
AcDbArc
 50
269.9999984648
 51
0.0
  0
ARC
  5
B3
100
AcDbEntity
  8
LAYER0
 62
         3
100
AcDbCircle
 10
-16.54666998
 20
8.8603578539
 30
0.0
 40
0.25
210
0.0
220
0.0
230
1.0
100
AcDbArc
 50
179.9999969295
 51
269.9999984648
  0
ARC
  5
B4
100
AcDbEntity
  8
LAYER0
 62
         3
100
AcDbCircle
 10
-16.54666998
 20
7.8603578539
 30
0.0
 40
0.25
210
0.0
220
0.0
230
1.0
100
AcDbArc
 50
90.0000015352
 51
179.9999969295
  0
ARC
  5
B5
100
AcDbEntity
  8
LAYER0
 62
         3
100
AcDbCircle
 10
-17.04666998
 20
8.3603578539
 30
0.0
 40
1.25
210
0.0
220
-0.0
230
1.0
100
AcDbArc
 50
78.4630423056
 51
101.5369607648
  0
ARC
  5
B6
100
AcDbEntity
  8
LAYER0
 62
         3
100
AcDbCircle
 10
-17.04666998
 20
8.3603578539
 30
0.0
 40
1.25
210
-0.0
220
0.0
230
1.0
100
AcDbArc
 50
348.4630407704
 51
11.5369592296
  0
ARC
  5
B7
100
AcDbEntity
  8
LAYER0
 62
         3
100
AcDbCircle
 10
-17.04666998
 20
8.3603578539
 30
0.0
 40
1.25
210
0.0
220
0.0
230
1.0
100
AcDbArc
 50
168.4630438409
 51
191.5369561591
  0
ARC
  5
B8
100
AcDbEntity
  8
LAYER0
 62
         3
100
AcDbCircle
 10
-17.04666998
 20
8.3603578539
 30
0.0
 40
1.25
210
0.0
220
0.0
230
1.0
100
AcDbArc
 50
258.4630392351
 51
281.5369576944
  0
LINE
  5
B9
100
AcDbEntity
  8
LAYER0
 62
         3
100
AcDbLine
 10
-17.29666998
 20
7.8603578539
 30
0.0
 11
-17.29666998
 21
7.1356129825
 31
0.0
  0
LINE
  5
BA
100
AcDbEntity
  8
LAYER0
 62
         3
100
AcDbLine
 10
-17.29666998
 20
9.5851027253
 30
0.0
 11
-17.29666998
 21
8.8603578539
 31
0.0
  0
LINE
  5
BB
100
AcDbEntity
  8
LAYER0
 62
         3
100
AcDbLine
 10
-16.79666998
 20
8.8603578539
 30
0.0
 11
-16.79666998
 21
9.5851027253
 31
0.0
  0
LINE
  5
BC
100
AcDbEntity
  8
LAYER0
 62
         3
100
AcDbLine
 10
-16.79666998
 20
7.1356129825
 30
0.0
 11
-16.79666998
 21
7.8603578539
 31
0.0
  0
LINE
  5
BD
100
AcDbEntity
  8
LAYER0
 62
         3
100
AcDbLine
 10
-16.54666998
 20
8.6103578539
 30
0.0
 11
-15.8219251086
 21
8.6103578539
 31
0.0
  0
LINE
  5
BE
100
AcDbEntity
  8
LAYER0
 62
         3
100
AcDbLine
 10
-18.2714148514
 20
8.6103578539
 30
0.0
 11
-17.54666998
 21
8.6103578539
 31
0.0
  0
LINE
  5
BF
100
AcDbEntity
  8
LAYER0
 62
         3
100
AcDbLine
 10
-17.54666998
 20
8.1103578539
 30
0.0
 11
-18.2714148514
 21
8.1103578539
 31
0.0
  0
LINE
  5
C0
100
AcDbEntity
  8
LAYER0
 62
         5
100
AcDbLine
 10
-15.74666998
 20
23.0319307292
 30
0.0
 11
-16.24666998
 21
23.5319307292
 31
0.0
  0
LINE
  5
C1
100
AcDbEntity
  8
LAYER0
 62
         5
100
AcDbLine
 10
-15.74666998
 20
23.7390375104
 30
0.0
 11
-16.24666998
 21
24.2390375104
 31
0.0
  0
LINE
  5
C2
100
AcDbEntity
  8
LAYER0
 62
         5
100
AcDbLine
 10
-15.74666998
 20
24.4461442916
 30
0.0
 11
-16.24666998
 21
24.9461442916
 31
0.0
  0
LINE
  5
C3
100
AcDbEntity
  8
LAYER0
 62
         5
100
AcDbLine
 10
-15.74666998
 20
25.1532510727
 30
0.0
 11
-16.24666998
 21
25.6532510727
 31
0.0
  0
LINE
  5
C4
100
AcDbEntity
  8
LAYER0
 62
         5
100
AcDbLine
 10
-16.24666998
 20
26.3603578539
 30
0.0
 11
-15.74666998
 21
25.8603578539
 31
0.0
  0
LINE
  5
C5
100
AcDbEntity
  8
LAYER0
 62
         5
100
AcDbLine
 10
-15.74666998
 20
26.3603578539
 30
0.0
 11
-15.74666998
 21
20.3603578539
 31
0.0
  0
LINE
  5
C6
100
AcDbEntity
  8
LAYER0
 62
         5
100
AcDbLine
 10
-17.84666998
 20
26.0172121034
 30
0.0
 11
-18.34666998
 21
25.5172121034
 31
0.0
  0
LINE
  5
C7
100
AcDbEntity
  8
LAYER0
 62
         5
100
AcDbLine
 10
-17.84666998
 20
25.3101053222
 30
0.0
 11
-18.34666998
 21
24.8101053222
 31
0.0
  0
LINE
  5
C8
100
AcDbEntity
  8
LAYER0
 62
         5
100
AcDbLine
 10
-17.84666998
 20
24.6029985411
 30
0.0
 11
-18.34666998
 21
24.1029985411
 31
0.0
  0
LINE
  5
C9
100
AcDbEntity
  8
LAYER0
 62
         5
100
AcDbLine
 10
-17.84666998
 20
23.8958917599
 30
0.0
 11
-18.34666998
 21
23.3958917599
 31
0.0
  0
LINE
  5
CA
100
AcDbEntity
  8
LAYER0
 62
         5
100
AcDbLine
 10
-17.84666998
 20
23.1887849787
 30
0.0
 11
-18.34666998
 21
22.6887849787
 31
0.0
  0
LINE
  5
CB
100
AcDbEntity
  8
LAYER0
 62
         5
100
AcDbLine
 10
-17.84666998
 20
22.4816781975
 30
0.0
 11
-18.34666998
 21
21.9816781975
 31
0.0
  0
LINE
  5
CC
100
AcDbEntity
  8
LAYER0
 62
         5
100
AcDbLine
 10
-17.84666998
 20
21.7745714163
 30
0.0
 11
-18.34666998
 21
21.2745714163
 31
0.0
  0
LINE
  5
CD
100
AcDbEntity
  8
LAYER0
 62
         5
100
AcDbLine
 10
-17.84666998
 20
21.0674646351
 30
0.0
 11
-18.34666998
 21
20.5674646351
 31
0.0
  0
LINE
  5
CE
100
AcDbEntity
  8
LAYER0
 62
         5
100
AcDbLine
 10
-17.84666998
 20
20.7035036044
 30
0.0
 11
-18.34666998
 21
21.2035036044
 31
0.0
  0
LINE
  5
CF
100
AcDbEntity
  8
LAYER0
 62
         5
100
AcDbLine
 10
-17.84666998
 20
21.4106103856
 30
0.0
 11
-18.34666998
 21
21.9106103856
 31
0.0
  0
LINE
  5
D0
100
AcDbEntity
  8
LAYER0
 62
         5
100
AcDbLine
 10
-17.84666998
 20
22.1177171668
 30
0.0
 11
-18.34666998
 21
22.6177171668
 31
0.0
  0
LINE
  5
D1
100
AcDbEntity
  8
LAYER0
 62
         5
100
AcDbLine
 10
-17.84666998
 20
22.824823948
 30
0.0
 11
-18.34666998
 21
23.324823948
 31
0.0
  0
LINE
  5
D2
100
AcDbEntity
  8
LAYER0
 62
         5
100
AcDbLine
 10
-17.84666998
 20
23.5319307292
 30
0.0
 11
-18.34666998
 21
24.0319307292
 31
0.0
  0
LINE
  5
D3
100
AcDbEntity
  8
LAYER0
 62
         5
100
AcDbLine
 10
-17.84666998
 20
24.2390375104
 30
0.0
 11
-18.34666998
 21
24.7390375104
 31
0.0
  0
LINE
  5
D4
100
AcDbEntity
  8
LAYER0
 62
         5
100
AcDbLine
 10
-17.84666998
 20
24.9461442916
 30
0.0
 11
-18.34666998
 21
25.4461442916
 31
0.0
  0
LINE
  5
D5
100
AcDbEntity
  8
LAYER0
 62
         5
100
AcDbLine
 10
-17.84666998
 20
25.6532510727
 30
0.0
 11
-18.34666998
 21
26.1532510727
 31
0.0
  0
LINE
  5
D6
100
AcDbEntity
  8
LAYER0
 62
         5
100
AcDbLine
 10
-18.34666998
 20
20.3603578539
 30
0.0
 11
-18.34666998
 21
26.3603578539
 31
0.0
  0
LINE
  5
D7
100
AcDbEntity
  8
LAYER0
 62
         5
100
AcDbLine
 10
-15.9035242295
 20
26.3603578539
 30
0.0
 11
-16.24666998
 21
26.0172121034
 31
0.0
  0
LINE
  5
D8
100
AcDbEntity
  8
LAYER0
 62
         5
100
AcDbLine
 10
-15.74666998
 20
25.8101053222
 30
0.0
 11
-16.24666998
 21
25.3101053222
 31
0.0
  0
LINE
  5
D9
100
AcDbEntity
  8
LAYER3
 62
         4
100
AcDbLine
 10
-33.519609285
 20
-41.6396421461
 30
0.0
 11
-32.8958742126
 21
-38.7051993439
 31
0.0
  0
LINE
  5
DA
100
AcDbEntity
  8
LAYER3
 62
         4
100
AcDbLine
 10
-30.3322697697
 20
-41.6396421461
 30
0.0
 11
-34.519609285
 21
-41.6396421461
 31
0.0
  0
MTEXT
  5
DB
100
AcDbEntity
  8
LAYER3
100
AcDbMText
 10
-45.3103761779
 20
-64.0396422208
 30
0.0
 40
2.1473683357
 41
2.5646459961
 71
         1
 72
         1
  1
\W0.8;32
 11
-0.0000000268
 21
1.0
 31
0.0
  0
LINE
  5
DC
100
AcDbEntity
  8
LAYER3
 62
         4
100
AcDbLine
 10
-41.5227174864
 20
-69.6396421461
 30
0.0
 11
-42.1464525589
 21
-66.7051993439
 31
0.0
  0
MTEXT
  5
DD
100
AcDbEntity
  8
LAYER3
100
AcDbMText
 10
-20.69666998
 20
-75.3321999256
 30
0.0
 40
2.1473683357
 41
2.5646459961
 71
         1
 72
         1
  1
\W0.8;31
  0
LINE
  5
DE
100
AcDbEntity
  8
LAYER3
 62
         4
100
AcDbLine
 10
-10.54666998
 20
-79.119858617
 30
0.0
 11
-13.4811127822
 21
-79.7435936895
 31
0.0
  0
LINE
  5
DF
100
AcDbEntity
  8
LAYER3
 62
         4
100
AcDbLine
 10
-10.54666998
 20
-79.119858617
 30
0.0
 11
-13.4811127822
 21
-78.4961235445
 31
0.0
  0
LINE
  5
E0
100
AcDbEntity
  8
LAYER3
 62
         4
100
AcDbLine
 10
-26.04666998
 20
-79.119858617
 30
0.0
 11
-23.1122271778
 21
-78.4961235445
 31
0.0
  0
LINE
  5
E1
100
AcDbEntity
  8
LAYER3
 62
         4
100
AcDbLine
 10
-26.04666998
 20
-79.119858617
 30
0.0
 11
-23.1122271778
 21
-79.7435936895
 31
0.0
  0
LINE
  5
E2
100
AcDbEntity
  8
LAYER3
 62
         4
100
AcDbLine
 10
-26.04666998
 20
-79.119858617
 30
0.0
 11
-10.54666998
 21
-79.119858617
 31
0.0
  0
LINE
  5
E3
100
AcDbEntity
  8
LAYER3
 62
         4
100
AcDbLine
 10
-26.04666998
 20
-52.6396421461
 30
0.0
 11
-26.04666998
 21
-80.119858617
 31
0.0
  0
LINE
  5
E4
100
AcDbEntity
  8
LAYER3
 62
         4
100
AcDbLine
 10
-10.54666998
 20
-54.6396421461
 30
0.0
 11
-10.54666998
 21
-80.119858617
 31
0.0
  0
CIRCLE
  5
E5
100
AcDbEntity
  8
LAYER0
 62
         3
100
AcDbCircle
 10
-17.04666998
 20
80.3603578539
 30
0.0
 40
3.25
210
0.0
220
0.0
230
1.0
  0
LINE
  5
E6
100
AcDbEntity
  8
LAYER0
 62
         3
100
AcDbLine
 10
-17.84666998
 20
26.3603578539
 30
0.0
 11
-17.84666998
 21
15.3603578539
 31
0.0
  0
LINE
  5
E7
100
AcDbEntity
  8
LAYER0
 62
         3
100
AcDbLine
 10
-16.24666998
 20
15.3603578539
 30
0.0
 11
-16.24666998
 21
26.3603578539
 31
0.0
  0
LINE
  5
E8
100
AcDbEntity
  8
LAYER0
 62
         3
100
AcDbLine
 10
-16.24666998
 20
26.3603578539
 30
0.0
 11
-17.84666998
 21
26.3603578539
 31
0.0
  0
LINE
  5
E9
100
AcDbEntity
  8
LAYER0
 62
         3
100
AcDbLine
 10
-16.24666998
 20
15.3603578539
 30
0.0
 11
-17.84666998
 21
15.3603578539
 31
0.0
  0
LINE
  5
EA
100
AcDbEntity
  8
LAYER0
  6
CENTER
100
AcDbLine
 10
-14.5673670709
 20
8.3603578539
 30
0.0
 11
-19.5146296328
 21
8.3603578539
 31
0.0
  0
LINE
  5
EB
100
AcDbEntity
  8
LAYER0
  6
CENTER
100
AcDbLine
 10
-14.3438503592
 20
20.3603578539
 30
0.0
 11
-19.8375821523
 21
20.3603578539
 31
0.0
  0
CIRCLE
  5
EC
100
AcDbEntity
  8
LAYER0
 62
         3
100
AcDbCircle
 10
-17.04666998
 20
80.3603578539
 30
0.0
 40
2.75
210
0.0
220
0.0
230
1.0
  0
LINE
  5
ED
100
AcDbEntity
  8
LAYER0
 62
         5
100
AcDbLine
 10
-16.24666998
 20
20.3603578539
 30
0.0
 11
-15.74666998
 21
20.8603578539
 31
0.0
  0
LINE
  5
EE
100
AcDbEntity
  8
LAYER0
 62
         5
100
AcDbLine
 10
-15.9035242295
 20
20.3603578539
 30
0.0
 11
-16.24666998
 21
20.7035036044
 31
0.0
  0
LINE
  5
EF
100
AcDbEntity
  8
LAYER0
 62
         5
100
AcDbLine
 10
-15.74666998
 20
20.9106103856
 30
0.0
 11
-16.24666998
 21
21.4106103856
 31
0.0
  0
LINE
  5
F0
100
AcDbEntity
  8
LAYER0
 62
         5
100
AcDbLine
 10
-15.74666998
 20
21.6177171668
 30
0.0
 11
-16.24666998
 21
22.1177171668
 31
0.0
  0
LINE
  5
F1
100
AcDbEntity
  8
LAYER0
 62
         5
100
AcDbLine
 10
-15.74666998
 20
22.324823948
 30
0.0
 11
-16.24666998
 21
22.824823948
 31
0.0
  0
ARC
  5
F2
100
AcDbEntity
  8
LAYER0
 62
         6
100
AcDbCircle
 10
-24.04666998
 20
-51.6396421461
 30
0.0
 40
2.0
210
0.0
220
0.0
230
1.0
100
AcDbArc
 50
179.9999969295
 51
269.9999984648
  0
LINE
  5
F3
100
AcDbEntity
  8
LAYER0
 62
         6
100
AcDbLine
 10
-10.54666998
 20
-51.6396421461
 30
0.0
 11
-24.04666998
 21
-51.6396421461
 31
0.0
  0
LINE
  5
F4
100
AcDbEntity
  8
LAYER0
 62
         6
100
AcDbLine
 10
-10.54666998
 20
-51.6396421461
 30
0.0
 11
-10.54666998
 21
-53.6396421461
 31
0.0
  0
LINE
  5
F5
100
AcDbEntity
  8
LAYER0
 62
         6
100
AcDbLine
 10
-10.54666998
 20
-53.6396421461
 30
0.0
 11
-24.04666998
 21
-53.6396421461
 31
0.0
  0
LINE
  5
F6
100
AcDbEntity
  8
LAYER0
  6
CENTER
100
AcDbLine
 10
-27.3434434286
 20
-16.6396421461
 30
0.0
 11
-22.2058841983
 21
-16.6396421461
 31
0.0
  0
LINE
  5
F7
100
AcDbEntity
  8
LAYER0
 62
         6
100
AcDbLine
 10
-26.04666998
 20
-43.1396421461
 30
0.0
 11
-24.04666998
 21
-43.1396421461
 31
0.0
  0
LINE
  5
F8
100
AcDbEntity
  8
LAYER0
 62
         6
100
AcDbLine
 10
-24.04666998
 20
-40.1396421461
 30
0.0
 11
-26.04666998
 21
-40.1396421461
 31
0.0
  0
LINE
  5
F9
100
AcDbEntity
  8
LAYER0
  6
CENTER
100
AcDbLine
 10
-28.6316895469
 20
-41.6396421461
 30
0.0
 11
-21.1483120725
 21
-41.6396421461
 31
0.0
  0
LINE
  5
FA
100
AcDbEntity
  8
LAYER0
 62
         3
100
AcDbLine
 10
-20.29666998
 20
-53.6396421461
 30
0.0
 11
-20.29666998
 21
-69.1396421461
 31
0.0
  0
LINE
  5
FB
100
AcDbEntity
  8
LAYER0
 62
         3
100
AcDbLine
 10
-13.79666998
 20
-53.6396421461
 30
0.0
 11
-13.79666998
 21
-69.1396421461
 31
0.0
  0
LINE
  5
FC
100
AcDbEntity
  8
LAYER3
 62
         4
100
AcDbLine
 10
-41.5227174864
 20
-69.6396421461
 30
0.0
 11
-40.898982414
 21
-66.7051993439
 31
0.0
  0
LINE
  5
FD
100
AcDbEntity
  8
LAYER3
 62
         4
100
AcDbLine
 10
-41.5227174864
 20
-53.6396421461
 30
0.0
 11
-40.898982414
 21
-56.5740849483
 31
0.0
  0
LINE
  5
FE
100
AcDbEntity
  8
LAYER3
 62
         4
100
AcDbLine
 10
-41.5227174864
 20
-53.6396421461
 30
0.0
 11
-42.1464525589
 21
-56.5740849483
 31
0.0
  0
LINE
  5
FF
100
AcDbEntity
  8
LAYER3
 62
         4
100
AcDbLine
 10
-41.5227174864
 20
-53.6396421461
 30
0.0
 11
-41.5227174864
 21
-69.6396421461
 31
0.0
  0
LINE
  5
100
100
AcDbEntity
  8
LAYER3
 62
         4
100
AcDbLine
 10
-21.04666998
 20
-69.6396421461
 30
0.0
 11
-42.5227174864
 21
-69.6396421461
 31
0.0
  0
LINE
  5
101
100
AcDbEntity
  8
LAYER3
 62
         4
100
AcDbLine
 10
-25.04666998
 20
-53.6396421461
 30
0.0
 11
-42.5227174864
 21
-53.6396421461
 31
0.0
  0
MTEXT
  5
102
100
AcDbEntity
  8
LAYER3
100
AcDbMText
 10
-45.3103761779
 20
-20.2396422208
 30
0.0
 40
2.1473683357
 41
3.8469689941
 71
         1
 72
         1
  1
\W0.8;148
 11
-0.0000000268
 21
1.0
 31
0.0
  0
LINE
  5
103
100
AcDbEntity
  8
LAYER3
 62
         4
100
AcDbLine
 10
-41.5227174864
 20
-53.6396421461
 30
0.0
 11
-42.1464525589
 21
-50.7051993439
 31
0.0
  0
LINE
  5
104
100
AcDbEntity
  8
LAYER3
 62
         4
100
AcDbLine
 10
-41.5227174864
 20
-53.6396421461
 30
0.0
 11
-40.898982414
 21
-50.7051993439
 31
0.0
  0
LINE
  5
105
100
AcDbEntity
  8
LAYER3
 62
         4
100
AcDbLine
 10
-25.04666998
 20
-53.6396421461
 30
0.0
 11
-42.5227174864
 21
-53.6396421461
 31
0.0
  0
LINE
  5
106
100
AcDbEntity
  8
LAYER3
 62
         4
100
AcDbLine
 10
-49.5613429605
 20
-69.6396421461
 30
0.0
 11
-50.1850780329
 21
-66.7051993439
 31
0.0
  0
LINE
  5
107
100
AcDbEntity
  8
LAYER3
 62
         4
100
AcDbLine
 10
-49.5613429605
 20
-69.6396421461
 30
0.0
 11
-48.937607888
 21
-66.7051993439
 31
0.0
  0
LINE
  5
108
100
AcDbEntity
  8
LAYER3
 62
         4
100
AcDbLine
 10
-21.04666998
 20
-69.6396421461
 30
0.0
 11
-50.5613429605
 21
-69.6396421461
 31
0.0
  0
MTEXT
  5
109
100
AcDbEntity
  8
LAYER3
100
AcDbMText
 10
-37.3072679764
 20
-20.2396422208
 30
0.0
 40
2.1473683357
 41
3.8469689941
 71
         1
 72
         1
  1
\W0.8;100
 11
-0.0000000268
 21
1.0
 31
0.0
  0
LINE
  5
10A
100
AcDbEntity
  8
LAYER3
 62
         4
100
AcDbLine
 10
-33.519609285
 20
-41.6396421461
 30
0.0
 11
-34.1433443575
 21
-38.7051993439
 31
0.0
  0
LINE
  5
10B
100
AcDbEntity
  8
LAYER0
 62
         3
100
AcDbLine
 10
95.0
 20
-125.5
 30
0.0
 11
-40.0
 21
-125.5
 31
0.0
  0
LINE
  5
10C
100
AcDbEntity
  8
LAYER0
 62
         3
100
AcDbLine
 10
95.0
 20
-130.5
 30
0.0
 11
-40.0
 21
-130.5
 31
0.0
  0
LINE
  5
10D
100
AcDbEntity
  8
LAYER0
 62
         3
100
AcDbLine
 10
95.0
 20
-138.5
 30
0.0
 11
-40.0
 21
-138.5
 31
0.0
  0
LINE
  5
10E
100
AcDbEntity
  8
LAYER0
 62
         6
100
AcDbLine
 10
-24.04666998
 20
18.3603578539
 30
0.0
 11
-24.04666998
 21
-51.6396421461
 31
0.0
  0
LINE
  5
10F
100
AcDbEntity
  8
LAYER0
 62
         6
100
AcDbLine
 10
-26.04666998
 20
18.3603578539
 30
0.0
 11
-26.04666998
 21
-51.6396421461
 31
0.0
  0
LINE
  5
110
100
AcDbEntity
  8
LAYER0
 62
         3
100
AcDbLine
 10
-20.29666998
 20
18.3603578539
 30
0.0
 11
-20.29666998
 21
-51.6396421461
 31
0.0
  0
LINE
  5
111
100
AcDbEntity
  8
LAYER0
 62
         3
100
AcDbLine
 10
-13.79666998
 20
18.3603578539
 30
0.0
 11
-13.79666998
 21
-51.6396421461
 31
0.0
  0
LINE
  5
112
100
AcDbEntity
  8
LAYER3
 62
         4
100
AcDbLine
 10
-41.5227174864
 20
20.3603578539
 30
0.0
 11
-41.5227174864
 21
-53.6396421461
 31
0.0
  0
LINE
  5
113
100
AcDbEntity
  8
LAYER3
 62
         4
100
AcDbLine
 10
-49.5613429605
 20
83.6103578539
 30
0.0
 11
-49.5613429605
 21
-69.6396421461
 31
0.0
  0
LINE
  5
114
100
AcDbEntity
  8
LAYER3
 62
         4
100
AcDbLine
 10
-33.519609285
 20
8.3603578539
 30
0.0
 11
-33.519609285
 21
-41.6396421461
 31
0.0
  0
LINE
  5
115
100
AcDbEntity
  8
LAYER0
 62
         6
100
AcDbLine
 10
30.20333002
 20
18.3603578539
 30
0.0
 11
30.20333002
 21
-51.6396421461
 31
0.0
  0
LINE
  5
116
100
AcDbEntity
  8
LAYER0
 62
         6
100
AcDbLine
 10
40.70333002
 20
18.3603578539
 30
0.0
 11
40.70333002
 21
-51.6396421461
 31
0.0
  0
LINE
  5
117
100
AcDbEntity
  8
LAYER0
 62
         3
100
AcDbLine
 10
32.20333002
 20
-51.6396421461
 30
0.0
 11
32.20333002
 21
18.3603578539
 31
0.0
  0
LINE
  5
118
100
AcDbEntity
  8
LAYER0
 62
         3
100
AcDbLine
 10
38.70333002
 20
18.3603578539
 30
0.0
 11
38.70333002
 21
-51.6396421461
 31
0.0
  0
LINE
  5
119
100
AcDbEntity
  8
LAYER3
 62
         4
100
AcDbLine
 10
17.95333002
 20
76.6103578539
 30
0.0
 11
17.95333002
 21
-78.2220020429
 31
0.0
  0
LINE
  5
11A
100
AcDbEntity
  8
LAYER0
 62
         3
100
AcDbLine
 10
-19.79666998
 20
-69.6396421461
 30
0.0
 11
-14.29666998
 21
-69.6396421461
 31
0.0
  0
MTEXT
  5
11B
100
AcDbEntity
  8
LAYER0
100
AcDbMText
 10
-15.6501737419
 20
-132.5157576176
 30
0.0
 40
3.0922104359
 41
9.2327256828
 71
         1
 72
         1
  1
\W0.8;MR-17
  0
MTEXT
  5
11C
100
AcDbEntity
  8
LAYER0
100
AcDbMText
 10
-35.7051459079
 20
-126.6461242782
 30
0.0
 40
2.1473683357
 41
6.4116149902
 71
         1
 72
         1
  1
\W0.8;Ｎｏ.
  0
LINE
  5
11D
100
AcDbEntity
  8
LAYER0
 62
         3
100
AcDbLine
 10
-25.0
 20
-125.5
 30
0.0
 11
-25.0
 21
-138.5
 31
0.0
  0
MTEXT
  5
11E
100
AcDbEntity
  8
LAYER0
100
AcDbMText
 10
-10.6564309049
 20
-126.7970201517
 30
0.0
 40
2.1473683357
 41
7.6538653946
 71
         1
 72
         1
  1
\W0.8;品　番
  0
LINE
  5
11F
100
AcDbEntity
  8
LAYER0
 62
         3
100
AcDbLine
 10
-40.0
 20
-138.5
 30
0.0
 11
-40.0
 21
-125.5
 31
0.0
  0
LINE
  5
120
100
AcDbEntity
  8
LAYER0
 62
         3
100
AcDbLine
 10
-13.79666998
 20
-69.1396421461
 30
0.0
 11
-20.29666998
 21
-69.1396421461
 31
0.0
  0
LINE
  5
121
100
AcDbEntity
  8
LAYER0
 62
         3
100
AcDbLine
 10
-13.79666998
 20
-69.1396421461
 30
0.0
 11
-14.29666998
 21
-69.6396421461
 31
0.0
  0
LINE
  5
122
100
AcDbEntity
  8
LAYER0
 62
         3
100
AcDbLine
 10
-19.79666998
 20
-69.6396421461
 30
0.0
 11
-20.29666998
 21
-69.1396421461
 31
0.0
  0
LINE
  5
123
100
AcDbEntity
  8
LAYER0
 62
         6
100
AcDbLine
 10
-22.29666998
 20
-53.6396421461
 30
0.0
 11
-22.29666998
 21
-51.6396421461
 31
0.0
  0
ENDSEC
  0
SECTION
  2
OBJECTS
  0
DICTIONARY
  5
19
100
AcDbDictionary
280
         0
281
         1
  3
ACAD_GROUP
350
1A
  3
ACAD_MLINESTYLE
350
1B
  3
ACAD_LAYOUT
350
1E
  3
ACAD_PLOTSETTINGS
350
22
  3
ACAD_PLOTSTYLENAME
350
1F
  3
ACAD_WIPEOUT_VARS
350
23
  0
DICTIONARY
  5
1A
102
{ACAD_REACTORS
330
19
102
}
100
AcDbDictionary
280
         0
281
         1
  0
DICTIONARY
  5
1B
102
{ACAD_REACTORS
330
19
102
}
100
AcDbDictionary
280
         0
281
         1
  3
Standard
350
1C
  0
MLINESTYLE
  5
1C
102
{ACAD_REACTORS
330
1B
102
}
100
AcDbMlineStyle
  2
Standard
 70
         0
  3

 62
         0
 51
90.0
 52
90.0
 71
         2
 49
0.5
 62
       256
  6
BYLAYER
 49
-0.5
 62
       256
  6
BYLAYER
  0
ACDBDICTIONARYWDFLT
  5
1F
102
{ACAD_REACTORS
330
19
102
}
100
AcDbDictionary
281
         1
  3
Normal
350
1D
100
AcDbDictionaryWithDefault
340
1D
  0
ACDBPLACEHOLDER
  5
1D
102
{ACAD_REACTORS
330
1F
102
}
  0
LAYOUT
  5
20
102
{ACAD_REACTORS
330
1E
102
}
100
AcDbPlotSettings
  1

  2

  4

  6

 40
0.0
 41
0.0
 42
0.0
 43
0.0
 44
0.0
 45
0.0
 46
0.0
 47
0.0
 48
0.0
 49
0.0
140
0.0
141
0.0
142
1.0
143
1.0
 70
         0
 72
         0
 73
         0
 74
         0
  7

 75
         0
147
1.0
148
0.0
149
0.0
100
AcDbLayout
  1
Model
 70
         0
 71
         0
 10
0.0
 20
0.0
 11
0.0
 21
0.0
 12
0.0
 22
0.0
 32
0.0
 14
0.0
 24
0.0
 34
0.0
 15
0.0
 25
0.0
 35
0.0
146
0.0
 13
0.0
 23
0.0
 33
0.0
 16
0.0
 26
0.0
 36
0.0
 17
0.0
 27
0.0
 37
0.0
 76
         0
330
A
331
0
345
0
346
0
  0
LAYOUT
  5
21
102
{ACAD_REACTORS
330
1E
102
}
100
AcDbPlotSettings
  1

  2

  4

  6

 40
0.0
 41
0.0
 42
0.0
 43
0.0
 44
0.0
 45
0.0
 46
0.0
 47
0.0
 48
0.0
 49
0.0
140
0.0
141
0.0
142
1.0
143
1.0
 70
         0
 72
         0
 73
         0
 74
         0
  7

 75
         0
147
1.0
148
0.0
149
0.0
100
AcDbLayout
  1
Layout1
 70
         0
 71
         0
 10
0.0
 20
0.0
 11
0.0
 21
0.0
 12
0.0
 22
0.0
 32
0.0
 14
0.0
 24
0.0
 34
0.0
 15
0.0
 25
0.0
 35
0.0
146
0.0
 13
0.0
 23
0.0
 33
0.0
 16
0.0
 26
0.0
 36
0.0
 17
0.0
 27
0.0
 37
0.0
 76
         0
330
B
331
0
345
0
346
0
  0
DICTIONARY
  5
1E
102
{ACAD_REACTORS
330
19
102
}
100
AcDbDictionary
280
         0
281
         1
  3
Layout1
350
21
  3
Model
350
20
  0
DICTIONARY
  5
22
102
{ACAD_REACTORS
330
19
102
}
100
AcDbDictionary
280
         0
281
         1
  0
WIPEOUTVARIABLES
  5
23
100
AcDbWipeoutVariables
 70
         1
  0
ENDSEC
  0
EOF
