  0
SECTION
  2
HEADER
  9
$ACADVER
  1
AC1015
  9
$ACADMAINTVER
 70
         6
  9
$DWGCODEPAGE
  3
ANSI_932
  9
$INSBASE
 10
0.0
 20
0.0
 30
0.0
  9
$EXTMIN
 10
1.0000000000E+20
 20
1.0000000000E+20
 30
1.0000000000E+20
  9
$EXTMAX
 10
-1.0000000000E+20
 20
-1.0000000000E+20
 30
-1.0000000000E+20
  9
$LIMMIN
 10
0.0
 20
0.0
  9
$LIMMAX
 10
0.0
 20
0.0
  9
$ORTHOMODE
 70
         0
  9
$REGENMODE
 70
         1
  9
$FILLMODE
 70
         1
  9
$QTEXTMODE
 70
         0
  9
$MIRRTEXT
 70
         1
  9
$LTSCALE
 40
1.0
  9
$ATTMODE
 70
         1
  9
$TEXTSIZE
 40
0.2
  9
$TRACEWID
 40
0.05
  9
$TEXTSTYLE
  7
Standard
  9
$CLAYER
  8
0
  9
$CELTYPE
  6
Continuous
  9
$CECOLOR
 62
       256
  9
$CELTSCALE
 40
1.0
  9
$DISPSILH
 70
         0
  9
$DIMSCALE
 40
1.0
  9
$DIMASZ
 40
0.18
  9
$DIMEXO
 40
0.0625
  9
$DIMDLI
 40
0.38
  9
$DIMRND
 40
0.0
  9
$DIMDLE
 40
0.0
  9
$DIMEXE
 40
0.18
  9
$DIMTP
 40
0.0
  9
$DIMTM
 40
0.0
  9
$DIMTXT
 40
0.18
  9
$DIMCEN
 40
0.09
  9
$DIMTSZ
 40
0.0
  9
$DIMTOL
 70
         0
  9
$DIMLIM
 70
         0
  9
$DIMTIH
 70
         1
  9
$DIMTOH
 70
         1
  9
$DIMSE1
 70
         0
  9
$DIMSE2
 70
         0
  9
$DIMTAD
 70
         0
  9
$DIMZIN
 70
         0
  9
$DIMBLK
  1

  9
$DIMASO
 70
         1
  9
$DIMSHO
 70
         1
  9
$DIMPOST
  1

  9
$DIMAPOST
  1

  9
$DIMALT
 70
         0
  9
$DIMALTD
 70
         2
  9
$DIMALTF
 40
25.4
  9
$DIMLFAC
 40
1.0
  9
$DIMTOFL
 70
         0
  9
$DIMTVP
 40
0.0
  9
$DIMTIX
 70
         0
  9
$DIMSOXD
 70
         0
  9
$DIMSAH
 70
         0
  9
$DIMBLK1
  1

  9
$DIMBLK2
  1

  9
$DIMSTYLE
  2
Standard
  9
$DIMCLRD
 70
         0
  9
$DIMCLRE
 70
         0
  9
$DIMCLRT
 70
         0
  9
$DIMTFAC
 40
1.0
  9
$DIMGAP
 40
0.09
  9
$DIMJUST
 70
         0
  9
$DIMSD1
 70
         0
  9
$DIMSD2
 70
         0
  9
$DIMTOLJ
 70
         1
  9
$DIMTZIN
 70
         0
  9
$DIMALTZ
 70
         0
  9
$DIMALTTZ
 70
         0
  9
$DIMUPT
 70
         0
  9
$DIMDEC
 70
         4
  9
$DIMTDEC
 70
         4
  9
$DIMALTU
 70
         2
  9
$DIMALTTD
 70
         2
  9
$DIMTXSTY
  7
Standard
  9
$DIMAUNIT
 70
         0
  9
$DIMADEC
 70
         0
  9
$DIMALTRND
 40
0.0
  9
$DIMAZIN
 70
         0
  9
$DIMDSEP
 70
         0
  9
$DIMATFIT
 70
         3
  9
$DIMFRAC
 70
         0
  9
$DIMLDRBLK
  1

  9
$DIMLUNIT
 70
         2
  9
$DIMLWD
 70
         0
  9
$DIMLWE
 70
         0
  9
$DIMTMOVE
 70
         0
  9
$LUNITS
 70
         2
  9
$LUPREC
 70
         4
  9
$SKETCHINC
 40
0.1
  9
$FILLETRAD
 40
0.0
  9
$AUNITS
 70
         0
  9
$AUPREC
 70
         0
  9
$MENU
  1
acad
  9
$ELEVATION
 40
0.0
  9
$PELEVATION
 40
0.0
  9
$THICKNESS
 40
0.0
  9
$LIMCHECK
 70
         0
  9
$CHAMFERA
 40
0.0
  9
$CHAMFERB
 40
0.0
  9
$CHAMFERC
 40
0.0
  9
$CHAMFERD
 40
0.0
  9
$SKPOLY
 70
         0
  9
$TDCREATE
 40
0.000000000
  9
$TDUCREATE
 40
0.000000000
  9
$TDUPDATE
 40
0.000000000
  9
$TDUUPDATE
 40
0.000000000
  9
$TDINDWG
 40
0.0000000000
  9
$TDUSRTIMER
 40
0.0000000000
  9
$USRTIMER
 70
         1
  9
$ANGBASE
 50
0.0
  9
$ANGDIR
 70
         0
  9
$PDMODE
 70
         3
  9
$PDSIZE
 40
-1.0
  9
$PLINEWID
 40
0.0
  9
$SPLFRAME
 70
         0
  9
$SPLINETYPE
 70
         6
  9
$SPLINESEGS
 70
         8
  9
$HANDSEED
  5
EE
  9
$SURFTAB1
 70
         6
  9
$SURFTAB2
 70
         6
  9
$SURFTYPE
 70
         6
  9
$SURFU
 70
         6
  9
$SURFV
 70
         6
  9
$UCSBASE
  2

  9
$UCSNAME
  2

  9
$UCSORG
 10
0.0
 20
0.0
 30
0.0
  9
$UCSXDIR
 10
1.0
 20
0.0
 30
0.0
  9
$UCSYDIR
 10
0.0
 20
1.0
 30
0.0
  9
$UCSORTHOREF
  2

  9
$UCSORTHOVIEW
 70
         0
  9
$UCSORGTOP
 10
0.0
 20
0.0
 30
0.0
  9
$UCSORGBOTTOM
 10
0.0
 20
0.0
 30
0.0
  9
$UCSORGLEFT
 10
0.0
 20
0.0
 30
0.0
  9
$UCSORGRIGHT
 10
0.0
 20
0.0
 30
0.0
  9
$UCSORGFRONT
 10
0.0
 20
0.0
 30
0.0
  9
$UCSORGBACK
 10
0.0
 20
0.0
 30
0.0
  9
$PUCSBASE
  2

  9
$PUCSNAME
  2

  9
$PUCSORG
 10
0.0
 20
0.0
 30
0.0
  9
$PUCSXDIR
 10
1.0
 20
0.0
 30
0.0
  9
$PUCSYDIR
 10
0.0
 20
1.0
 30
0.0
  9
$PUCSORTHOREF
  2

  9
$PUCSORTHOVIEW
 70
         0
  9
$PUCSORGTOP
 10
0.0
 20
0.0
 30
0.0
  9
$PUCSORGBOTTOM
 10
0.0
 20
0.0
 30
0.0
  9
$PUCSORGLEFT
 10
0.0
 20
0.0
 30
0.0
  9
$PUCSORGRIGHT
 10
0.0
 20
0.0
 30
0.0
  9
$PUCSORGFRONT
 10
0.0
 20
0.0
 30
0.0
  9
$PUCSORGBACK
 10
0.0
 20
0.0
 30
0.0
  9
$USERI1
 70
         0
  9
$USERI2
 70
         0
  9
$USERI3
 70
         0
  9
$USERI4
 70
         0
  9
$USERI5
 70
         0
  9
$USERR1
 40
0.0
  9
$USERR2
 40
0.0
  9
$USERR3
 40
0.0
  9
$USERR4
 40
0.0
  9
$USERR5
 40
0.0
  9
$WORLDVIEW
 70
         1
  9
$SHADEDGE
 70
         3
  9
$SHADEDIF
 70
        70
  9
$TILEMODE
 70
         1
  9
$MAXACTVP
 70
        16
  9
$PINSBASE
 10
0.0
 20
0.0
 30
0.0
  9
$PLIMCHECK
 70
         0
  9
$PEXTMIN
 10
1.0000000000E+20
 20
1.0000000000E+20
 30
1.0000000000E+20
  9
$PEXTMAX
 10
-1.0000000000E+20
 20
-1.0000000000E+20
 30
-1.0000000000E+20
  9
$PLIMMIN
 10
0.0
 20
0.0
  9
$PLIMMAX
 10
12.0
 20
9.0
  9
$UNITMODE
 70
         0
  9
$VISRETAIN
 70
         0
  9
$PLINEGEN
 70
         1
  9
$PSLTSCALE
 70
         0
  9
$TREEDEPTH
 70
      3020
  9
$CMLSTYLE
  2
Standard
  9
$CMLJUST
 70
         0
  9
$CMLSCALE
 40
1.0
  9
$PROXYGRAPHICS
 70
         0
  9
$MEASUREMENT
 70
         0
  9
$CELWEIGHT
370
         0
  9
$ENDCAPS
280
         0
  9
$JOINSTYLE
280
         0
  9
$LWDISPLAY
290
         0
  9
$INSUNITS
 70
         0
  9
$HYPERLINKBASE
  1

  9
$XEDIT
290
         1
  9
$CEPSNTYPE
380
         0
  9
$PSTYLEMODE
290
         0
  9
$FINGERPRINTGUID
  2

  9
$VERSIONGUID
  2

  9
$EXTNAMES
290
         1
  9
$PSVPSCALE
 40
0.0
  0
ENDSEC
  0
SECTION
  2
CLASSES
  0
CLASS
  1
LWPOLYLINE
  2
AcDbPolyline
  3
"AutoCAD"
 90
        0
280
         0
281
         1
  0
CLASS
  1
IMAGE
  2
AcDbRasterImage
  3
ISM
 90
      127
280
         0
281
         1
  0
CLASS
  1
OLE2FRAME
  2
AcDbOle2Frame
  3
""
 90
        0
280
         0
281
         1
  0
CLASS
  1
HATCH
  2
AcDbHatch
  3
"ACAD_SEDONA"
 90
        0
280
         0
281
         1
  0
CLASS
  1
DICTIONARYVAR
  2
AcDbDictionaryVar
  3
"AutoCAD"
 90
        0
280
         0
281
         0
  0
CLASS
  1
RASTERVARIABLES
  2
AcDbRasterVariables
  3
ISM
 90
        0
280
         0
281
         0
  0
CLASS
  1
IMAGEDEF
  2
AcDbRasterImageDef
  3
ISM
 90
        0
280
         0
281
         0
  0
CLASS
  1
IMAGEDEF_REACTOR
  2
AcDbRasterImageDefReactor
  3
ISM
 90
        1
280
         0
281
         0
  0
CLASS
  1
IDBUFFER
  2
AcDbIdBuffer
  3
"Acad"
 90
        0
280
         0
281
         0
  0
CLASS
  1
SPATIAL_FILTER
  2
AcDbSpatialFilter
  3
"Acad"
 90
        0
280
         0
281
         0
  0
CLASS
  1
XRECORD
  2
AcDbXrecord
  3
"<Built In>"
 90
        0
280
         0
281
         0
  0
CLASS
  1
SORTENTSTABLE
  2
AcDbSortentsTable
  3
"AutoCAD"
 90
        0
280
         0
281
         0
  0
CLASS
  1
LAYER_INDEX
  2
AcDbLayerIndex
  3
"Acad"
 90
        0
280
         0
281
         0
  0
CLASS
  1
SPATIAL_INDEX
  2
AcDbSpatialIndex
  3
"Acad"
 90
        0
280
         0
281
         0
  0
CLASS
  1
OBJECT_PTR
  2
CAseDLPNTableRecord
  3
"ASE-LPNTableRecord"
 90
        1
280
         0
281
         0
  0
CLASS
  1
LAYOUT
  2
AcDbLayout
  3
"AutoCAD 2000"
 90
        1
280
         0
281
         0
  0
CLASS
  1
PLOTSETTINGS
  2
AcDbPlotSettings
  3
"AutoCAD 2000"
 90
        1
280
         0
281
         0
  0
CLASS
  1
ACDBDICTIONARYWDFLT
  2
AcDbDictionaryWithDefault
  3
"AutoCAD 2000"
 90
        1
280
         0
281
         0
  0
CLASS
  1
ACDBPLACEHOLDER
  2
AcDbPlaceHolder
  3
"AutoCAD 2000"
 90
        1
280
         0
281
         0
  0
CLASS
  1
VBA_PROJECT
  2
AcDbVbaProject
  3
"acadvba"
 90
        1
280
         0
281
         0
  0
CLASS
  1
WIPEOUT
  2
AcDbWipeout
  3
WipeOut|AutoCAD Express Tool|expresstools@autodesk.com
 90
      127
280
         0
281
         1
  0
CLASS
  1
WIPEOUTVARIABLES
  2
AcDbWipeoutVariables
  3
WipeOut|AutoCAD Express Tool|expresstools@autodesk.com
 90
        0
280
         0
281
         0
  0
CLASS
  1
RTEXT
  2
RText
  3
RText|AutoCAD Express Tool|expresstools@autodesk.com
 90
        0
280
         0
281
         1
  0
CLASS
  1
ARCALIGNEDTEXT
  2
AcDbArcAlignedText
  3
ATEXT|AutoCAD Express Tool|expresstools@autodesk.com
 90
        0
280
         0
281
         1
  0
ENDSEC
  0
SECTION
  2
TABLES
  0
TABLE
  2
VPORT
  5
7
100
AcDbSymbolTable
 70
         1
  0
VPORT
  5
15
100
AcDbSymbolTableRecord
100
AcDbViewportTableRecord
  2
*ACTIVE
 70
         0
 10
0.0
 20
0.0
 11
1.0
 21
1.0
 12
6.591288
 22
4.579184
 13
0.0
 23
0.0
 14
1.0
 24
1.0
 15
0.0
 25
0.0
 16
0.0
 26
0.0
 36
1.0
 17
0.0
 27
0.0
 37
0.0
 40
9.158369
 41
0.688564
 42
50.0
 43
0.0
 44
0.0
 50
0.0
 51
0.0
 71
         0
 72
       100
 73
         1
 74
         1
 75
         0
 76
         0
 77
         0
 78
         0
281
         0
 65
         0
110
0.0
120
0.0
130
0.0
111
1.0
121
0.0
131
0.0
112
0.0
122
1.0
132
0.0
345
0
346
0
 79
         0
146
0.0
  0
ENDTAB
  0
TABLE
  2
LTYPE
  5
4
100
AcDbSymbolTable
 70
        13
  0
LTYPE
  5
11
100
AcDbSymbolTableRecord
100
AcDbLinetypeTableRecord
  2
ByBlock
 70
        64
  3

 72
        65
 73
         0
 40
0.0
  0
LTYPE
  5
12
100
AcDbSymbolTableRecord
100
AcDbLinetypeTableRecord
  2
ByLayer
 70
        64
  3

 72
        65
 73
         0
 40
0.0
  0
LTYPE
  5
13
100
AcDbSymbolTableRecord
100
AcDbLinetypeTableRecord
  2
Continuous
 70
        64
  3
Solid line
 72
        65
 73
         0
 40
0.0
  0
LTYPE
  5
24
100
AcDbSymbolTableRecord
100
AcDbLinetypeTableRecord
  2
DOT
 70
        64
  3
. . . . . . . . 
 72
        65
 73
         2
 40
1.0
 49
0.0
 74
         0
 49
-1.0
 74
         0
  0
LTYPE
  5
25
100
AcDbSymbolTableRecord
100
AcDbLinetypeTableRecord
  2
DASHED
 70
        64
  3
___  ___  ___  ___  
 72
        65
 73
         2
 40
4.0
 49
3.0
 74
         0
 49
-1.0
 74
         0
  0
LTYPE
  5
26
100
AcDbSymbolTableRecord
100
AcDbLinetypeTableRecord
  2
HIDDEN
 70
        64
  3
__ __ __ __ 
 72
        65
 73
         2
 40
3.0
 49
2.0
 74
         0
 49
-1.0
 74
         0
  0
LTYPE
  5
27
100
AcDbSymbolTableRecord
100
AcDbLinetypeTableRecord
  2
STITCH
 70
        64
  3
_ _ _ _ 
 72
        65
 73
         2
 40
2.0
 49
1.0
 74
         0
 49
-1.0
 74
         0
  0
LTYPE
  5
28
100
AcDbSymbolTableRecord
100
AcDbLinetypeTableRecord
  2
CENTER
 70
        64
  3
______  __  ______  __  
 72
        65
 73
         4
 40
43.0
 49
40.0
 74
         0
 49
-1.0
 74
         0
 49
1.0
 74
         0
 49
-1.0
 74
         0
  0
LTYPE
  5
29
100
AcDbSymbolTableRecord
100
AcDbLinetypeTableRecord
  2
DASHDOT
 70
        64
  3
____ . ____ . 
 72
        65
 73
         4
 40
32.0
 49
30.0
 74
         0
 49
-1.0
 74
         0
 49
0.0
 74
         0
 49
-1.0
 74
         0
  0
LTYPE
  5
2A
100
AcDbSymbolTableRecord
100
AcDbLinetypeTableRecord
  2
BORDER
 70
        64
  3
__ . __ . 
 72
        65
 73
         4
 40
22.0
 49
20.0
 74
         0
 49
-1.0
 74
         0
 49
0.0
 74
         0
 49
-1.0
 74
         0
  0
LTYPE
  5
2B
100
AcDbSymbolTableRecord
100
AcDbLinetypeTableRecord
  2
CUTTING
 70
        64
  3
________   ___   ___   
 72
        65
 73
         6
 40
45.0
 49
40.0
 74
         0
 49
-1.0
 74
         0
 49
1.0
 74
         0
 49
-1.0
 74
         0
 49
1.0
 74
         0
 49
-1.0
 74
         0
  0
LTYPE
  5
2C
100
AcDbSymbolTableRecord
100
AcDbLinetypeTableRecord
  2
PHANTOM
 70
        64
  3
______  __  __  
 72
        65
 73
         6
 40
35.0
 49
30.0
 74
         0
 49
-1.0
 74
         0
 49
1.0
 74
         0
 49
-1.0
 74
         0
 49
1.0
 74
         0
 49
-1.0
 74
         0
  0
LTYPE
  5
2D
100
AcDbSymbolTableRecord
100
AcDbLinetypeTableRecord
  2
DIVIDE
 70
        64
  3
____ . . ____ . . 
 72
        65
 73
         6
 40
23.0
 49
20.0
 74
         0
 49
-1.0
 74
         0
 49
0.0
 74
         0
 49
-1.0
 74
         0
 49
0.0
 74
         0
 49
-1.0
 74
         0
  0
ENDTAB
  0
TABLE
  2
LAYER
  5
2
100
AcDbSymbolTable
 70
         3
  0
LAYER
  5
14
100
AcDbSymbolTableRecord
100
AcDbLayerTableRecord
  2
0
 70
         0
 62
         7
  6
Continuous
290
         1
370
        -3
390
1D
  0
LAYER
  5
2E
100
AcDbSymbolTableRecord
100
AcDbLayerTableRecord
  2
LAYER3
 70
         0
 62
         7
  6
Continuous
290
         1
370
        -3
390
1F
  0
LAYER
  5
30
100
AcDbSymbolTableRecord
100
AcDbLayerTableRecord
  2
LAYER0
 70
         0
 62
         7
  6
Continuous
290
         1
370
        -3
390
1F
  0
ENDTAB
  0
TABLE
  2
STYLE
  5
3
100
AcDbSymbolTable
 70
         1
  0
STYLE
  5
17
100
AcDbSymbolTableRecord
100
AcDbTextStyleTableRecord
  2
Standard
 70
         0
 40
0.0
 41
1.0
 50
0.0
 71
         0
 42
0.0
  3
txt
  4
extfont
  0
ENDTAB
  0
TABLE
  2
VIEW
  5
5
100
AcDbSymbolTable
 70
         0
  0
ENDTAB
  0
TABLE
  2
UCS
  5
6
100
AcDbSymbolTable
 70
         0
  0
ENDTAB
  0
TABLE
  2
APPID
  5
8
100
AcDbSymbolTable
 70
         1
  0
APPID
  5
16
100
AcDbSymbolTableRecord
100
AcDbRegAppTableRecord
  2
ACAD
 70
         0
  0
ENDTAB
  0
TABLE
  2
DIMSTYLE
  5
9
100
AcDbSymbolTable
 70
         1
100
AcDbDimStyleTable
 71
         0
  0
DIMSTYLE
105
18
100
AcDbSymbolTableRecord
100
AcDbDimStyleTableRecord
  2
Standard
 70
         0
  3

  4

 40
1.0
 41
0.18
 42
0.0625
 43
0.38
 44
0.18
 45
0.0
 46
0.0
 47
0.0
 48
0.0
 71
         0
 72
         0
 73
         1
 74
         1
 75
         0
 76
         0
 77
         0
 78
         0
 79
         0
140
0.18
141
0.09
142
0.0
143
25.4
144
1.0
145
0.0
146
1.0
147
0.09
148
0.0
170
         0
171
         2
172
         0
173
         0
174
         0
175
         0
176
         0
177
         0
178
         0
179
         0
271
         4
272
         4
273
         2
274
         2
275
         0
276
         0
277
         2
278
        46
279
         0
280
         0
281
         0
282
         0
283
         1
284
         0
285
         0
286
         0
288
         0
340
17
341
0
342
0
343
0
344
0
371
        -2
372
        -2
  0
ENDTAB
  0
TABLE
  2
BLOCK_RECORD
  5
1
100
AcDbSymbolTable
 70
         0
  0
BLOCK_RECORD
  5
A
100
AcDbSymbolTableRecord
100
AcDbBlockTableRecord
  2
*MODEL_SPACE
340
20
  0
BLOCK_RECORD
  5
B
100
AcDbSymbolTableRecord
100
AcDbBlockTableRecord
  2
*PAPER_SPACE
340
21
  0
ENDTAB
  0
ENDSEC
  0
SECTION
  2
BLOCKS
  0
BLOCK
  5
D
100
AcDbEntity
  8
0
100
AcDbBlockBegin
  2
*MODEL_SPACE
 70
         0
 10
0.0
 20
0.0
 30
0.0
  3
*MODEL_SPACE
  1

  0
ENDBLK
  5
E
100
AcDbEntity
  8
0
100
AcDbBlockEnd
  0
BLOCK
  5
F
100
AcDbEntity
 67
         1
  8
0
100
AcDbBlockBegin
  2
*PAPER_SPACE
 70
         0
 10
0.0
 20
0.0
 30
0.0
  3
*PAPER_SPACE
  1

  0
ENDBLK
  5
10
100
AcDbEntity
 67
         1
  8
0
100
AcDbBlockEnd
  0
ENDSEC
  0
SECTION
  2
ENTITIES
  0
LINE
  5
2F
100
AcDbEntity
  8
LAYER3
 62
         3
100
AcDbLine
 10
4.2326789838
 20
68.7193995381
 30
0.0
 11
4.2326789838
 21
65.7193995381
 31
0.0
  0
LINE
  5
31
100
AcDbEntity
  8
LAYER0
 62
         5
100
AcDbLine
 10
8.9326789838
 20
65.7193995381
 30
0.0
 11
6.6326789838
 21
65.7193995381
 31
0.0
  0
LINE
  5
32
100
AcDbEntity
  8
LAYER0
 62
         5
100
AcDbLine
 10
6.6326789838
 20
68.7193995381
 30
0.0
 11
8.9326789838
 21
68.7193995381
 31
0.0
  0
LINE
  5
33
100
AcDbEntity
  8
LAYER3
 62
         3
100
AcDbLine
 10
12.2326789838
 20
68.7193995381
 30
0.0
 11
8.9326789838
 21
68.7193995381
 31
0.0
  0
LINE
  5
34
100
AcDbEntity
  8
LAYER3
 62
         3
100
AcDbLine
 10
12.2326789838
 20
65.7193995381
 30
0.0
 11
8.9326789838
 21
65.7193995381
 31
0.0
  0
LINE
  5
35
100
AcDbEntity
  8
LAYER3
 62
         4
100
AcDbLine
 10
12.2326789838
 20
68.4693995381
 30
0.0
 11
8.9326789838
 21
68.4693995381
 31
0.0
  0
LINE
  5
36
100
AcDbEntity
  8
LAYER3
 62
         4
100
AcDbLine
 10
12.2326789838
 20
65.9693995381
 30
0.0
 11
8.9326789838
 21
65.9693995381
 31
0.0
  0
LINE
  5
37
100
AcDbEntity
  8
LAYER3
 62
         3
100
AcDbLine
 10
14.2326789838
 20
67.2193995381
 30
0.0
 11
13.2326789838
 21
67.2193995381
 31
0.0
  0
ARC
  5
38
100
AcDbEntity
  8
LAYER3
 62
         3
100
AcDbCircle
 10
7.2326789838
 20
67.2193995381
 30
0.0
 40
7.0
210
-0.0
220
0.0
230
1.0
100
AcDbArc
 50
341.999999693
 51
18.000000307
  0
ARC
  5
39
100
AcDbEntity
  8
LAYER3
 62
         3
100
AcDbCircle
 10
13.1935916084
 20
69.1973820624
 30
0.0
 40
0.7206691715
210
0.0
220
0.0
230
1.0
100
AcDbArc
 50
14.8859127754
 51
87.0000014841
  0
ARC
  5
3A
100
AcDbEntity
  8
LAYER3
 62
         3
100
AcDbCircle
 10
13.1935916084
 20
65.2414170138
 30
0.0
 40
0.7206691715
210
0.0
220
0.0
230
1.0
100
AcDbArc
 50
272.9999985159
 51
345.1140872246
  0
LINE
  5
3B
100
AcDbEntity
  8
LAYER3
 62
         3
100
AcDbLine
 10
12.2326789838
 20
69.9693995381
 30
0.0
 11
13.2313085186
 21
69.9170635819
 31
0.0
  0
LINE
  5
3C
100
AcDbEntity
  8
LAYER3
 62
         4
100
AcDbLine
 10
8.9326789838
 20
38.702497232
 30
0.0
 11
5.9982361816
 21
38.0787621596
 31
0.0
  0
LINE
  5
3D
100
AcDbEntity
  8
LAYER3
 62
         4
100
AcDbLine
 10
8.9326789838
 20
38.702497232
 30
0.0
 11
5.9982361816
 21
39.3262323045
 31
0.0
  0
LINE
  5
3E
100
AcDbEntity
  8
LAYER3
 62
         4
100
AcDbLine
 10
8.9326789838
 20
21.5846214553
 30
0.0
 11
8.9326789838
 21
39.702497232
 31
0.0
  0
LINE
  5
3F
100
AcDbEntity
  8
LAYER3
 62
         4
100
AcDbLine
 10
6.6326789838
 20
17.8346214553
 30
0.0
 11
4.2326789838
 21
17.8346214553
 31
0.0
  0
LINE
  5
40
100
AcDbEntity
  8
LAYER3
 62
         3
100
AcDbLine
 10
6.6326789838
 20
15.0846214553
 30
0.0
 11
4.2326789838
 21
15.0846214553
 31
0.0
  0
LINE
  5
41
100
AcDbEntity
  8
LAYER3
 62
         3
100
AcDbLine
 10
6.6326789838
 20
18.0846214553
 30
0.0
 11
4.2326789838
 21
18.0846214553
 31
0.0
  0
LINE
  5
42
100
AcDbEntity
  8
LAYER3
 62
         3
100
AcDbLine
 10
4.2326789838
 20
18.0846214553
 30
0.0
 11
4.2326789838
 21
15.0846214553
 31
0.0
  0
LINE
  5
43
100
AcDbEntity
  8
LAYER0
 62
         5
100
AcDbLine
 10
8.9326789838
 20
15.0846214553
 30
0.0
 11
6.6326789838
 21
15.0846214553
 31
0.0
  0
LINE
  5
44
100
AcDbEntity
  8
LAYER0
 62
         5
100
AcDbLine
 10
6.6326789838
 20
18.0846214553
 30
0.0
 11
8.9326789838
 21
18.0846214553
 31
0.0
  0
LINE
  5
45
100
AcDbEntity
  8
LAYER3
 62
         3
100
AcDbLine
 10
12.2326789838
 20
18.0846214553
 30
0.0
 11
8.9326789838
 21
18.0846214553
 31
0.0
  0
LINE
  5
46
100
AcDbEntity
  8
LAYER3
 62
         3
100
AcDbLine
 10
12.2326789838
 20
15.0846214553
 30
0.0
 11
8.9326789838
 21
15.0846214553
 31
0.0
  0
LINE
  5
47
100
AcDbEntity
  8
LAYER3
 62
         4
100
AcDbLine
 10
12.2326789838
 20
17.8346214553
 30
0.0
 11
8.9326789838
 21
17.8346214553
 31
0.0
  0
LINE
  5
48
100
AcDbEntity
  8
LAYER3
 62
         4
100
AcDbLine
 10
12.2326789838
 20
15.3346214553
 30
0.0
 11
8.9326789838
 21
15.3346214553
 31
0.0
  0
LINE
  5
49
100
AcDbEntity
  8
LAYER3
 62
         3
100
AcDbLine
 10
14.2326789838
 20
16.5846214553
 30
0.0
 11
13.2326789838
 21
16.5846214553
 31
0.0
  0
LINE
  5
4A
100
AcDbEntity
  8
LAYER3
 62
         3
100
AcDbLine
 10
12.2326789838
 20
64.4693995381
 30
0.0
 11
13.2313085186
 21
64.5217354943
 31
0.0
  0
LINE
  5
4B
100
AcDbEntity
  8
LAYER3
 62
         3
100
AcDbLine
 10
12.2326789838
 20
64.4693995381
 30
0.0
 11
12.2326789838
 21
69.9693995381
 31
0.0
  0
MTEXT
  5
4C
100
AcDbEntity
  8
LAYER3
100
AcDbMText
 10
49.0926789838
 20
41.084954916
 30
0.0
 40
1.7178947091
 41
4.1034336906
 71
         1
 72
         1
  1
\W0.8;24.3
  0
LINE
  5
4D
100
AcDbEntity
  8
LAYER3
 62
         4
100
AcDbLine
 10
40.7826789838
 20
37.8548279103
 30
0.0
 11
43.717121786
 21
38.4785629827
 31
0.0
  0
LINE
  5
4E
100
AcDbEntity
  8
LAYER3
 62
         4
100
AcDbLine
 10
40.7826789838
 20
37.8548279103
 30
0.0
 11
43.717121786
 21
37.2310928378
 31
0.0
  0
LINE
  5
4F
100
AcDbEntity
  8
LAYER3
 62
         4
100
AcDbLine
 10
65.0826789838
 20
37.8548279103
 30
0.0
 11
62.1482361816
 21
37.2310928378
 31
0.0
  0
LINE
  5
50
100
AcDbEntity
  8
LAYER3
 62
         4
100
AcDbLine
 10
65.0826789838
 20
37.8548279103
 30
0.0
 11
62.1482361816
 21
38.4785629827
 31
0.0
  0
LINE
  5
51
100
AcDbEntity
  8
LAYER3
 62
         4
100
AcDbLine
 10
65.0826789838
 20
37.8548279103
 30
0.0
 11
40.7826789838
 21
37.8548279103
 31
0.0
  0
LINE
  5
52
100
AcDbEntity
  8
LAYER3
 62
         4
100
AcDbLine
 10
65.0826789838
 20
21.4110914645
 30
0.0
 11
65.0826789838
 21
38.8548279103
 31
0.0
  0
LINE
  5
53
100
AcDbEntity
  8
LAYER3
 62
         4
100
AcDbLine
 10
40.7826789838
 20
20.117395406
 30
0.0
 11
40.7826789838
 21
38.8548279103
 31
0.0
  0
LINE
  5
54
100
AcDbEntity
  8
LAYER3
 62
         4
100
AcDbLine
 10
6.6326789838
 20
65.9693995381
 30
0.0
 11
4.2326789838
 21
65.9693995381
 31
0.0
  0
LINE
  5
55
100
AcDbEntity
  8
LAYER3
 62
         4
100
AcDbLine
 10
6.6326789838
 20
68.4693995381
 30
0.0
 11
4.2326789838
 21
68.4693995381
 31
0.0
  0
LINE
  5
56
100
AcDbEntity
  8
LAYER3
 62
         3
100
AcDbLine
 10
6.6326789838
 20
65.7193995381
 30
0.0
 11
4.2326789838
 21
65.7193995381
 31
0.0
  0
LINE
  5
57
100
AcDbEntity
  8
LAYER3
 62
         3
100
AcDbLine
 10
6.6326789838
 20
68.7193995381
 30
0.0
 11
4.2326789838
 21
68.7193995381
 31
0.0
  0
LINE
  5
58
100
AcDbEntity
  8
LAYER3
 62
         3
100
AcDbLine
 10
44.8826789838
 20
14.9846214553
 30
0.0
 11
45.6826789838
 21
14.9846214553
 31
0.0
  0
LINE
  5
59
100
AcDbEntity
  8
LAYER3
 62
         3
100
AcDbLine
 10
44.8826789838
 20
18.1846214553
 30
0.0
 11
45.6826789838
 21
18.1846214553
 31
0.0
  0
CIRCLE
  5
5A
100
AcDbEntity
  8
LAYER3
 62
         3
100
AcDbCircle
 10
45.2826789838
 20
16.5846214553
 30
0.0
 40
2.75
210
0.0
220
0.0
230
1.0
  0
ARC
  5
5B
100
AcDbEntity
  8
LAYER0
 62
         3
100
AcDbCircle
 10
8.6326789838
 20
20.5846214553
 30
0.0
 40
0.3
210
0.0
220
-0.0
230
1.0
100
AcDbArc
 50
0.0
 51
90.0000015352
  0
ARC
  5
5C
100
AcDbEntity
  8
LAYER3
 62
         3
100
AcDbCircle
 10
46.0826789838
 20
15.7846214553
 30
0.0
 40
0.4
210
0.0
220
0.0
230
1.0
100
AcDbArc
 50
90.0000015352
 51
180.0000030705
  0
ARC
  5
5D
100
AcDbEntity
  8
LAYER3
 62
         3
100
AcDbCircle
 10
44.4826789838
 20
15.7846214553
 30
0.0
 40
0.4
210
0.0
220
-0.0
230
1.0
100
AcDbArc
 50
0.0
 51
90.0000015352
  0
ARC
  5
5E
100
AcDbEntity
  8
LAYER3
 62
         3
100
AcDbCircle
 10
44.4826789838
 20
17.3846214553
 30
0.0
 40
0.4
210
-0.0
220
0.0
230
1.0
100
AcDbArc
 50
269.9999984648
 51
0.0
  0
ARC
  5
5F
100
AcDbEntity
  8
LAYER3
 62
         3
100
AcDbCircle
 10
46.0826789838
 20
17.3846214553
 30
0.0
 40
0.4
210
0.0
220
0.0
230
1.0
100
AcDbArc
 50
180.0000030705
 51
269.9999984648
  0
LINE
  5
60
100
AcDbEntity
  8
LAYER3
 62
         3
100
AcDbLine
 10
44.4826789838
 20
16.9846214553
 30
0.0
 11
43.6826789838
 21
16.9846214553
 31
0.0
  0
LINE
  5
61
100
AcDbEntity
  8
LAYER3
 62
         3
100
AcDbLine
 10
46.8826789838
 20
16.9846214553
 30
0.0
 11
46.0826789838
 21
16.9846214553
 31
0.0
  0
LINE
  5
62
100
AcDbEntity
  8
LAYER3
 62
         3
100
AcDbLine
 10
46.0826789838
 20
16.1846214553
 30
0.0
 11
46.8826789838
 21
16.1846214553
 31
0.0
  0
ARC
  5
63
100
AcDbEntity
  8
LAYER0
 62
         3
100
AcDbCircle
 10
8.6326789838
 20
63.0193995381
 30
0.0
 40
0.3
210
-0.0
220
0.0
230
1.0
100
AcDbArc
 50
269.9999984648
 51
0.0
  0
ARC
  5
64
100
AcDbEntity
  8
LAYER0
 62
         3
100
AcDbCircle
 10
6.6326789838
 20
84.7193995381
 30
0.0
 40
2.3
210
0.0
220
-0.0
230
1.0
100
AcDbArc
 50
0.0
 51
90.0000015352
  0
LINE
  5
65
100
AcDbEntity
  8
LAYER0
 62
         3
100
AcDbLine
 10
8.9326789838
 20
63.0193995381
 30
0.0
 11
8.9326789838
 21
84.7193995381
 31
0.0
  0
LINE
  5
66
100
AcDbEntity
  8
LAYER0
 62
         3
100
AcDbLine
 10
6.6326789838
 20
62.7193995381
 30
0.0
 11
6.6326789838
 21
84.7193995381
 31
0.0
  0
ARC
  5
67
100
AcDbEntity
  8
LAYER3
 62
         3
100
AcDbCircle
 10
7.2326789838
 20
16.5846214553
 30
0.0
 40
7.0
210
-0.0
220
0.0
230
1.0
100
AcDbArc
 50
341.999999693
 51
18.000000307
  0
ARC
  5
68
100
AcDbEntity
  8
LAYER3
 62
         3
100
AcDbCircle
 10
13.1935916084
 20
18.5626039795
 30
0.0
 40
0.7206691715
210
0.0
220
0.0
230
1.0
100
AcDbArc
 50
14.8859127754
 51
87.0000014841
  0
ARC
  5
69
100
AcDbEntity
  8
LAYER3
 62
         3
100
AcDbCircle
 10
13.1935916084
 20
14.606638931
 30
0.0
 40
0.7206691715
210
0.0
220
0.0
230
1.0
100
AcDbArc
 50
272.9999985159
 51
345.1140872246
  0
LINE
  5
6A
100
AcDbEntity
  8
LAYER3
 62
         3
100
AcDbLine
 10
12.2326789838
 20
19.3346214553
 30
0.0
 11
13.2313085186
 21
19.282285499
 31
0.0
  0
LINE
  5
6B
100
AcDbEntity
  8
LAYER3
 62
         3
100
AcDbLine
 10
12.2326789838
 20
13.8346214553
 30
0.0
 11
13.2313085186
 21
13.8869574115
 31
0.0
  0
LINE
  5
6C
100
AcDbEntity
  8
LAYER3
 62
         3
100
AcDbLine
 10
12.2326789838
 20
13.8346214553
 30
0.0
 11
12.2326789838
 21
19.3346214553
 31
0.0
  0
ARC
  5
6D
100
AcDbEntity
  8
LAYER0
 62
         3
100
AcDbCircle
 10
64.7826789838
 20
20.5846214553
 30
0.0
 40
0.3
210
0.0
220
-0.0
230
1.0
100
AcDbArc
 50
0.0
 51
90.0000015352
  0
ARC
  5
6E
100
AcDbEntity
  8
LAYER0
 62
         3
100
AcDbCircle
 10
42.7826789838
 20
18.8846214553
 30
0.0
 40
2.0
210
0.0
220
0.0
230
1.0
100
AcDbArc
 50
90.0000015352
 51
180.0000030705
  0
LINE
  5
6F
100
AcDbEntity
  8
LAYER0
 62
         3
100
AcDbLine
 10
42.7826789838
 20
20.8846214553
 30
0.0
 11
64.7826789838
 21
20.8846214553
 31
0.0
  0
LINE
  5
70
100
AcDbEntity
  8
LAYER3
 62
         4
100
AcDbLine
 10
6.6326789838
 20
15.3346214553
 30
0.0
 11
4.2326789838
 21
15.3346214553
 31
0.0
  0
MTEXT
  5
71
100
AcDbEntity
  8
LAYER0
100
AcDbMText
 10
69.2920019132
 20
-133.1354167344
 30
0.0
 40
2.4737683892
 41
8.8634168007
 71
         1
 72
         1
  1
\W0.8;D55824
  0
LINE
  5
72
100
AcDbEntity
  8
LAYER0
 62
         3
100
AcDbLine
 10
60.0
 20
-125.5
 30
0.0
 11
60.0
 21
-138.5
 31
0.0
  0
MTEXT
  5
73
100
AcDbEntity
  8
LAYER0
100
AcDbMText
 10
72.5158633528
 20
-126.7970201517
 30
0.0
 40
2.1473683357
 41
10.2585839844
 71
         1
 72
         1
  1
\W0.8;管理図番
  0
MTEXT
  5
74
100
AcDbEntity
  8
LAYER0
100
AcDbMText
 10
32.0542682872
 20
-126.7970201517
 30
0.0
 40
2.1473683357
 41
7.6538653946
 71
         1
 72
         1
  1
\W0.8;品　名
  0
LINE
  5
75
100
AcDbEntity
  8
LAYER0
 62
         3
100
AcDbLine
 10
10.0
 20
-138.5
 30
0.0
 11
10.0
 21
-125.5
 31
0.0
  0
LINE
  5
76
100
AcDbEntity
  8
LAYER0
 62
         3
100
AcDbLine
 10
95.0
 20
-138.5
 30
0.0
 11
95.0
 21
-125.5
 31
0.0
  0
ARC
  5
77
100
AcDbEntity
  8
LAYER0
 62
         3
100
AcDbCircle
 10
6.6326789838
 20
-9.1153785447
 30
0.0
 40
2.3
210
-0.0
220
0.0
230
1.0
100
AcDbArc
 50
269.9999984648
 51
0.0
  0
ARC
  5
78
100
AcDbEntity
  8
LAYER0
 62
         3
100
AcDbCircle
 10
2.6326789838
 20
-27.4153785447
 30
0.0
 40
4.0
210
-0.0
220
0.0
230
1.0
100
AcDbArc
 50
269.9999984648
 51
0.0
  0
LINE
  5
79
100
AcDbEntity
  8
LAYER0
 62
         3
100
AcDbLine
 10
6.6326789838
 20
-11.4153785447
 30
0.0
 11
6.6326789838
 21
-27.4153785447
 31
0.0
  0
ARC
  5
7A
100
AcDbEntity
  8
LAYER0
 62
         3
100
AcDbCircle
 10
64.7826789838
 20
-8.8153785447
 30
0.0
 40
0.3
210
-0.0
220
0.0
230
1.0
100
AcDbArc
 50
269.9999984648
 51
0.0
  0
ARC
  5
7B
100
AcDbEntity
  8
LAYER0
 62
         3
100
AcDbCircle
 10
64.7826789838
 20
-31.1153785447
 30
0.0
 40
0.3
210
-0.0
220
0.0
230
1.0
100
AcDbArc
 50
269.9999984648
 51
0.0
  0
ARC
  5
7C
100
AcDbEntity
  8
LAYER0
 62
         3
100
AcDbCircle
 10
41.0826789838
 20
-11.1153785447
 30
0.0
 40
0.3
210
0.0
220
0.0
230
1.0
100
AcDbArc
 50
180.0000030705
 51
269.9999984648
  0
ARC
  5
7D
100
AcDbEntity
  8
LAYER0
 62
         3
100
AcDbCircle
 10
60.6826789838
 20
-11.1153785447
 30
0.0
 40
0.3
210
-0.0
220
0.0
230
1.0
100
AcDbArc
 50
269.9999984648
 51
0.0
  0
LINE
  5
7E
100
AcDbEntity
  8
LAYER0
 62
         3
100
AcDbLine
 10
62.7826789838
 20
-31.4153785447
 30
0.0
 11
64.7826789838
 21
-31.4153785447
 31
0.0
  0
LINE
  5
7F
100
AcDbEntity
  8
LAYER0
 62
         3
100
AcDbLine
 10
41.0826789838
 20
-11.4153785447
 30
0.0
 11
60.6826789838
 21
-11.4153785447
 31
0.0
  0
LINE
  5
80
100
AcDbEntity
  8
LAYER0
 62
         3
100
AcDbLine
 10
60.9826789838
 20
-9.1153785447
 30
0.0
 11
60.9826789838
 21
-11.1153785447
 31
0.0
  0
LINE
  5
81
100
AcDbEntity
  8
LAYER0
 62
         3
100
AcDbLine
 10
62.7826789838
 20
-9.1153785447
 30
0.0
 11
62.7826789838
 21
-31.4153785447
 31
0.0
  0
LINE
  5
82
100
AcDbEntity
  8
LAYER0
 62
         3
100
AcDbLine
 10
60.9826789838
 20
-9.1153785447
 30
0.0
 11
64.7826789838
 21
-9.1153785447
 31
0.0
  0
LINE
  5
83
100
AcDbEntity
  8
LAYER3
 62
         3
100
AcDbLine
 10
43.6826789838
 20
16.1846214553
 30
0.0
 11
44.4826789838
 21
16.1846214553
 31
0.0
  0
LINE
  5
84
100
AcDbEntity
  8
LAYER3
 62
         3
100
AcDbLine
 10
44.8826789838
 20
15.7846214553
 30
0.0
 11
44.8826789838
 21
14.9846214553
 31
0.0
  0
LINE
  5
85
100
AcDbEntity
  8
LAYER3
 62
         3
100
AcDbLine
 10
44.8826789838
 20
18.1846214553
 30
0.0
 11
44.8826789838
 21
17.3846214553
 31
0.0
  0
LINE
  5
86
100
AcDbEntity
  8
LAYER3
 62
         3
100
AcDbLine
 10
45.6826789838
 20
17.3846214553
 30
0.0
 11
45.6826789838
 21
18.1846214553
 31
0.0
  0
LINE
  5
87
100
AcDbEntity
  8
LAYER3
 62
         3
100
AcDbLine
 10
45.6826789838
 20
14.9846214553
 30
0.0
 11
45.6826789838
 21
15.7846214553
 31
0.0
  0
LINE
  5
88
100
AcDbEntity
  8
LAYER3
 62
         3
100
AcDbLine
 10
46.8826789838
 20
16.1846214553
 30
0.0
 11
46.8826789838
 21
16.9846214553
 31
0.0
  0
LINE
  5
89
100
AcDbEntity
  8
LAYER3
 62
         3
100
AcDbLine
 10
43.6826789838
 20
16.1846214553
 30
0.0
 11
43.6826789838
 21
16.9846214553
 31
0.0
  0
LINE
  5
8A
100
AcDbEntity
  8
LAYER0
 62
         5
100
AcDbLine
 10
-33.7673210162
 20
68.7193995381
 30
0.0
 11
-36.0673210162
 21
68.7193995381
 31
0.0
  0
LINE
  5
8B
100
AcDbEntity
  8
LAYER3
 62
         3
100
AcDbLine
 10
-39.3673210162
 20
68.7193995381
 30
0.0
 11
-36.0673210162
 21
68.7193995381
 31
0.0
  0
LINE
  5
8C
100
AcDbEntity
  8
LAYER3
 62
         3
100
AcDbLine
 10
-39.3673210162
 20
65.7193995381
 30
0.0
 11
-36.0673210162
 21
65.7193995381
 31
0.0
  0
LINE
  5
8D
100
AcDbEntity
  8
LAYER3
 62
         4
100
AcDbLine
 10
-39.3673210162
 20
68.4693995381
 30
0.0
 11
-36.0673210162
 21
68.4693995381
 31
0.0
  0
LINE
  5
8E
100
AcDbEntity
  8
LAYER3
 62
         4
100
AcDbLine
 10
-39.3673210162
 20
65.9693995381
 30
0.0
 11
-36.0673210162
 21
65.9693995381
 31
0.0
  0
LINE
  5
8F
100
AcDbEntity
  8
LAYER3
 62
         3
100
AcDbLine
 10
-41.3673210162
 20
67.2193995381
 30
0.0
 11
-40.3673210162
 21
67.2193995381
 31
0.0
  0
ARC
  5
90
100
AcDbEntity
  8
LAYER3
 62
         3
100
AcDbCircle
 10
-34.3673210162
 20
67.2193995381
 30
0.0
 40
7.0
210
0.0
220
0.0
230
1.0
100
AcDbArc
 50
162.0000027634
 51
197.9999972366
  0
ARC
  5
91
100
AcDbEntity
  8
LAYER3
 62
         3
100
AcDbCircle
 10
-40.3282336407
 20
69.1973820624
 30
0.0
 40
0.7206691715
210
0.0
220
0.0
230
1.0
100
AcDbArc
 50
93.0000015864
 51
165.114090295
  0
ARC
  5
92
100
AcDbEntity
  8
LAYER3
 62
         3
100
AcDbCircle
 10
-40.3282336407
 20
65.2414170138
 30
0.0
 40
0.7206691715
210
0.0
220
0.0
230
1.0
100
AcDbArc
 50
194.885909705
 51
266.9999984136
  0
LINE
  5
93
100
AcDbEntity
  8
LAYER3
 62
         3
100
AcDbLine
 10
-39.3673210162
 20
69.9693995381
 30
0.0
 11
-40.3659505509
 21
69.9170635819
 31
0.0
  0
LINE
  5
94
100
AcDbEntity
  8
LAYER3
 62
         3
100
AcDbLine
 10
-39.3673210162
 20
64.4693995381
 30
0.0
 11
-40.3659505509
 21
64.5217354943
 31
0.0
  0
LINE
  5
95
100
AcDbEntity
  8
LAYER3
 62
         3
100
AcDbLine
 10
-39.3673210162
 20
64.4693995381
 30
0.0
 11
-39.3673210162
 21
69.9693995381
 31
0.0
  0
LINE
  5
96
100
AcDbEntity
  8
LAYER3
 62
         4
100
AcDbLine
 10
-33.7673210162
 20
15.3346214553
 30
0.0
 11
-31.3673210162
 21
15.3346214553
 31
0.0
  0
LINE
  5
97
100
AcDbEntity
  8
LAYER3
 62
         4
100
AcDbLine
 10
-33.7673210162
 20
17.8346214553
 30
0.0
 11
-31.3673210162
 21
17.8346214553
 31
0.0
  0
LINE
  5
98
100
AcDbEntity
  8
LAYER3
 62
         3
100
AcDbLine
 10
-33.7673210162
 20
15.0846214553
 30
0.0
 11
-31.3673210162
 21
15.0846214553
 31
0.0
  0
LINE
  5
99
100
AcDbEntity
  8
LAYER3
 62
         3
100
AcDbLine
 10
-33.7673210162
 20
18.0846214553
 30
0.0
 11
-31.3673210162
 21
18.0846214553
 31
0.0
  0
LINE
  5
9A
100
AcDbEntity
  8
LAYER3
 62
         3
100
AcDbLine
 10
-31.3673210162
 20
18.0846214553
 30
0.0
 11
-31.3673210162
 21
15.0846214553
 31
0.0
  0
LINE
  5
9B
100
AcDbEntity
  8
LAYER3
 62
         4
100
AcDbLine
 10
-36.7673210162
 20
20.8846214553
 30
0.0
 11
-54.6096914607
 21
20.8846214553
 31
0.0
  0
MTEXT
  5
9C
100
AcDbEntity
  8
LAYER3
100
AcDbMText
 10
-15.4873210162
 20
41.9326242378
 30
0.0
 40
1.7178947091
 41
2.0517168453
 71
         1
 72
         1
  1
\W0.8;45
  0
LINE
  5
9D
100
AcDbEntity
  8
LAYER3
 62
         4
100
AcDbLine
 10
-36.0673210162
 20
38.702497232
 30
0.0
 11
-33.132878214
 21
39.3262323045
 31
0.0
  0
LINE
  5
9E
100
AcDbEntity
  8
LAYER3
 62
         4
100
AcDbLine
 10
-36.0673210162
 20
38.702497232
 30
0.0
 11
-33.132878214
 21
38.0787621596
 31
0.0
  0
LINE
  5
9F
100
AcDbEntity
  8
LAYER3
 62
         4
100
AcDbLine
 10
-36.0673210162
 20
21.5846214553
 30
0.0
 11
-36.0673210162
 21
39.702497232
 31
0.0
  0
LINE
  5
A0
100
AcDbEntity
  8
LAYER3
 62
         4
100
AcDbLine
 10
-53.6096914607
 20
20.8846214553
 30
0.0
 11
-52.9859563883
 21
17.9501786531
 31
0.0
  0
LINE
  5
A1
100
AcDbEntity
  8
LAYER3
 62
         4
100
AcDbLine
 10
-53.6096914607
 20
20.8846214553
 30
0.0
 11
-54.2334265332
 21
17.9501786531
 31
0.0
  0
MTEXT
  5
A2
100
AcDbEntity
  8
LAYER0
100
AcDbMText
 10
14.9392602544
 20
-132.8866032766
 30
0.0
 40
2.4737683892
 41
41.3626117364
 71
         1
 72
         1
  1
\W0.8;40仕切レール用壁面ブラケット
  0
ARC
  5
A3
100
AcDbEntity
  8
LAYER0
 62
         3
100
AcDbCircle
 10
-35.7673210162
 20
20.5846214553
 30
0.0
 40
0.3
210
0.0
220
0.0
230
1.0
100
AcDbArc
 50
90.0000015352
 51
180.0000030705
  0
ARC
  5
A4
100
AcDbEntity
  8
LAYER0
 62
         3
100
AcDbCircle
 10
-35.7673210162
 20
63.0193995381
 30
0.0
 40
0.3
210
0.0
220
0.0
230
1.0
100
AcDbArc
 50
180.0000030705
 51
269.9999984648
  0
ARC
  5
A5
100
AcDbEntity
  8
LAYER0
 62
         3
100
AcDbCircle
 10
-33.7673210162
 20
84.7193995381
 30
0.0
 40
2.3
210
0.0
220
0.0
230
1.0
100
AcDbArc
 50
90.0000015352
 51
180.0000030705
  0
ARC
  5
A6
100
AcDbEntity
  8
LAYER0
 62
         3
100
AcDbCircle
 10
-25.7673210162
 20
81.1193995381
 30
0.0
 40
2.0
210
0.0
220
-0.0
230
1.0
100
AcDbArc
 50
0.0
 51
90.0000015352
  0
LINE
  5
A7
100
AcDbEntity
  8
LAYER0
 62
         3
100
AcDbLine
 10
-13.5673210162
 20
87.0193995381
 30
0.0
 11
-33.7673210162
 21
87.0193995381
 31
0.0
  0
LINE
  5
A8
100
AcDbEntity
  8
LAYER0
 62
         3
100
AcDbLine
 10
-36.0673210162
 20
63.0193995381
 30
0.0
 11
-36.0673210162
 21
84.7193995381
 31
0.0
  0
LINE
  5
A9
100
AcDbEntity
  8
LAYER0
 62
         5
100
AcDbLine
 10
-36.0673210162
 20
15.0846214553
 30
0.0
 11
-33.7673210162
 21
15.0846214553
 31
0.0
  0
LINE
  5
AA
100
AcDbEntity
  8
LAYER0
 62
         5
100
AcDbLine
 10
-33.7673210162
 20
18.0846214553
 30
0.0
 11
-36.0673210162
 21
18.0846214553
 31
0.0
  0
LINE
  5
AB
100
AcDbEntity
  8
LAYER3
 62
         3
100
AcDbLine
 10
-39.3673210162
 20
18.0846214553
 30
0.0
 11
-36.0673210162
 21
18.0846214553
 31
0.0
  0
LINE
  5
AC
100
AcDbEntity
  8
LAYER3
 62
         3
100
AcDbLine
 10
-39.3673210162
 20
15.0846214553
 30
0.0
 11
-36.0673210162
 21
15.0846214553
 31
0.0
  0
LINE
  5
AD
100
AcDbEntity
  8
LAYER3
 62
         4
100
AcDbLine
 10
-39.3673210162
 20
17.8346214553
 30
0.0
 11
-36.0673210162
 21
17.8346214553
 31
0.0
  0
LINE
  5
AE
100
AcDbEntity
  8
LAYER3
 62
         4
100
AcDbLine
 10
-39.3673210162
 20
15.3346214553
 30
0.0
 11
-36.0673210162
 21
15.3346214553
 31
0.0
  0
LINE
  5
AF
100
AcDbEntity
  8
LAYER3
 62
         3
100
AcDbLine
 10
-41.3673210162
 20
16.5846214553
 30
0.0
 11
-40.3673210162
 21
16.5846214553
 31
0.0
  0
ARC
  5
B0
100
AcDbEntity
  8
LAYER3
 62
         3
100
AcDbCircle
 10
-34.3673210162
 20
16.5846214553
 30
0.0
 40
7.0
210
0.0
220
0.0
230
1.0
100
AcDbArc
 50
162.0000027634
 51
197.9999972366
  0
ARC
  5
B1
100
AcDbEntity
  8
LAYER3
 62
         3
100
AcDbCircle
 10
-40.3282336407
 20
18.5626039795
 30
0.0
 40
0.7206691715
210
0.0
220
0.0
230
1.0
100
AcDbArc
 50
93.0000015864
 51
165.114090295
  0
ARC
  5
B2
100
AcDbEntity
  8
LAYER3
 62
         3
100
AcDbCircle
 10
-40.3282336407
 20
14.606638931
 30
0.0
 40
0.7206691715
210
0.0
220
0.0
230
1.0
100
AcDbArc
 50
194.885909705
 51
266.9999984136
  0
LINE
  5
B3
100
AcDbEntity
  8
LAYER3
 62
         3
100
AcDbLine
 10
-39.3673210162
 20
19.3346214553
 30
0.0
 11
-40.3659505509
 21
19.282285499
 31
0.0
  0
LINE
  5
B4
100
AcDbEntity
  8
LAYER3
 62
         3
100
AcDbLine
 10
-39.3673210162
 20
13.8346214553
 30
0.0
 11
-40.3659505509
 21
13.8869574115
 31
0.0
  0
LINE
  5
B5
100
AcDbEntity
  8
LAYER3
 62
         3
100
AcDbLine
 10
-39.3673210162
 20
13.8346214553
 30
0.0
 11
-39.3673210162
 21
19.3346214553
 31
0.0
  0
LINE
  5
B6
100
AcDbEntity
  8
LAYER3
 62
         4
100
AcDbLine
 10
-33.7673210162
 20
65.9693995381
 30
0.0
 11
-31.3673210162
 21
65.9693995381
 31
0.0
  0
LINE
  5
B7
100
AcDbEntity
  8
LAYER3
 62
         4
100
AcDbLine
 10
-33.7673210162
 20
68.4693995381
 30
0.0
 11
-31.3673210162
 21
68.4693995381
 31
0.0
  0
LINE
  5
B8
100
AcDbEntity
  8
LAYER3
 62
         3
100
AcDbLine
 10
-33.7673210162
 20
65.7193995381
 30
0.0
 11
-31.3673210162
 21
65.7193995381
 31
0.0
  0
LINE
  5
B9
100
AcDbEntity
  8
LAYER3
 62
         3
100
AcDbLine
 10
-33.7673210162
 20
68.7193995381
 30
0.0
 11
-31.3673210162
 21
68.7193995381
 31
0.0
  0
LINE
  5
BA
100
AcDbEntity
  8
LAYER3
 62
         3
100
AcDbLine
 10
-31.3673210162
 20
68.7193995381
 30
0.0
 11
-31.3673210162
 21
65.7193995381
 31
0.0
  0
LINE
  5
BB
100
AcDbEntity
  8
LAYER0
 62
         5
100
AcDbLine
 10
-36.0673210162
 20
65.7193995381
 30
0.0
 11
-33.7673210162
 21
65.7193995381
 31
0.0
  0
MTEXT
  5
BC
100
AcDbEntity
  8
LAYER0
100
AcDbMText
 10
-10.6564309049
 20
-126.7970201517
 30
0.0
 40
2.1473683357
 41
7.6538653946
 71
         1
 72
         1
  1
\W0.8;品　番
  0
LINE
  5
BD
100
AcDbEntity
  8
LAYER0
 62
         3
100
AcDbLine
 10
-40.0
 20
-138.5
 30
0.0
 11
-40.0
 21
-125.5
 31
0.0
  0
ARC
  5
BE
100
AcDbEntity
  8
LAYER0
 62
         3
100
AcDbCircle
 10
-3.0673210162
 20
-11.1153785447
 30
0.0
 40
0.3
210
0.0
220
0.0
230
1.0
100
AcDbArc
 50
180.0000030705
 51
269.9999984648
  0
LINE
  5
BF
100
AcDbEntity
  8
LAYER0
 62
         3
100
AcDbLine
 10
-3.3673210162
 20
-11.1153785447
 30
0.0
 11
-3.3673210162
 21
-9.1153785447
 31
0.0
  0
LINE
  5
C0
100
AcDbEntity
  8
LAYER0
 62
         3
100
AcDbLine
 10
-29.7673210162
 20
-31.4153785447
 30
0.0
 11
-13.5673210162
 21
-31.4153785447
 31
0.0
  0
ARC
  5
C1
100
AcDbEntity
  8
LAYER0
 62
         3
100
AcDbCircle
 10
-33.7673210162
 20
-9.1153785447
 30
0.0
 40
2.3
210
0.0
220
0.0
230
1.0
100
AcDbArc
 50
180.0000030705
 51
269.9999984648
  0
ARC
  5
C2
100
AcDbEntity
  8
LAYER0
 62
         3
100
AcDbCircle
 10
-24.0673210162
 20
-11.1153785447
 30
0.0
 40
0.3
210
-0.0
220
0.0
230
1.0
100
AcDbArc
 50
269.9999984648
 51
0.0
  0
CIRCLE
  5
C3
100
AcDbEntity
  8
LAYER0
 62
         3
100
AcDbCircle
 10
-25.5673210162
 20
-23.4153785447
 30
0.0
 40
2.25
210
0.0
220
0.0
230
1.0
  0
LINE
  5
C4
100
AcDbEntity
  8
LAYER0
 62
         3
100
AcDbLine
 10
-23.7673210162
 20
-11.1153785447
 30
0.0
 11
-23.7673210162
 21
-9.1153785447
 31
0.0
  0
ARC
  5
C5
100
AcDbEntity
  8
LAYER0
 62
         3
100
AcDbCircle
 10
-29.7673210162
 20
-27.4153785447
 30
0.0
 40
4.0
210
0.0
220
0.0
230
1.0
100
AcDbArc
 50
180.0000030705
 51
269.9999984648
  0
LINE
  5
C6
100
AcDbEntity
  8
LAYER0
 62
         3
100
AcDbLine
 10
-33.7673210162
 20
-11.4153785447
 30
0.0
 11
-33.7673210162
 21
-27.4153785447
 31
0.0
  0
LINE
  5
C7
100
AcDbEntity
  8
LAYER0
 62
         3
100
AcDbLine
 10
-24.0673210162
 20
-11.4153785447
 30
0.0
 11
-33.7673210162
 21
-11.4153785447
 31
0.0
  0
LINE
  5
C8
100
AcDbEntity
  8
LAYER0
 62
         3
100
AcDbLine
 10
-23.7673210162
 20
-9.1153785447
 30
0.0
 11
-33.7673210162
 21
-9.1153785447
 31
0.0
  0
MTEXT
  5
C9
100
AcDbEntity
  8
LAYER3
100
AcDbMText
 10
-56.8398184664
 20
-9.1053786045
 30
0.0
 40
1.7178947091
 41
4.1034336906
 71
         1
 72
         1
  1
\W0.8;52.3
 11
-0.0000000268
 21
1.0
 31
0.0
  0
LINE
  5
CA
100
AcDbEntity
  8
LAYER3
 62
         4
100
AcDbLine
 10
-53.6096914607
 20
-31.4153785447
 30
0.0
 11
-54.2334265332
 21
-28.4809357425
 31
0.0
  0
LINE
  5
CB
100
AcDbEntity
  8
LAYER3
 62
         4
100
AcDbLine
 10
-53.6096914607
 20
-31.4153785447
 30
0.0
 11
-52.9859563883
 21
-28.4809357425
 31
0.0
  0
LINE
  5
CC
100
AcDbEntity
  8
LAYER3
 62
         4
100
AcDbLine
 10
-30.7673210162
 20
-31.4153785447
 30
0.0
 11
-54.6096914607
 21
-31.4153785447
 31
0.0
  0
CIRCLE
  5
CD
100
AcDbEntity
  8
LAYER0
 62
         3
100
AcDbCircle
 10
-13.5673210162
 20
6.8846214553
 30
0.0
 40
2.25
210
0.0
220
0.0
230
1.0
  0
LINE
  5
CE
100
AcDbEntity
  8
LAYER0
 62
         3
100
AcDbLine
 10
-3.3673210162
 20
64.7193995381
 30
0.0
 11
-3.3673210162
 21
81.1193995381
 31
0.0
  0
LINE
  5
CF
100
AcDbEntity
  8
LAYER0
 62
         3
100
AcDbLine
 10
-25.7673210162
 20
83.1193995381
 30
0.0
 11
-33.7673210162
 21
83.1193995381
 31
0.0
  0
LINE
  5
D0
100
AcDbEntity
  8
LAYER0
 62
         3
100
AcDbLine
 10
-33.7673210162
 20
62.7193995381
 30
0.0
 11
-33.7673210162
 21
84.7193995381
 31
0.0
  0
ARC
  5
D1
100
AcDbEntity
  8
LAYER0
 62
         3
100
AcDbCircle
 10
-25.7673210162
 20
64.7193995381
 30
0.0
 40
2.0
210
-0.0
220
0.0
230
1.0
100
AcDbArc
 50
269.9999984648
 51
0.0
  0
LINE
  5
D2
100
AcDbEntity
  8
LAYER0
 62
         3
100
AcDbLine
 10
-23.7673210162
 20
64.7193995381
 30
0.0
 11
-23.7673210162
 21
81.1193995381
 31
0.0
  0
LINE
  5
D3
100
AcDbEntity
  8
LAYER0
 62
         3
100
AcDbLine
 10
-35.7673210162
 20
62.7193995381
 30
0.0
 11
-25.7673210162
 21
62.7193995381
 31
0.0
  0
LINE
  5
D4
100
AcDbEntity
  8
LAYER0
 62
         3
100
AcDbLine
 10
-33.7673210162
 20
84.7193995381
 30
0.0
 11
-13.5673210162
 21
84.7193995381
 31
0.0
  0
LINE
  5
D5
100
AcDbEntity
  8
LAYER0
 62
         3
100
AcDbLine
 10
95.0
 20
-125.5
 30
0.0
 11
-40.0
 21
-125.5
 31
0.0
  0
LINE
  5
D6
100
AcDbEntity
  8
LAYER0
 62
         3
100
AcDbLine
 10
95.0
 20
-130.5
 30
0.0
 11
-40.0
 21
-130.5
 31
0.0
  0
LINE
  5
D7
100
AcDbEntity
  8
LAYER0
 62
         3
100
AcDbLine
 10
95.0
 20
-138.5
 30
0.0
 11
-40.0
 21
-138.5
 31
0.0
  0
CIRCLE
  5
D8
100
AcDbEntity
  8
LAYER0
 62
         3
100
AcDbCircle
 10
-1.5673210162
 20
-23.4153785447
 30
0.0
 40
2.25
210
0.0
220
0.0
230
1.0
  0
LINE
  5
D9
100
AcDbEntity
  8
LAYER0
 62
         3
100
AcDbLine
 10
2.6326789838
 20
-31.4153785447
 30
0.0
 11
-13.5673210162
 21
-31.4153785447
 31
0.0
  0
LINE
  5
DA
100
AcDbEntity
  8
LAYER0
 62
         3
100
AcDbLine
 10
-3.0673210162
 20
-11.4153785447
 30
0.0
 11
6.6326789838
 21
-11.4153785447
 31
0.0
  0
LINE
  5
DB
100
AcDbEntity
  8
LAYER0
 62
         3
100
AcDbLine
 10
8.6326789838
 20
20.8846214553
 30
0.0
 11
-35.7673210162
 21
20.8846214553
 31
0.0
  0
ARC
  5
DC
100
AcDbEntity
  8
LAYER0
 62
         3
100
AcDbCircle
 10
-1.3673210162
 20
64.7193995381
 30
0.0
 40
2.0
210
0.0
220
0.0
230
1.0
100
AcDbArc
 50
180.0000030705
 51
269.9999984648
  0
LINE
  5
DD
100
AcDbEntity
  8
LAYER0
 62
         3
100
AcDbLine
 10
-3.3673210162
 20
-9.1153785447
 30
0.0
 11
6.6326789838
 21
-9.1153785447
 31
0.0
  0
LINE
  5
DE
100
AcDbEntity
  8
LAYER0
 62
         3
100
AcDbLine
 10
8.6326789838
 20
62.7193995381
 30
0.0
 11
-1.3673210162
 21
62.7193995381
 31
0.0
  0
LINE
  5
DF
100
AcDbEntity
  8
LAYER0
 62
         3
100
AcDbLine
 10
6.6326789838
 20
84.7193995381
 30
0.0
 11
-13.5673210162
 21
84.7193995381
 31
0.0
  0
ARC
  5
E0
100
AcDbEntity
  8
LAYER0
 62
         3
100
AcDbCircle
 10
-1.3673210162
 20
81.1193995381
 30
0.0
 40
2.0
210
0.0
220
0.0
230
1.0
100
AcDbArc
 50
90.0000015352
 51
180.0000030705
  0
LINE
  5
E1
100
AcDbEntity
  8
LAYER0
 62
         3
100
AcDbLine
 10
-13.5673210162
 20
87.0193995381
 30
0.0
 11
6.6326789838
 21
87.0193995381
 31
0.0
  0
LINE
  5
E2
100
AcDbEntity
  8
LAYER0
 62
         3
100
AcDbLine
 10
-1.3673210162
 20
83.1193995381
 30
0.0
 11
6.6326789838
 21
83.1193995381
 31
0.0
  0
LINE
  5
E3
100
AcDbEntity
  8
LAYER3
 62
         4
100
AcDbLine
 10
-36.0673210162
 20
38.702497232
 30
0.0
 11
8.9326789838
 21
38.702497232
 31
0.0
  0
LINE
  5
E4
100
AcDbEntity
  8
LAYER0
 62
         3
100
AcDbLine
 10
-33.7673210162
 20
20.8846214553
 30
0.0
 11
-33.7673210162
 21
-9.1153785447
 31
0.0
  0
LINE
  5
E5
100
AcDbEntity
  8
LAYER0
 62
         3
100
AcDbLine
 10
-36.0673210162
 20
20.5846214553
 30
0.0
 11
-36.0673210162
 21
-9.1153785447
 31
0.0
  0
LINE
  5
E6
100
AcDbEntity
  8
LAYER3
 62
         4
100
AcDbLine
 10
-53.6096914607
 20
20.8846214553
 30
0.0
 11
-53.6096914607
 21
-31.4153785447
 31
0.0
  0
LINE
  5
E7
100
AcDbEntity
  8
LAYER0
 62
         3
100
AcDbLine
 10
6.6326789838
 20
20.8846214553
 30
0.0
 11
6.6326789838
 21
-9.1153785447
 31
0.0
  0
LINE
  5
E8
100
AcDbEntity
  8
LAYER0
 62
         3
100
AcDbLine
 10
8.9326789838
 20
20.5846214553
 30
0.0
 11
8.9326789838
 21
-9.1153785447
 31
0.0
  0
LINE
  5
E9
100
AcDbEntity
  8
LAYER0
 62
         3
100
AcDbLine
 10
65.0826789838
 20
20.5846214553
 30
0.0
 11
65.0826789838
 21
-31.1153785447
 31
0.0
  0
LINE
  5
EA
100
AcDbEntity
  8
LAYER0
 62
         3
100
AcDbLine
 10
40.7826789838
 20
-11.1153785447
 30
0.0
 11
40.7826789838
 21
18.8846214553
 31
0.0
  0
MTEXT
  5
EB
100
AcDbEntity
  8
LAYER0
100
AcDbMText
 10
-15.6501737419
 20
-132.5157576176
 30
0.0
 40
3.0922104359
 41
9.2327256828
 71
         1
 72
         1
  1
\W0.8;MR-14
  0
MTEXT
  5
EC
100
AcDbEntity
  8
LAYER0
100
AcDbMText
 10
-35.7051459079
 20
-126.6461242782
 30
0.0
 40
2.1473683357
 41
6.4116149902
 71
         1
 72
         1
  1
\W0.8;Ｎｏ.
  0
LINE
  5
ED
100
AcDbEntity
  8
LAYER0
 62
         3
100
AcDbLine
 10
-25.0
 20
-125.5
 30
0.0
 11
-25.0
 21
-138.5
 31
0.0
  0
ENDSEC
  0
SECTION
  2
OBJECTS
  0
DICTIONARY
  5
19
100
AcDbDictionary
280
         0
281
         1
  3
ACAD_GROUP
350
1A
  3
ACAD_MLINESTYLE
350
1B
  3
ACAD_LAYOUT
350
1E
  3
ACAD_PLOTSETTINGS
350
22
  3
ACAD_PLOTSTYLENAME
350
1F
  3
ACAD_WIPEOUT_VARS
350
23
  0
DICTIONARY
  5
1A
102
{ACAD_REACTORS
330
19
102
}
100
AcDbDictionary
280
         0
281
         1
  0
DICTIONARY
  5
1B
102
{ACAD_REACTORS
330
19
102
}
100
AcDbDictionary
280
         0
281
         1
  3
Standard
350
1C
  0
MLINESTYLE
  5
1C
102
{ACAD_REACTORS
330
1B
102
}
100
AcDbMlineStyle
  2
Standard
 70
         0
  3

 62
         0
 51
90.0
 52
90.0
 71
         2
 49
0.5
 62
       256
  6
BYLAYER
 49
-0.5
 62
       256
  6
BYLAYER
  0
ACDBDICTIONARYWDFLT
  5
1F
102
{ACAD_REACTORS
330
19
102
}
100
AcDbDictionary
281
         1
  3
Normal
350
1D
100
AcDbDictionaryWithDefault
340
1D
  0
ACDBPLACEHOLDER
  5
1D
102
{ACAD_REACTORS
330
1F
102
}
  0
LAYOUT
  5
20
102
{ACAD_REACTORS
330
1E
102
}
100
AcDbPlotSettings
  1

  2

  4

  6

 40
0.0
 41
0.0
 42
0.0
 43
0.0
 44
0.0
 45
0.0
 46
0.0
 47
0.0
 48
0.0
 49
0.0
140
0.0
141
0.0
142
1.0
143
1.0
 70
         0
 72
         0
 73
         0
 74
         0
  7

 75
         0
147
1.0
148
0.0
149
0.0
100
AcDbLayout
  1
Model
 70
         0
 71
         0
 10
0.0
 20
0.0
 11
0.0
 21
0.0
 12
0.0
 22
0.0
 32
0.0
 14
0.0
 24
0.0
 34
0.0
 15
0.0
 25
0.0
 35
0.0
146
0.0
 13
0.0
 23
0.0
 33
0.0
 16
0.0
 26
0.0
 36
0.0
 17
0.0
 27
0.0
 37
0.0
 76
         0
330
A
331
0
345
0
346
0
  0
LAYOUT
  5
21
102
{ACAD_REACTORS
330
1E
102
}
100
AcDbPlotSettings
  1

  2

  4

  6

 40
0.0
 41
0.0
 42
0.0
 43
0.0
 44
0.0
 45
0.0
 46
0.0
 47
0.0
 48
0.0
 49
0.0
140
0.0
141
0.0
142
1.0
143
1.0
 70
         0
 72
         0
 73
         0
 74
         0
  7

 75
         0
147
1.0
148
0.0
149
0.0
100
AcDbLayout
  1
Layout1
 70
         0
 71
         0
 10
0.0
 20
0.0
 11
0.0
 21
0.0
 12
0.0
 22
0.0
 32
0.0
 14
0.0
 24
0.0
 34
0.0
 15
0.0
 25
0.0
 35
0.0
146
0.0
 13
0.0
 23
0.0
 33
0.0
 16
0.0
 26
0.0
 36
0.0
 17
0.0
 27
0.0
 37
0.0
 76
         0
330
B
331
0
345
0
346
0
  0
DICTIONARY
  5
1E
102
{ACAD_REACTORS
330
19
102
}
100
AcDbDictionary
280
         0
281
         1
  3
Layout1
350
21
  3
Model
350
20
  0
DICTIONARY
  5
22
102
{ACAD_REACTORS
330
19
102
}
100
AcDbDictionary
280
         0
281
         1
  0
WIPEOUTVARIABLES
  5
23
100
AcDbWipeoutVariables
 70
         1
  0
ENDSEC
  0
EOF
