  0
SECTION
  2
HEADER
  9
$ACADVER
  1
AC1009
  9
$INSBASE
 10
0
 20
0
 30
0
  9
$EXTMIN
 10
0
 20
0
  9
$EXTMAX
 10
210.25
 20
148.5
  9
$LIMMIN
 10
0
 20
0
  9
$LIMMAX
 10
210.25
 20
148.5
  9
$LTSCALE
 40
0.25
  0
ENDSEC
  0
SECTION
  2
TABLES
  0
TABLE
  2
LTYPE
 70
     9
  0
LTYPE
  2
CONTINUOUS
 70
    64
  3
実線
 72
    65
 73
     0
 40
0.0
  0
LTYPE
  2
DASHED1
 70
    64
  3
--  --  --  --  --  --  --  --  
 72
    65
 73
     2
 40
2.5
 49
1.25
 49
-1.25
  0
LTYPE
  2
DASHED2
 70
    64
  3
----    ----    ----    ----    
 72
    65
 73
     2
 40
5.0
 49
2.5
 49
-2.5
  0
LTYPE
  2
DASHED3
 70
    64
  3
------  ------  ------  ------  
 72
    65
 73
     2
 40
5.0
 49
3.75
 49
-1.25
  0
LTYPE
  2
CENTER1
 70
    64
  3
----- - ----- - ----- - ----- - 
 72
    65
 73
     4
 40
10.0
 49
6.25
 49
-1.25
 49
1.25
 49
-1.25
  0
LTYPE
  2
CENTER2
 70
    64
  3
----------  --  ----------  --  
 72
    65
 73
     4
 40
20.0
 49
12.5
 49
-2.5
 49
2.5
 49
-2.5
  0
LTYPE
  2
PHANTOM1
 70
    64
  3
--- - - --- - - --- - - --- - - 
 72
    65
 73
     6
 40
10.0
 49
3.25
 49
-1.25
 49
1.25
 49
-1.25
 49
1.25
 49
-1.25
  0
LTYPE
  2
PHANTOM2
 70
    64
  3
--------  -  -  --------  -  -  
 72
    65
 73
     6
 40
20.0
 49
10.0
 49
-2.5
 49
1.25
 49
-2.5
 49
1.25
 49
-2.5
  0
LTYPE
  2
DOT
 70
    64
  3
-   -   -   -   -   -   -   -   
 72
    65
 73
     2
 40
2.5
 49
0.625
 49
-1.875
  0
LTYPE
  2
DUMMY
 70
    64
  3
ダミー
 72
    65
 73
     0
 40
0.0
  0
LTYPE
  2
RAND1
 70
    64
  3
ランダム線1
 72
    65
 73
     4
 40
10.0
 49
1.0
 49
-2.0
 49
3.0
 49
-4.0
  0
LTYPE
  2
RAND2
 70
    64
  3
ランダム線2
 72
    65
 73
     4
 40
14.0
 49
2.0
 49
-3.0
 49
4.0
 49
-5.0
  0
LTYPE
  2
RAND3
 70
    64
  3
ランダム線3
 72
    65
 73
     4
 40
18.0
 49
3.0
 49
-4.0
 49
5.0
 49
-6.0
  0
LTYPE
  2
RAND4
 70
    64
  3
ランダム線4
 72
    65
 73
     4
 40
22.0
 49
4.0
 49
-5.0
 49
6.0
 49
-7.0
  0
LTYPE
  2
RAND5
 70
    64
  3
ランダム線5
 72
    65
 73
     4
 40
26.0
 49
5.0
 49
-6.0
 49
7.0
 49
-8.0
  0
LTYPE
  2
LONG1
 70
    64
  3
----------  --  ----------  --  
 72
    65
 73
     4
 40
40.0
 49
32.5
 49
-2.5
 49
2.5
 49
-2.5
  0
LTYPE
  2
LONG2
 70
    64
  3
--------  -  -  --------  -  -  
 72
    65
 73
     6
 40
40.0
 49
30.0
 49
-2.5
 49
1.25
 49
-2.5
 49
1.25
 49
-2.5
  0
LTYPE
  2
LONG3
 70
    64
  3
+++++++++++++++..+++++++++++++++
 72
    65
 73
     2
 40
40.0
 49
37.5
 49
-2.5
  0
LTYPE
  2
LONG4
 70
    64
  3
+++++++++++++++..+++++++++++++++
 72
    65
 73
     2
 40
80.0
 49
75.0
 49
-5.0
  0
LTYPE
  2
LONG5
 70
    64
  3
----------  --  ----------  --  
 72
    65
 73
     4
 40
60.0
 49
37.5
 49
-7.5
 49
7.5
 49
-7.5
  0
LTYPE
  2
dashed
 70
   64
  3
-------   -------------   ------
 72
   65
 73
    2
 40
7.5
 49
6
 49
-1.5
  0
LTYPE
  2
dashed_spaced
 70
   64
  3
----        --------        ----
 72
   65
 73
    2
 40
12
 49
6
 49
-6
  0
LTYPE
  2
long_dashed_dotted
 70
   64
  3
------------- --- --------------
 72
   65
 73
    4
 40
15.25
 49
12
 49
-1.5
 49
0.25
 49
-1.5
  0
LTYPE
  2
long_dashed_double-dotted
 70
   64
  3
----------- --- --- ------------
 72
   65
 73
    6
 40
17
 49
12
 49
-1.5
 49
0.25
 49
-1.5
 49
0.25
 49
-1.5
  0
LTYPE
  2
long_dashed_triplicate-dotted
 70
   64
  3
--------- --- --- --- ----------
 72
   65
 73
    8
 40
18.75
 49
12
 49
-1.5
 49
0.25
 49
-1.5
 49
0.25
 49
-1.5
 49
0.25
 49
-1.5
  0
LTYPE
  2
dotted
 70
   64
  3
   -       -       -       -    
 72
   65
 73
    2
 40
1.75
 49
0.25
 49
-1.5
  0
LTYPE
  2
chain
 70
   64
  3
-------------- -- --------------
 72
   65
 73
    4
 40
18.5
 49
12
 49
-1.5
 49
3.5
 49
-1.5
  0
LTYPE
  2
chain_double_dash
 70
   64
  3
------------ -- -- -------------
 72
   65
 73
    6
 40
23.5
 49
12
 49
-1.5
 49
3.5
 49
-1.5
 49
3.5
 49
-1.5
  0
LTYPE
  2
dashed_dotted
 70
   64
  3
-----------     -     ----------
 72
   65
 73
    4
 40
9.25
 49
6
 49
-1.5
 49
0.25
 49
-1.5
  0
LTYPE
  2
double-dashed_dotted
 70
   64
  3
------   -----------   -   -----
 72
   65
 73
    6
 40
16.75
 49
6
 49
-1.5
 49
6
 49
-1.5
 49
0.25
 49
-1.5
  0
LTYPE
  2
dashed_double-dotted
 70
   64
  3
---------    -    -    ---------
 72
   65
 73
    6
 40
11
 49
6
 49
-1.5
 49
0.25
 49
-1.5
 49
0.25
 49
-1.5
  0
LTYPE
  2
double-dashed_double-dotted
 70
   64
  3
-----   ---------   -   -   ----
 72
   65
 73
    8
 40
18.5
 49
6
 49
-1.5
 49
6
 49
-1.5
 49
0.25
 49
-1.5
 49
0.25
 49
-1.5
  0
LTYPE
  2
dashed_triplicate-dotted
 70
   64
  3
-------    -    -    -    ------
 72
   65
 73
    8
 40
12.75
 49
6
 49
-1.5
 49
0.25
 49
-1.5
 49
0.25
 49
-1.5
 49
0.25
 49
-1.5
  0
LTYPE
  2
double-dashed_triplicate-dotted
 70
   64
  3
-----  ---------  -  -  -  -----
 72
   65
 73
   10
 40
20.25
 49
6
 49
-1.5
 49
6
 49
-1.5
 49
0.25
 49
-1.5
 49
0.25
 49
-1.5
 49
0.25
 49
-1.5
  0
LTYPE
  2
undefined
 70
   64
  3
--------------------------------
 72
   65
 73
    0
 40
0
  0
LTYPE
  2
HIDDEN
 70
   64
  3
------     -----------     -----
 72
   65
 73
    2
 40
1.905
 49
1.27
 49
-0.635
  0
LTYPE
  2
PHANTOM
 70
   64
  3
---------   ---   ---   --------
 72
   65
 73
    6
 40
12.699999999999996
 49
6.349999999999997
 49
-1.27
 49
1.27
 49
-1.27
 49
1.27
 49
-1.27
  0
LTYPE
  2
DOT2
 70
   64
  3
-               -               
 72
   65
 73
    2
 40
0.645
 49
0.01
 49
-0.635
  0
LTYPE
  2
PHANTOM2_20
 70
   64
  3
---------   ---   ---   --------
 72
   65
 73
    6
 40
31.749999999999986
 49
15.875
 49
-3.174999999999998
 49
3.174999999999998
 49
-3.174999999999998
 49
3.174999999999998
 49
-3.174999999999998
  0
LTYPE
  2
Amconstr
 70
   64
  3
-------- --------------- -------
 72
   65
 73
    2
 40
9999.0100000000002
 49
9999
 49
-0.01
  0
LTYPE
  2
AM_ISO08W050x2
 70
   64
  3
-----------   -----   ----------
 72
   65
 73
    4
 40
9
 49
6
 49
-0.75
 49
1.5
 49
-0.75
  0
LTYPE
  2
AM_ISO02W050x2
 70
   64
  3
-------   -------------   ------
 72
   65
 73
    2
 40
3.75
 49
3
 49
-0.75
  0
LTYPE
  2
Amzigzag
 70
   64
  3
-               -               
 72
   65
 73
    2
 40
11.0001
 49
0.0001
 49
-11
  0
LTYPE
  2
ACISOWELD
 70
   64
  3
------     -----------     -----
 72
   65
 73
    2
 40
3
 49
2
 49
-1
  0
LTYPE
  2
ACISOTGB
 70
   64
  3
------    ----    ----    ------
 72
   65
 73
    6
 40
9
 49
4
 49
-1
 49
1
 49
-1
 49
1
 49
-1
  0
LTYPE
  2
_
 70
   64
  3
                                
 72
   65
 73
    0
 40
0
  0
LTYPE
  2
__28
 70
   64
  3
                                
 72
   65
 73
    0
 40
0
  0
LTYPE
  2
__29
 70
   64
  3
                                
 72
   65
 73
    0
 40
0
  0
LTYPE
  2
__30
 70
   64
  3
                                
 72
   65
 73
    0
 40
0
  0
LTYPE
  2
__31
 70
   64
  3
                                
 72
   65
 73
    0
 40
0
  0
LTYPE
  2
__32
 70
   64
  3
                                
 72
   65
 73
    0
 40
0
  0
ENDTAB
  0
TABLE
  2
STYLE
  5
3
100
AcDbSymbolTable
 70
     1
  0
STYLE
  5
10
100
AcDbSymbolTableRecord
100
AcDbTextStyleTableRecord
  2
STANDARD
 70
     0
 40
0.0
 41
1.0
 50
0.0
 71
     0
 42
0.2
  3
txt
  4
bigfont.shx
  0
STYLE
  5
26
100
AcDbSymbolTableRecord
100
AcDbTextStyleTableRecord
  2
TATEGAKI
 70
    68
 40
0.0
 41
1.0
 50
0.0
 71
     0
 42
1.0
  3
txt
  4
bigfont.shx
  0
ENDTAB
  0
TABLE
  2
LAYER
 70
    2
  0
LAYER
  2
_0-0_0
 70
   64
 62
    7
  6
CONTINUOUS
  0
LAYER
  2
ADD_LINE
 70
   64
 62
    7
  6
CONTINUOUS
  0
ENDTAB
  0
ENDSEC
  0
SECTION
  2
BLOCKS
  0
BLOCK
  2
-000-A
 70
   64
 10
0
 20
0
 30
0
  0
LINE
  8
_0-0_0
  6
CONTINUOUS
 62
    3
 10
-19.699999999993306
 20
-4.9394271747226659
 11
-19.999999999993317
 21
-4.639427174722683
  0
LINE
  8
_0-0_0
  6
CONTINUOUS
 62
    3
 10
-19.999999999993317
 20
16.560572825277337
 11
-19.999999999993317
 21
14.960572825277341
  0
LINE
  8
_0-0_0
  6
CONTINUOUS
 62
    3
 10
19.500000000006683
 20
17.060572825277337
 11
14.000000000006683
 21
17.060572825277337
  0
ARC
  8
_0-0_0
  6
CONTINUOUS
 62
    3
 10
16.500000000006683
 20
13.960572825277341
 40
0.5
 50
90
 51
180
  0
ARC
  8
_0-0_0
  6
CONTINUOUS
 62
    3
 10
16.500000000006683
 20
11.349247959877333
 40
0.5000000000000448
 50
180
 51
239.99999999999997
  0
ARC
  8
_0-0_0
  6
CONTINUOUS
 62
    3
 10
-15.59999999999334
 20
-18.371634638822666
 40
2.0000000000000191
 50
180
 51
260.79310377870002
  0
ARC
  8
_0-0_0
  6
CONTINUOUS
 62
    3
 10
-15.999999999993317
 20
-20.839427174722669
 40
0.5
 50
270
 51
80.793103778600013
  0
ARC
  8
_0-0_0
  6
CONTINUOUS
 62
    3
 10
-15.999999999993317
 20
-22.939427174722663
 40
1.6000000000000689
 50
90
 51
346.22585300200001
  0
ARC
  8
_0-0_0
  6
CONTINUOUS
 62
    3
 10
-13.960392194593307
 20
-23.439427174722663
 40
0.4999999999999985
 50
42.843643043599997
 51
166.22585300200001
  0
ARC
  8
_0-0_0
  6
CONTINUOUS
 62
    3
 10
-12.12736191659334
 20
-21.739427174722675
 40
2
 50
222.8436430436
 51
270
  0
ARC
  8
_0-0_0
  6
CONTINUOUS
 62
    3
 10
-5.2499999999933182
 20
-24.239427174722675
 40
0.5
 50
0
 51
90
  0
LINE
  8
_0-0_0
  6
CONTINUOUS
 62
    3
 10
19.700000000006671
 20
-4.9394271747226659
 11
20.000000000006683
 21
-4.639427174722683
  0
LINE
  8
_0-0_0
  6
CONTINUOUS
 62
    3
 10
20.000000000006683
 20
-5.2394271747226773
 11
19.700000000006671
 21
-4.9394271747226659
  0
LINE
  8
_0-0_0
  6
CONTINUOUS
 62
    3
 10
17.600000000006649
 20
6.2108305640773418
 11
17.600000000006649
 21
-18.371634638822666
  0
LINE
  8
_0-0_0
  6
CONTINUOUS
 62
    3
 10
20.000000000006683
 20
-25.939427174722663
 11
20.000000000006683
 21
-5.2394271747226773
  0
LINE
  8
_0-0_0
  6
CONTINUOUS
 62
    3
 10
19.500000000006683
 20
9.0398468831773346
 11
16.250000000006683
 21
10.916235257977336
  0
LINE
  8
_0-0_0
  6
CONTINUOUS
 62
    3
 10
12.115766743106779
 20
10.53185464967733
 11
16.600000000006649
 21
7.9428813716773323
  0
ARC
  8
_0-0_0
  6
CONTINUOUS
 62
    3
 10
12.500000000006569
 20
13.060572825277335
 40
1.6000000000000689
 50
266.33512089909999
 51
166.22585300199998
  0
ARC
  8
_0-0_0
  6
CONTINUOUS
 62
    3
 10
12.365766743106779
 20
10.964867351577327
 40
0.5000000000000023
 50
86.335120899100005
 51
240.00000000000003
  0
ARC
  8
_0-0_0
  6
CONTINUOUS
 62
    3
 10
10.460392194506685
 20
13.560572825277335
 40
0.5000000000000196
 50
201.1001960241
 51
346.22585300200001
  0
LINE
  8
_0-0_0
  6
CONTINUOUS
 62
    3
 10
0.3000000000066913
 20
14.660572825277329
 11
8.1280114366066734
 21
14.660572825277329
  0
ARC
  8
_0-0_0
  6
CONTINUOUS
 62
    3
 10
8.1280114366066734
 20
12.660572825277329
 40
2.0000000000000249
 50
21.100196024100001
 51
90
  0
LINE
  8
_0-0_0
  6
CONTINUOUS
 62
    3
 10
-8.128011436693356
 20
14.660572825277329
 11
-0.2999999999933313
 21
14.660572825277329
  0
LINE
  8
_0-0_0
  6
CONTINUOUS
 62
    3
 10
0.0000000000065663
 20
14.960572825277341
 11
0.3000000000066913
 21
14.660572825277329
  0
LINE
  8
_0-0_0
  6
CONTINUOUS
 62
    3
 10
-0.2999999999933313
 20
14.660572825277329
 11
0.0000000000065663
 21
14.960572825277341
  0
ARC
  8
_0-0_0
  6
CONTINUOUS
 62
    3
 10
-8.128011436693356
 20
12.660572825277329
 40
2.0000000000000249
 50
90
 51
158.8998039759
  0
ARC
  8
_0-0_0
  6
CONTINUOUS
 62
    3
 10
-10.460392194593311
 20
13.560572825277335
 40
0.5000000000000196
 50
193.77414699800002
 51
338.8998039759
  0
ARC
  8
_0-0_0
  6
CONTINUOUS
 62
    3
 10
-12.499999999993431
 20
13.060572825277335
 40
1.6000000000000689
 50
13.774146998000001
 51
273.66487910090001
  0
ARC
  8
_0-0_0
  6
CONTINUOUS
 62
    3
 10
-12.365766743093356
 20
10.964867351577327
 40
0.5000000000000307
 50
300
 51
93.664879100900023
  0
LINE
  8
_0-0_0
  6
CONTINUOUS
 62
    3
 10
-16.59999999999334
 20
7.9428813716773323
 11
-12.115766743093356
 21
10.53185464967733
  0
LINE
  8
_0-0_0
  6
CONTINUOUS
 62
    3
 10
-17.59999999999334
 20
-18.371634638822666
 11
-17.59999999999334
 21
6.2108305640773418
  0
ARC
  8
_0-0_0
  6
CONTINUOUS
 62
    3
 10
-15.59999999999334
 20
6.2108305640773418
 40
2.0000000000000151
 50
119.99999999999999
 51
180
  0
LINE
  8
_0-0_0
  6
CONTINUOUS
 62
    3
 10
-16.249999999993317
 20
10.916235257977336
 11
-19.499999999993317
 21
9.0398468831773346
  0
ARC
  8
_0-0_0
  6
CONTINUOUS
 62
    3
 10
-16.499999999993431
 20
11.349247959877333
 40
0.5000000000000448
 50
300
 51
0.0000000000000127
  0
LINE
  8
_0-0_0
  6
CONTINUOUS
 62
    3
 10
-15.999999999993317
 20
13.960572825277341
 11
-15.999999999993317
 21
11.349247959877333
  0
LINE
  8
_0-0_0
  6
CONTINUOUS
 62
    3
 10
-19.499999999993317
 20
14.460572825277341
 11
-16.499999999993431
 21
14.460572825277341
  0
ARC
  8
_0-0_0
  6
CONTINUOUS
 62
    3
 10
-16.499999999993431
 20
13.960572825277341
 40
0.5
 50
0
 51
90
  0
LINE
  8
_0-0_0
  6
CONTINUOUS
 62
    3
 10
14.000000000006683
 20
16.660572825277331
 11
3.00000000000668
 21
16.660572825277331
  0
LINE
  8
_0-0_0
  6
CONTINUOUS
 62
    3
 10
16.500000000006683
 20
14.460572825277341
 11
19.500000000006683
 21
14.460572825277341
  0
LINE
  8
_0-0_0
  6
CONTINUOUS
 62
    3
 10
16.000000000006683
 20
11.349247959877333
 11
16.000000000006683
 21
13.960572825277341
  0
LINE
  8
_0-0_0
  6
CONTINUOUS
 62
    3
 10
20.000000000006683
 20
-4.639427174722683
 11
20.000000000006683
 21
8.1738214793773398
  0
ARC
  8
_0-0_0
  6
CONTINUOUS
 62
    3
 10
19.000000000006569
 20
8.1738214793773398
 40
1.0000000000000071
 50
0
 51
59.999999999999993
  0
ARC
  8
_0-0_0
  6
CONTINUOUS
 62
    3
 10
15.600000000006649
 20
6.2108305640773418
 40
2
 50
0
 51
59.999999999999993
  0
ARC
  8
_0-0_0
  6
CONTINUOUS
 62
    3
 10
15.600000000006649
 20
-18.371634638822666
 40
2.0000000000000191
 50
279.20689622129998
 51
0
  0
ARC
  8
_0-0_0
  6
CONTINUOUS
 62
    3
 10
16.000000000006683
 20
-20.839427174722669
 40
0.5
 50
99.206896221400015
 51
270
  0
ARC
  8
_0-0_0
  6
CONTINUOUS
 62
    3
 10
16.000000000006683
 20
-22.939427174722663
 40
1.6000000000000141
 50
193.77414699800002
 51
90
  0
ARC
  8
_0-0_0
  6
CONTINUOUS
 62
    3
 10
13.960392194506685
 20
-23.439427174722663
 40
0.4999999999999952
 50
13.774146998000001
 51
137.1563569564
  0
ARC
  8
_0-0_0
  6
CONTINUOUS
 62
    3
 10
12.127361916506661
 20
-21.739427174722675
 40
2.0000000000000302
 50
270
 51
317.15635695639997
  0
LINE
  8
_0-0_0
  6
CONTINUOUS
 62
    3
 10
12.127361916506661
 20
-23.739427174722675
 11
5.2500000000066818
 21
-23.739427174722675
  0
LINE
  8
_0-0_0
  6
CONTINUOUS
 62
    3
 10
4.7500000000066818
 20
-24.239427174722675
 11
4.7500000000066818
 21
-25.939427174722663
  0
ARC
  8
_0-0_0
  6
CONTINUOUS
 62
    3
 10
5.2500000000066818
 20
-24.239427174722675
 40
0.5000000000000569
 50
90
 51
180
  0
ARC
  8
_0-0_0
  6
CONTINUOUS
 62
    3
 10
5.7500000000066818
 20
-25.939427174722663
 40
1
 50
180
 51
270
  0
LINE
  8
_0-0_0
  6
CONTINUOUS
 62
    3
 10
5.7500000000066818
 20
-26.939427174722663
 11
19.000000000006569
 21
-26.939427174722663
  0
ARC
  8
_0-0_0
  6
CONTINUOUS
 62
    3
 10
19.000000000006569
 20
-25.939427174722663
 40
1
 50
270
 51
0
  0
ARC
  8
_0-0_0
  6
CONTINUOUS
 62
    3
 10
-5.74999999999332
 20
-25.939427174722663
 40
1
 50
270
 51
0
  0
LINE
  8
_0-0_0
  6
CONTINUOUS
 62
    3
 10
-4.74999999999332
 20
-25.939427174722663
 11
-4.74999999999332
 21
-24.239427174722675
  0
LINE
  8
_0-0_0
  6
CONTINUOUS
 62
    3
 10
-5.24999999999332
 20
-23.739427174722675
 11
-12.12736191659334
 21
-23.739427174722675
  0
LINE
  8
_0-0_0
  6
CONTINUOUS
 62
    3
 10
-18.999999999993317
 20
-26.939427174722663
 11
-5.74999999999332
 21
-26.939427174722663
  0
LINE
  8
_0-0_0
  6
CONTINUOUS
 62
    3
 10
-19.999999999993317
 20
-5.2394271747226773
 11
-19.999999999993317
 21
-25.939427174722663
  0
ARC
  8
_0-0_0
  6
CONTINUOUS
 62
    3
 10
-18.999999999993317
 20
-25.939427174722663
 40
1
 50
180
 51
270
  0
LINE
  8
_0-0_0
  6
CONTINUOUS
 62
    3
 10
-19.999999999993317
 20
-5.2394271747226773
 11
-19.699999999993306
 21
-4.9394271747226659
  0
LINE
  8
_0-0_0
  6
CONTINUOUS
 62
    3
 10
-19.999999999993317
 20
8.1738214793773398
 11
-19.999999999993317
 21
-4.639427174722683
  0
ARC
  8
_0-0_0
  6
CONTINUOUS
 62
    3
 10
-18.999999999993317
 20
8.1738214793773398
 40
1.0000000000000071
 50
119.99999999999999
 51
180
  0
LINE
  8
_0-0_0
  6
CONTINUOUS
 62
    3
 10
-13.999999999993317
 20
16.660572825277331
 11
-2.99999999999332
 21
16.660572825277331
  0
LINE
  8
_0-0_0
  6
CONTINUOUS
 62
    3
 10
-13.999999999993317
 20
17.060572825277337
 11
-13.999999999993317
 21
16.660572825277331
  0
LINE
  8
_0-0_0
  6
CONTINUOUS
 62
    3
 10
-13.999999999993317
 20
17.060572825277337
 11
-19.499999999993317
 21
17.060572825277337
  0
ARC
  8
_0-0_0
  6
CONTINUOUS
 62
    3
 10
-19.499999999993317
 20
16.560572825277337
 40
0.5
 50
90
 51
180
  0
ARC
  8
_0-0_0
  6
CONTINUOUS
 62
    3
 10
-19.499999999993317
 20
14.960572825277341
 40
0.5
 50
180
 51
270
  0
LINE
  8
_0-0_0
  6
CONTINUOUS
 62
    3
 10
3.00000000000668
 20
17.060572825277337
 11
-2.99999999999332
 21
17.060572825277337
  0
LINE
  8
_0-0_0
  6
CONTINUOUS
 62
    3
 10
-2.99999999999332
 20
16.660572825277331
 11
-2.99999999999332
 21
17.060572825277337
  0
LINE
  8
_0-0_0
  6
CONTINUOUS
 62
    3
 10
14.000000000006683
 20
17.060572825277337
 11
14.000000000006683
 21
16.660572825277331
  0
LINE
  8
_0-0_0
  6
CONTINUOUS
 62
    3
 10
3.00000000000668
 20
16.660572825277331
 11
3.00000000000668
 21
17.060572825277337
  0
ARC
  8
_0-0_0
  6
CONTINUOUS
 62
    3
 10
19.500000000006683
 20
14.960572825277341
 40
0.5
 50
270
 51
0
  0
ARC
  8
_0-0_0
  6
CONTINUOUS
 62
    3
 10
19.500000000006683
 20
16.560572825277337
 40
0.5
 50
0
 51
90
  0
LINE
  8
_0-0_0
  6
CONTINUOUS
 62
    3
 10
20.000000000006683
 20
14.960572825277341
 11
20.000000000006683
 21
16.560572825277337
  0
ENDBLK
  0
ENDSEC
  0
SECTION
  2
ENTITIES
  0
LINE
  8
_0-0_0
  6
CONTINUOUS
 62
    7
 10
-104.875
 20
-74.25
 11
315.125
 21
-74.25
  0
LINE
  8
_0-0_0
  6
CONTINUOUS
 62
    7
 10
315.125
 20
-74.25
 11
315.125
 21
222.75
  0
LINE
  8
_0-0_0
  6
CONTINUOUS
 62
    7
 10
315.125
 20
222.75
 11
-104.875
 21
222.75
  0
LINE
  8
_0-0_0
  6
CONTINUOUS
 62
    7
 10
-104.875
 20
222.75
 11
-104.875
 21
-74.25
  0
TEXT
  8
_0-0_0
 62
    4
 10
129.46970486139804
 20
66.56471823352274
 40
3.5
 41
1
 50
90
  1
44
  0
TEXT
  8
_0-0_0
 62
    4
 10
96.806441674198084
 20
38.838260601922727
 40
3.5
 41
1
 50
0
  1
9.5
  0
TEXT
  8
_0-0_0
 62
    4
 10
97.219636205798054
 20
102.83826060192274
 40
3.5
 41
1
 50
0
  1
40
  0
INSERT
  2
-000-A
  8
_0-0_0
 10
100.4814417177914
 20
74.765950920245402
 41
1
 42
1
 50
0
  0
LINE
  8
_0-0_0
  6
CONTINUOUS
 62
    4
 10
129.498046875
 20
91.908854166666657
 11
129.498046875
 21
47.908854166666664
  0
LINE
  8
_0-0_0
  6
CONTINUOUS
 62
    4
 10
128.61327927699998
 20
88.606854166666665
 11
129.498046875
 21
91.908854166666657
  0
LINE
  8
_0-0_0
  6
CONTINUOUS
 62
    4
 10
129.498046875
 20
91.908854166666657
 11
130.382814473
 21
88.606854166666665
  0
LINE
  8
_0-0_0
  6
CONTINUOUS
 62
    4
 10
130.382814473
 20
51.210854166666664
 11
129.498046875
 21
47.908854166666664
  0
LINE
  8
_0-0_0
  6
CONTINUOUS
 62
    4
 10
129.498046875
 20
47.908854166666664
 11
128.61327927699998
 21
51.210854166666664
  0
LINE
  8
_0-0_0
  6
CONTINUOUS
 62
    4
 10
119.4980468750001
 20
47.908854166666664
 11
130.49804687500011
 21
47.908854166666664
  0
LINE
  8
_0-0_0
  6
CONTINUOUS
 62
    4
 10
86.498046875000099
 20
91.908854166666657
 11
130.49804687500011
 21
91.908854166666657
  0
LINE
  8
_0-0_0
  6
CONTINUOUS
 62
    7
 10
120.3203125
 20
102.95247758010001
 11
117.01831250000001
 21
102.95247758010001
  0
LINE
  8
_0-0_0
  6
CONTINUOUS
 62
    7
 10
80.3203125
 20
102.95247758010001
 11
83.622312500000007
 21
102.95247758010001
  0
LINE
  8
_0-0_0
  6
CONTINUOUS
 62
    4
 10
80.3203125
 20
85.065726234200014
 11
80.3203125
 21
103.95247758010001
  0
LINE
  8
_0-0_0
  6
CONTINUOUS
 62
    4
 10
80.3203125
 20
102.95247758010001
 11
83.622312500000007
 21
103.83724517810001
  0
LINE
  8
_0-0_0
  6
CONTINUOUS
 62
    4
 10
83.622312500000007
 20
102.0677099821
 11
80.3203125
 21
102.95247758010001
  0
LINE
  8
_0-0_0
  6
CONTINUOUS
 62
    4
 10
80.3203125
 20
102.95247758010001
 11
120.3203125
 21
102.95247758010001
  0
LINE
  8
_0-0_0
  6
CONTINUOUS
 62
    4
 10
117.01831250000001
 20
103.83724517810001
 11
120.3203125
 21
102.95247758010001
  0
LINE
  8
_0-0_0
  6
CONTINUOUS
 62
    4
 10
120.3203125
 20
102.95247758010001
 11
117.01831250000001
 21
102.0677099821
  0
LINE
  8
_0-0_0
  6
CONTINUOUS
 62
    4
 10
120.3203125
 20
85.065726234200014
 11
120.3203125
 21
103.95247758010001
  0
LINE
  8
_0-0_0
  6
CONTINUOUS
 62
    7
 10
95.7705078125
 20
43.002130681818173
 11
92.468507812500008
 21
43.002130681818173
  0
LINE
  8
_0-0_0
  6
CONTINUOUS
 62
    7
 10
105.2705078125
 20
43.002130681818173
 11
108.57250781250001
 21
43.002130681818173
  0
LINE
  8
_0-0_0
  6
CONTINUOUS
 62
    4
 10
105.2705078125
 20
43.002130681818173
 11
108.57250781250001
 21
43.886898279818176
  0
LINE
  8
_0-0_0
  6
CONTINUOUS
 62
    4
 10
108.57250781250001
 20
42.117363083818177
 11
105.2705078125
 21
43.002130681818173
  0
LINE
  8
_0-0_0
  6
CONTINUOUS
 62
    4
 10
105.2705078125
 20
43.002130681818173
 11
111.62050781249997
 21
43.002130681818173
  0
LINE
  8
_0-0_0
  6
CONTINUOUS
 62
    4
 10
105.2705078125
 20
53.002130681818173
 11
105.2705078125
 21
42.002130681818173
  0
LINE
  8
_0-0_0
  6
CONTINUOUS
 62
    4
 10
95.7705078125
 20
53.002130681818173
 11
95.7705078125
 21
42.002130681818173
  0
LINE
  8
_0-0_0
  6
CONTINUOUS
 62
    4
 10
95.7705078125
 20
43.002130681818173
 11
89.420507812499977
 21
43.002130681818173
  0
LINE
  8
_0-0_0
  6
CONTINUOUS
 62
    4
 10
92.468507812500008
 20
43.886898279818176
 11
95.7705078125
 21
43.002130681818173
  0
LINE
  8
_0-0_0
  6
CONTINUOUS
 62
    4
 10
95.7705078125
 20
43.002130681818173
 11
92.468507812500008
 21
42.117363083818177
  0
LINE
  8
_0-0_0
  6
CONTINUOUS
 62
    4
 10
95.7705078125
 20
43.002130681818173
 11
105.2705078125
 21
43.002130681818173
  0
ENDSEC
  0
EOF
