  0
SECTION
  2
HEADER
  9
$INSBASE
 10
0.0
20
0.0
  9
$REGENMODE
 70
     1
  9
$DRAGMODE
 70
     1
  9
$DIMTAD
 70
     1
  9
$EXTMIN
 10
-105.000000
 20
-148.500000
 30
 0.0
  9
$EXTMAX
 10
105.000000
 20
148.500000
 30
 0.0
  9
$LUPREC
 70
    3
  9
$AUPREC
 70
    3
  9
$LTSCALE
 40
13.125000
  0
ENDSEC
  0
SECTION
  2
TABLES
  0
TABLE
  2
LTYPE
 70
     6
  0
LTYPE
  2
CONTINUOUS
 70
    64
  3
実線
 72
    65
 73
     0
 40
0.0
  0
LTYPE
  2
DOTS
 70
    64
  3
close
 72
    65
 73
     2
 40
0.1
 49
0.05
 49
-0.05
  0
LTYPE
  2
HIDDEN
 70
    64
  3
__ __ __ __ __ __ __ __ __ __ __ __ __ __ __
 72
    65
 73
     2
 40
0.375
 49
0.25
 49
-0.125
  0
LTYPE
  2
DASHED
 70
    64
  3
__ __ __ __ __ __ __ __ __ __ __ __ __ __ __
 72
    65
 73
     2
 40
0.75
 49
0.5
 49
-0.25
  0
LTYPE
  2
DOT
 70
    64
  3
............................................
 72
    65
 73
     2
 40
0.25
 49
0
 49
-0.25
  0
LTYPE
  2
CENTER
 70
    64
  3
____ _ ____ _ ____ _ ____ _ ____ _ ____ _ __
 72
    65
 73
     4
 40
2.0
 49
1.25
 49
-0.25
 49
0.25
 49
-0.25
  0
LTYPE
  2
DASHDOT
 70
    64
  3
__ . __ . __ . __ . __ . __ . __ . __ . __ .
 72
    65
 73
     4
 40
1.0
 49
0.5
 49
-0.25
 49
0.0
 49
-0.25
  0
LTYPE
  2
HIDDENX2
 70
    64
  3
____ ____ ____ ____ ____ ____ ____ ____ ____
 72
    65
 73
     2
 40
0.625
 49
0.5
 49
-0.125
  0
LTYPE
  2
DIVIDE
 70
    64
  3
__ . . __ . . __ . . __ . . __ . . __ . . __
 72
    65
 73
     6
 40
1.25
 49
0.5
 49
-0.25
 49
0.0
 49
-0.25
 49
0.0
 49
-0.25
  0
ENDTAB
  0
TABLE
  2
LAYER
 70
   255
  0
LAYER
  2
0
 70
    64
 62
     7
  6
CONTINUOUS
  0
LAYER
  2
1
 70
    64
 62
     7
  6
CONTINUOUS
  0
LAYER
  2
2
 70
    64
 62
     7
  6
CONTINUOUS
  0
LAYER
  2
3
 70
    64
 62
     7
  6
CONTINUOUS
  0
LAYER
  2
4
 70
    64
 62
     7
  6
CONTINUOUS
  0
LAYER
  2
5
 70
    64
 62
     7
  6
CONTINUOUS
  0
LAYER
  2
6
 70
    64
 62
     7
  6
CONTINUOUS
  0
LAYER
  2
7
 70
    64
 62
     7
  6
CONTINUOUS
  0
LAYER
  2
8
 70
    64
 62
     7
  6
CONTINUOUS
  0
LAYER
  2
9
 70
    64
 62
     7
  6
CONTINUOUS
  0
LAYER
  2
10
 70
    64
 62
     7
  6
CONTINUOUS
  0
LAYER
  2
11
 70
    64
 62
     7
  6
CONTINUOUS
  0
LAYER
  2
12
 70
    64
 62
     7
  6
CONTINUOUS
  0
LAYER
  2
13
 70
    64
 62
     7
  6
CONTINUOUS
  0
LAYER
  2
14
 70
    64
 62
     7
  6
CONTINUOUS
  0
LAYER
  2
15
 70
    64
 62
     7
  6
CONTINUOUS
  0
LAYER
  2
16
 70
    64
 62
     7
  6
CONTINUOUS
  0
LAYER
  2
17
 70
    64
 62
     7
  6
CONTINUOUS
  0
LAYER
  2
18
 70
    64
 62
     7
  6
CONTINUOUS
  0
LAYER
  2
19
 70
    64
 62
     7
  6
CONTINUOUS
  0
LAYER
  2
20
 70
    64
 62
     7
  6
CONTINUOUS
  0
LAYER
  2
21
 70
    64
 62
     7
  6
CONTINUOUS
  0
LAYER
  2
22
 70
    64
 62
     7
  6
CONTINUOUS
  0
LAYER
  2
23
 70
    64
 62
     7
  6
CONTINUOUS
  0
LAYER
  2
24
 70
    64
 62
     7
  6
CONTINUOUS
  0
LAYER
  2
25
 70
    64
 62
     7
  6
CONTINUOUS
  0
LAYER
  2
26
 70
    64
 62
     7
  6
CONTINUOUS
  0
LAYER
  2
27
 70
    64
 62
     7
  6
CONTINUOUS
  0
LAYER
  2
28
 70
    64
 62
     7
  6
CONTINUOUS
  0
LAYER
  2
29
 70
    64
 62
     7
  6
CONTINUOUS
  0
LAYER
  2
30
 70
    64
 62
     7
  6
CONTINUOUS
  0
LAYER
  2
31
 70
    64
 62
     7
  6
CONTINUOUS
  0
LAYER
  2
32
 70
    64
 62
     7
  6
CONTINUOUS
  0
LAYER
  2
33
 70
    64
 62
     7
  6
CONTINUOUS
  0
LAYER
  2
34
 70
    64
 62
     7
  6
CONTINUOUS
  0
LAYER
  2
35
 70
    64
 62
     7
  6
CONTINUOUS
  0
LAYER
  2
36
 70
    64
 62
     7
  6
CONTINUOUS
  0
LAYER
  2
37
 70
    64
 62
     7
  6
CONTINUOUS
  0
LAYER
  2
38
 70
    64
 62
     7
  6
CONTINUOUS
  0
LAYER
  2
39
 70
    64
 62
     7
  6
CONTINUOUS
  0
LAYER
  2
40
 70
    64
 62
     7
  6
CONTINUOUS
  0
LAYER
  2
41
 70
    64
 62
     7
  6
CONTINUOUS
  0
LAYER
  2
42
 70
    64
 62
     7
  6
CONTINUOUS
  0
LAYER
  2
43
 70
    64
 62
     7
  6
CONTINUOUS
  0
LAYER
  2
44
 70
    64
 62
     7
  6
CONTINUOUS
  0
LAYER
  2
45
 70
    64
 62
     7
  6
CONTINUOUS
  0
LAYER
  2
46
 70
    64
 62
     7
  6
CONTINUOUS
  0
LAYER
  2
47
 70
    64
 62
     7
  6
CONTINUOUS
  0
LAYER
  2
48
 70
    64
 62
     7
  6
CONTINUOUS
  0
LAYER
  2
49
 70
    64
 62
     7
  6
CONTINUOUS
  0
LAYER
  2
50
 70
    64
 62
     7
  6
CONTINUOUS
  0
LAYER
  2
51
 70
    64
 62
     7
  6
CONTINUOUS
  0
LAYER
  2
52
 70
    64
 62
     7
  6
CONTINUOUS
  0
LAYER
  2
53
 70
    64
 62
     7
  6
CONTINUOUS
  0
LAYER
  2
54
 70
    64
 62
     7
  6
CONTINUOUS
  0
LAYER
  2
55
 70
    64
 62
     7
  6
CONTINUOUS
  0
LAYER
  2
56
 70
    64
 62
     7
  6
CONTINUOUS
  0
LAYER
  2
57
 70
    64
 62
     7
  6
CONTINUOUS
  0
LAYER
  2
58
 70
    64
 62
     7
  6
CONTINUOUS
  0
LAYER
  2
59
 70
    64
 62
     7
  6
CONTINUOUS
  0
LAYER
  2
60
 70
    64
 62
     7
  6
CONTINUOUS
  0
LAYER
  2
61
 70
    64
 62
     7
  6
CONTINUOUS
  0
LAYER
  2
62
 70
    64
 62
     7
  6
CONTINUOUS
  0
LAYER
  2
63
 70
    64
 62
     7
  6
CONTINUOUS
  0
LAYER
  2
64
 70
    64
 62
     7
  6
CONTINUOUS
  0
LAYER
  2
65
 70
    64
 62
     7
  6
CONTINUOUS
  0
LAYER
  2
66
 70
    64
 62
     7
  6
CONTINUOUS
  0
LAYER
  2
67
 70
    64
 62
     7
  6
CONTINUOUS
  0
LAYER
  2
68
 70
    64
 62
     7
  6
CONTINUOUS
  0
LAYER
  2
69
 70
    64
 62
     7
  6
CONTINUOUS
  0
LAYER
  2
70
 70
    64
 62
     7
  6
CONTINUOUS
  0
LAYER
  2
71
 70
    64
 62
     7
  6
CONTINUOUS
  0
LAYER
  2
72
 70
    64
 62
     7
  6
CONTINUOUS
  0
LAYER
  2
73
 70
    64
 62
     7
  6
CONTINUOUS
  0
LAYER
  2
74
 70
    64
 62
     7
  6
CONTINUOUS
  0
LAYER
  2
75
 70
    64
 62
     7
  6
CONTINUOUS
  0
LAYER
  2
76
 70
    64
 62
     7
  6
CONTINUOUS
  0
LAYER
  2
77
 70
    64
 62
     7
  6
CONTINUOUS
  0
LAYER
  2
78
 70
    64
 62
     7
  6
CONTINUOUS
  0
LAYER
  2
79
 70
    64
 62
     7
  6
CONTINUOUS
  0
LAYER
  2
80
 70
    64
 62
     7
  6
CONTINUOUS
  0
LAYER
  2
81
 70
    64
 62
     7
  6
CONTINUOUS
  0
LAYER
  2
82
 70
    64
 62
     7
  6
CONTINUOUS
  0
LAYER
  2
83
 70
    64
 62
     7
  6
CONTINUOUS
  0
LAYER
  2
84
 70
    64
 62
     7
  6
CONTINUOUS
  0
LAYER
  2
85
 70
    64
 62
     7
  6
CONTINUOUS
  0
LAYER
  2
86
 70
    64
 62
     7
  6
CONTINUOUS
  0
LAYER
  2
87
 70
    64
 62
     7
  6
CONTINUOUS
  0
LAYER
  2
88
 70
    64
 62
     7
  6
CONTINUOUS
  0
LAYER
  2
89
 70
    64
 62
     7
  6
CONTINUOUS
  0
LAYER
  2
90
 70
    64
 62
     7
  6
CONTINUOUS
  0
LAYER
  2
91
 70
    64
 62
     7
  6
CONTINUOUS
  0
LAYER
  2
92
 70
    64
 62
     7
  6
CONTINUOUS
  0
LAYER
  2
93
 70
    64
 62
     7
  6
CONTINUOUS
  0
LAYER
  2
94
 70
    64
 62
     7
  6
CONTINUOUS
  0
LAYER
  2
95
 70
    64
 62
     7
  6
CONTINUOUS
  0
LAYER
  2
96
 70
    64
 62
     7
  6
CONTINUOUS
  0
LAYER
  2
97
 70
    64
 62
     7
  6
CONTINUOUS
  0
LAYER
  2
98
 70
    64
 62
     7
  6
CONTINUOUS
  0
LAYER
  2
99
 70
    64
 62
     7
  6
CONTINUOUS
  0
LAYER
  2
100
 70
    64
 62
     7
  6
CONTINUOUS
  0
LAYER
  2
101
 70
    64
 62
     7
  6
CONTINUOUS
  0
LAYER
  2
102
 70
    64
 62
     7
  6
CONTINUOUS
  0
LAYER
  2
103
 70
    64
 62
     7
  6
CONTINUOUS
  0
LAYER
  2
104
 70
    64
 62
     7
  6
CONTINUOUS
  0
LAYER
  2
105
 70
    64
 62
     7
  6
CONTINUOUS
  0
LAYER
  2
106
 70
    64
 62
     7
  6
CONTINUOUS
  0
LAYER
  2
107
 70
    64
 62
     7
  6
CONTINUOUS
  0
LAYER
  2
108
 70
    64
 62
     7
  6
CONTINUOUS
  0
LAYER
  2
109
 70
    64
 62
     7
  6
CONTINUOUS
  0
LAYER
  2
110
 70
    64
 62
     7
  6
CONTINUOUS
  0
LAYER
  2
111
 70
    64
 62
     7
  6
CONTINUOUS
  0
LAYER
  2
112
 70
    64
 62
     7
  6
CONTINUOUS
  0
LAYER
  2
113
 70
    64
 62
     7
  6
CONTINUOUS
  0
LAYER
  2
114
 70
    64
 62
     7
  6
CONTINUOUS
  0
LAYER
  2
115
 70
    64
 62
     7
  6
CONTINUOUS
  0
LAYER
  2
116
 70
    64
 62
     7
  6
CONTINUOUS
  0
LAYER
  2
117
 70
    64
 62
     7
  6
CONTINUOUS
  0
LAYER
  2
118
 70
    64
 62
     7
  6
CONTINUOUS
  0
LAYER
  2
119
 70
    64
 62
     7
  6
CONTINUOUS
  0
LAYER
  2
120
 70
    64
 62
     7
  6
CONTINUOUS
  0
LAYER
  2
121
 70
    64
 62
     7
  6
CONTINUOUS
  0
LAYER
  2
122
 70
    64
 62
     7
  6
CONTINUOUS
  0
LAYER
  2
123
 70
    64
 62
     7
  6
CONTINUOUS
  0
LAYER
  2
124
 70
    64
 62
     7
  6
CONTINUOUS
  0
LAYER
  2
125
 70
    64
 62
     7
  6
CONTINUOUS
  0
LAYER
  2
126
 70
    64
 62
     7
  6
CONTINUOUS
  0
LAYER
  2
127
 70
    64
 62
     7
  6
CONTINUOUS
  0
LAYER
  2
128
 70
    64
 62
     7
  6
CONTINUOUS
  0
LAYER
  2
129
 70
    64
 62
     7
  6
CONTINUOUS
  0
LAYER
  2
130
 70
    64
 62
     7
  6
CONTINUOUS
  0
LAYER
  2
131
 70
    64
 62
     7
  6
CONTINUOUS
  0
LAYER
  2
132
 70
    64
 62
     7
  6
CONTINUOUS
  0
LAYER
  2
133
 70
    64
 62
     7
  6
CONTINUOUS
  0
LAYER
  2
134
 70
    64
 62
     7
  6
CONTINUOUS
  0
LAYER
  2
135
 70
    64
 62
     7
  6
CONTINUOUS
  0
LAYER
  2
136
 70
    64
 62
     7
  6
CONTINUOUS
  0
LAYER
  2
137
 70
    64
 62
     7
  6
CONTINUOUS
  0
LAYER
  2
138
 70
    64
 62
     7
  6
CONTINUOUS
  0
LAYER
  2
139
 70
    64
 62
     7
  6
CONTINUOUS
  0
LAYER
  2
140
 70
    64
 62
     7
  6
CONTINUOUS
  0
LAYER
  2
141
 70
    64
 62
     7
  6
CONTINUOUS
  0
LAYER
  2
142
 70
    64
 62
     7
  6
CONTINUOUS
  0
LAYER
  2
143
 70
    64
 62
     7
  6
CONTINUOUS
  0
LAYER
  2
144
 70
    64
 62
     7
  6
CONTINUOUS
  0
LAYER
  2
145
 70
    64
 62
     7
  6
CONTINUOUS
  0
LAYER
  2
146
 70
    64
 62
     7
  6
CONTINUOUS
  0
LAYER
  2
147
 70
    64
 62
     7
  6
CONTINUOUS
  0
LAYER
  2
148
 70
    64
 62
     7
  6
CONTINUOUS
  0
LAYER
  2
149
 70
    64
 62
     7
  6
CONTINUOUS
  0
LAYER
  2
150
 70
    64
 62
     7
  6
CONTINUOUS
  0
LAYER
  2
151
 70
    64
 62
     7
  6
CONTINUOUS
  0
LAYER
  2
152
 70
    64
 62
     7
  6
CONTINUOUS
  0
LAYER
  2
153
 70
    64
 62
     7
  6
CONTINUOUS
  0
LAYER
  2
154
 70
    64
 62
     7
  6
CONTINUOUS
  0
LAYER
  2
155
 70
    64
 62
     7
  6
CONTINUOUS
  0
LAYER
  2
156
 70
    64
 62
     7
  6
CONTINUOUS
  0
LAYER
  2
157
 70
    64
 62
     7
  6
CONTINUOUS
  0
LAYER
  2
158
 70
    64
 62
     7
  6
CONTINUOUS
  0
LAYER
  2
159
 70
    64
 62
     7
  6
CONTINUOUS
  0
LAYER
  2
160
 70
    64
 62
     7
  6
CONTINUOUS
  0
LAYER
  2
161
 70
    64
 62
     7
  6
CONTINUOUS
  0
LAYER
  2
162
 70
    64
 62
     7
  6
CONTINUOUS
  0
LAYER
  2
163
 70
    64
 62
     7
  6
CONTINUOUS
  0
LAYER
  2
164
 70
    64
 62
     7
  6
CONTINUOUS
  0
LAYER
  2
165
 70
    64
 62
     7
  6
CONTINUOUS
  0
LAYER
  2
166
 70
    64
 62
     7
  6
CONTINUOUS
  0
LAYER
  2
167
 70
    64
 62
     7
  6
CONTINUOUS
  0
LAYER
  2
168
 70
    64
 62
     7
  6
CONTINUOUS
  0
LAYER
  2
169
 70
    64
 62
     7
  6
CONTINUOUS
  0
LAYER
  2
170
 70
    64
 62
     7
  6
CONTINUOUS
  0
LAYER
  2
171
 70
    64
 62
     7
  6
CONTINUOUS
  0
LAYER
  2
172
 70
    64
 62
     7
  6
CONTINUOUS
  0
LAYER
  2
173
 70
    64
 62
     7
  6
CONTINUOUS
  0
LAYER
  2
174
 70
    64
 62
     7
  6
CONTINUOUS
  0
LAYER
  2
175
 70
    64
 62
     7
  6
CONTINUOUS
  0
LAYER
  2
176
 70
    64
 62
     7
  6
CONTINUOUS
  0
LAYER
  2
177
 70
    64
 62
     7
  6
CONTINUOUS
  0
LAYER
  2
178
 70
    64
 62
     7
  6
CONTINUOUS
  0
LAYER
  2
179
 70
    64
 62
     7
  6
CONTINUOUS
  0
LAYER
  2
180
 70
    64
 62
     7
  6
CONTINUOUS
  0
LAYER
  2
181
 70
    64
 62
     7
  6
CONTINUOUS
  0
LAYER
  2
182
 70
    64
 62
     7
  6
CONTINUOUS
  0
LAYER
  2
183
 70
    64
 62
     7
  6
CONTINUOUS
  0
LAYER
  2
184
 70
    64
 62
     7
  6
CONTINUOUS
  0
LAYER
  2
185
 70
    64
 62
     7
  6
CONTINUOUS
  0
LAYER
  2
186
 70
    64
 62
     7
  6
CONTINUOUS
  0
LAYER
  2
187
 70
    64
 62
     7
  6
CONTINUOUS
  0
LAYER
  2
188
 70
    64
 62
     7
  6
CONTINUOUS
  0
LAYER
  2
189
 70
    64
 62
     7
  6
CONTINUOUS
  0
LAYER
  2
190
 70
    64
 62
     7
  6
CONTINUOUS
  0
LAYER
  2
191
 70
    64
 62
     7
  6
CONTINUOUS
  0
LAYER
  2
192
 70
    64
 62
     7
  6
CONTINUOUS
  0
LAYER
  2
193
 70
    64
 62
     7
  6
CONTINUOUS
  0
LAYER
  2
194
 70
    64
 62
     7
  6
CONTINUOUS
  0
LAYER
  2
195
 70
    64
 62
     7
  6
CONTINUOUS
  0
LAYER
  2
196
 70
    64
 62
     7
  6
CONTINUOUS
  0
LAYER
  2
197
 70
    64
 62
     7
  6
CONTINUOUS
  0
LAYER
  2
198
 70
    64
 62
     7
  6
CONTINUOUS
  0
LAYER
  2
199
 70
    64
 62
     7
  6
CONTINUOUS
  0
LAYER
  2
200
 70
    64
 62
     7
  6
CONTINUOUS
  0
LAYER
  2
201
 70
    64
 62
     7
  6
CONTINUOUS
  0
LAYER
  2
202
 70
    64
 62
     7
  6
CONTINUOUS
  0
LAYER
  2
203
 70
    64
 62
     7
  6
CONTINUOUS
  0
LAYER
  2
204
 70
    64
 62
     7
  6
CONTINUOUS
  0
LAYER
  2
205
 70
    64
 62
     7
  6
CONTINUOUS
  0
LAYER
  2
206
 70
    64
 62
     7
  6
CONTINUOUS
  0
LAYER
  2
207
 70
    64
 62
     7
  6
CONTINUOUS
  0
LAYER
  2
208
 70
    64
 62
     7
  6
CONTINUOUS
  0
LAYER
  2
209
 70
    64
 62
     7
  6
CONTINUOUS
  0
LAYER
  2
210
 70
    64
 62
     7
  6
CONTINUOUS
  0
LAYER
  2
211
 70
    64
 62
     7
  6
CONTINUOUS
  0
LAYER
  2
212
 70
    64
 62
     7
  6
CONTINUOUS
  0
LAYER
  2
213
 70
    64
 62
     7
  6
CONTINUOUS
  0
LAYER
  2
214
 70
    64
 62
     7
  6
CONTINUOUS
  0
LAYER
  2
215
 70
    64
 62
     7
  6
CONTINUOUS
  0
LAYER
  2
216
 70
    64
 62
     7
  6
CONTINUOUS
  0
LAYER
  2
217
 70
    64
 62
     7
  6
CONTINUOUS
  0
LAYER
  2
218
 70
    64
 62
     7
  6
CONTINUOUS
  0
LAYER
  2
219
 70
    64
 62
     7
  6
CONTINUOUS
  0
LAYER
  2
220
 70
    64
 62
     7
  6
CONTINUOUS
  0
LAYER
  2
221
 70
    64
 62
     7
  6
CONTINUOUS
  0
LAYER
  2
222
 70
    64
 62
     7
  6
CONTINUOUS
  0
LAYER
  2
223
 70
    64
 62
     7
  6
CONTINUOUS
  0
LAYER
  2
224
 70
    64
 62
     7
  6
CONTINUOUS
  0
LAYER
  2
225
 70
    64
 62
     7
  6
CONTINUOUS
  0
LAYER
  2
226
 70
    64
 62
     7
  6
CONTINUOUS
  0
LAYER
  2
227
 70
    64
 62
     7
  6
CONTINUOUS
  0
LAYER
  2
228
 70
    64
 62
     7
  6
CONTINUOUS
  0
LAYER
  2
229
 70
    64
 62
     7
  6
CONTINUOUS
  0
LAYER
  2
230
 70
    64
 62
     7
  6
CONTINUOUS
  0
LAYER
  2
231
 70
    64
 62
     7
  6
CONTINUOUS
  0
LAYER
  2
232
 70
    64
 62
     7
  6
CONTINUOUS
  0
LAYER
  2
233
 70
    64
 62
     7
  6
CONTINUOUS
  0
LAYER
  2
234
 70
    64
 62
     7
  6
CONTINUOUS
  0
LAYER
  2
235
 70
    64
 62
     7
  6
CONTINUOUS
  0
LAYER
  2
236
 70
    64
 62
     7
  6
CONTINUOUS
  0
LAYER
  2
237
 70
    64
 62
     7
  6
CONTINUOUS
  0
LAYER
  2
238
 70
    64
 62
     7
  6
CONTINUOUS
  0
LAYER
  2
239
 70
    64
 62
     7
  6
CONTINUOUS
  0
LAYER
  2
240
 70
    64
 62
     7
  6
CONTINUOUS
  0
LAYER
  2
241
 70
    64
 62
     7
  6
CONTINUOUS
  0
LAYER
  2
242
 70
    64
 62
     7
  6
CONTINUOUS
  0
LAYER
  2
243
 70
    64
 62
     7
  6
CONTINUOUS
  0
LAYER
  2
244
 70
    64
 62
     7
  6
CONTINUOUS
  0
LAYER
  2
245
 70
    64
 62
     7
  6
CONTINUOUS
  0
LAYER
  2
246
 70
    64
 62
     7
  6
CONTINUOUS
  0
LAYER
  2
247
 70
    64
 62
     7
  6
CONTINUOUS
  0
LAYER
  2
248
 70
    64
 62
     7
  6
CONTINUOUS
  0
LAYER
  2
249
 70
    64
 62
     7
  6
CONTINUOUS
  0
LAYER
  2
250
 70
    64
 62
     7
  6
CONTINUOUS
  0
LAYER
  2
251
 70
    64
 62
     7
  6
CONTINUOUS
  0
LAYER
  2
252
 70
    64
 62
     7
  6
CONTINUOUS
  0
LAYER
  2
253
 70
    64
 62
     7
  6
CONTINUOUS
  0
LAYER
  2
254
 70
    64
 62
     7
  6
CONTINUOUS
  0
LAYER
  2
255
 70
    64
 62
     7
  6
CONTINUOUS
  0
ENDTAB
  0
TABLE
  2
STYLE
 70
     2
  0
STYLE
  2
STANDARD
 70
    64
 40
0.0
 41
1.0
 50
0.0
 71
     0
 42
3.000000
  3
TXT
  4
BIGFONT
  0
ENDTAB
  0
ENDSEC
  0
SECTION
  2
BLOCKS
  0
BLOCK
  8
0
  2
CADWIN-G0
 70
    0
 10
0.0
 20
0.0
  0
LINE
  8
0
  6
CONTINUOUS
 62
     3
 10
 6.9999999999999432
 20
-14.999999999999581
 11
 17.5
 21
-14.999999999999581
  0
LINE
  8
0
  6
CONTINUOUS
 62
     3
 10
 20
 20
-12.499999999999581
 11
 20
 21
 7.0000000000011795
  0
LINE
  8
0
  6
CONTINUOUS
 62
     3
 10
 4.4999999999999432
 20
-12.499999999999581
 11
 4.4999999999999432
 21
-10.449999999999214
  0
LINE
  8
0
  6
CONTINUOUS
 62
     3
 10
 16.499999999999943
 20
 12.400000000001064
 11
 18.700000000000045
 21
 12.400000000001143
  0
LINE
  8
0
  6
CONTINUOUS
 62
     3
 10
 16.499999999999943
 20
 9.0000000000010658
 11
 18
 21
 9.0000000000010658
  0
LINE
  8
0
  6
CONTINUOUS
 62
     3
 10
 15.999999999999943
 20
 9.5000000000010658
 11
 15.999999999999943
 21
 11.900000000001064
  0
ARC
  8
0
  6
CONTINUOUS
 62
     3
 10
 18.699999999999989
 20
 13.70000000000114
 40
 1.3000000000000007
 50
-90.000001535234517
 51
 90.000001535236393
  0
ARC
  8
0
  6
CONTINUOUS
 62
     3
 10
 16.499999999999943
 20
 11.900000000001064
 40
 0.5
 50
 90.000001535234517
 51
 180.00000307046903
  0
ARC
  8
0
  6
CONTINUOUS
 62
     3
 10
 16.499999999999943
 20
 9.5000000000010658
 40
 0.5
 50
 180.00000307046903
 51
-90.000001535234517
  0
ARC
  8
0
  6
CONTINUOUS
 62
     3
 10
 18
 20
 7.0000000000011795
 40
 2
 50
 0
 51
 90.000001535234517
  0
ARC
  8
0
  6
CONTINUOUS
 62
     3
 10
 6.9999999999999432
 20
-12.499999999999581
 40
 2.5
 50
 180.00000307046903
 51
-90.000001535234517
  0
LINE
  8
0
  6
CONTINUOUS
 62
     3
 10
 12
 20
 14.500000000000952
 11
 5
 21
 14.500000000000725
  0
LINE
  8
0
  6
CONTINUOUS
 62
     3
 10
 4.5
 20
 15.000000000000725
 11
 5
 21
 14.500000000000739
  0
LINE
  8
0
  6
CONTINUOUS
 62
     3
 10
 12.5
 20
 15.000000000000966
 11
 12.000000000000057
 21
 14.500000000000952
  0
LINE
  8
0
  6
CONTINUOUS
 62
     3
 10
 18.699999999999989
 20
 15.000000000001151
 11
 12.499999999999943
 21
 15.000000000000966
  0
LINE
  8
0
  6
CONTINUOUS
 62
     3
 10
 4.5
 20
 15.000000000000725
 11
 0
 21
 15.00000000000059
  0
LINE
  8
0
  6
CONTINUOUS
 62
     3
 10
 0.0000000000000568
 20
 14.050000000000587
 11
 4.1064971157455261
 21
 14.050000000000708
  0
LINE
  8
0
  6
CONTINUOUS
 62
     3
 10
 4.1064971157455261
 20
 14.050000000000708
 11
 4.6064971157455261
 21
 13.550000000000722
  0
LINE
  8
0
  6
CONTINUOUS
 62
     3
 10
 4.6064971157455261
 20
 13.550000000000722
 11
 12.393502884254474
 21
 13.550000000000963
  0
LINE
  8
0
  6
CONTINUOUS
 62
     3
 10
 12.393502884254474
 20
 13.550000000000963
 11
 12.893502884254474
 21
 14.050000000000992
  0
LINE
  8
0
  6
CONTINUOUS
 62
     3
 10
 12.893502884254474
 20
 14.050000000000992
 11
 18.699999999999989
 21
 14.050000000001148
  0
ARC
  8
0
  6
CONTINUOUS
 62
     3
 10
 18.699999999999989
 20
 13.70000000000114
 40
 0.3500000000000008
 50
-90.000001535234532
 51
 90.000001535234517
  0
LINE
  8
0
  6
CONTINUOUS
 62
     3
 10
 18.699999999999989
 20
 13.350000000001138
 11
 16.499999999999943
 21
 13.35000000000106
  0
ARC
  8
0
  6
CONTINUOUS
 62
     3
 10
 16.499999999999943
 20
 11.900000000001064
 40
 1.45
 50
 90.000001535234517
 51
 180.00000307046903
  0
LINE
  8
0
  6
CONTINUOUS
 62
     3
 10
 15.050000000000011
 20
 11.900000000001064
 11
 15.050000000000011
 21
 9.5000000000010658
  0
ARC
  8
0
  6
CONTINUOUS
 62
     3
 10
 16.499999999999943
 20
 9.5000000000010658
 40
 1.45
 50
 180.00000307046903
 51
-90.000001535234532
  0
LINE
  8
0
  6
CONTINUOUS
 62
     3
 10
 16.499999999999943
 20
 8.050000000001063
 11
 18
 21
 8.050000000001063
  0
ARC
  8
0
  6
CONTINUOUS
 62
     3
 10
 18
 20
 7.0000000000011795
 40
 1.05
 50
 0
 51
 90.000001535234517
  0
LINE
  8
0
  6
CONTINUOUS
 62
     3
 10
 19.050000000000011
 20
 7.0000000000011795
 11
 19.050000000000011
 21
-12.4999999999987
  0
LINE
  8
0
  6
CONTINUOUS
 62
     3
 10
 17.499999999999943
 20
-14.049999999998811
 11
 6.9999999999999432
 21
-14.049999999999578
  0
ARC
  8
0
  6
CONTINUOUS
 62
     3
 10
 6.9999999999999432
 20
-12.499999999999581
 40
 1.55
 50
 180.00000307046903
 51
-90.000001535234532
  0
LINE
  8
0
  6
CONTINUOUS
 62
     3
 10
 5.4499999999999886
 20
-12.499999999999581
 11
 5.4499999999999886
 21
-10.449999999999214
  0
LINE
  8
0
  6
CONTINUOUS
 62
     3
 10
-6.9999999999999432
 20
-14.999999999999581
 11
-17.5
 21
-14.999999999999581
  0
LINE
  8
0
  6
CONTINUOUS
 62
     3
 10
-20
 20
-12.499999999999581
 11
-20
 21
 7.0000000000011795
  0
LINE
  8
0
  6
CONTINUOUS
 62
     3
 10
-4.4999999999999432
 20
-12.499999999999581
 11
-4.4999999999999432
 21
-10.449999999999214
  0
LINE
  8
0
  6
CONTINUOUS
 62
     3
 10
-16.499999999999943
 20
 12.400000000001064
 11
-18.700000000000045
 21
 12.400000000001143
  0
LINE
  8
0
  6
CONTINUOUS
 62
     3
 10
-16.499999999999943
 20
 9.0000000000010658
 11
-18
 21
 9.0000000000010658
  0
LINE
  8
0
  6
CONTINUOUS
 62
     3
 10
-15.999999999999943
 20
 9.5000000000010658
 11
-15.999999999999943
 21
 11.900000000001064
  0
ARC
  8
0
  6
CONTINUOUS
 62
     3
 10
-18.699999999999989
 20
 13.70000000000114
 40
 1.3000000000000007
 50
 90.000001535232641
 51
-90.000001535234532
  0
ARC
  8
0
  6
CONTINUOUS
 62
     3
 10
-16.499999999999943
 20
 11.900000000001064
 40
 0.5
 50
 0
 51
 90.000001535234517
  0
ARC
  8
0
  6
CONTINUOUS
 62
     3
 10
-16.499999999999943
 20
 9.5000000000010658
 40
 0.5
 50
-90.000001535234517
 51
 0
  0
ARC
  8
0
  6
CONTINUOUS
 62
     3
 10
-18
 20
 7.0000000000011795
 40
 2
 50
 90.000001535234517
 51
 180.00000307046903
  0
ARC
  8
0
  6
CONTINUOUS
 62
     3
 10
-6.9999999999999432
 20
-12.499999999999581
 40
 2.5
 50
-90.000001535234517
 51
 0
  0
LINE
  8
0
  6
CONTINUOUS
 62
     3
 10
-12
 20
 14.500000000000952
 11
-5
 21
 14.500000000000725
  0
LINE
  8
0
  6
CONTINUOUS
 62
     3
 10
-4.5
 20
 15.000000000000725
 11
-5
 21
 14.500000000000739
  0
LINE
  8
0
  6
CONTINUOUS
 62
     3
 10
-12.5
 20
 15.000000000000966
 11
-12.000000000000057
 21
 14.500000000000952
  0
LINE
  8
0
  6
CONTINUOUS
 62
     3
 10
-18.699999999999989
 20
 15.000000000001151
 11
-12.499999999999943
 21
 15.000000000000966
  0
LINE
  8
0
  6
CONTINUOUS
 62
     3
 10
-4.5
 20
 15.000000000000725
 11
 0
 21
 15.00000000000059
  0
LINE
  8
0
  6
CONTINUOUS
 62
     3
 10
-0.0000000000000568
 20
 14.050000000000587
 11
-4.1064971157455261
 21
 14.050000000000708
  0
LINE
  8
0
  6
CONTINUOUS
 62
     3
 10
-4.1064971157455261
 20
 14.050000000000708
 11
-4.6064971157455261
 21
 13.550000000000722
  0
LINE
  8
0
  6
CONTINUOUS
 62
     3
 10
-4.6064971157455261
 20
 13.550000000000722
 11
-12.393502884254474
 21
 13.550000000000963
  0
LINE
  8
0
  6
CONTINUOUS
 62
     3
 10
-12.393502884254474
 20
 13.550000000000963
 11
-12.893502884254474
 21
 14.050000000000992
  0
LINE
  8
0
  6
CONTINUOUS
 62
     3
 10
-12.893502884254474
 20
 14.050000000000992
 11
-18.699999999999989
 21
 14.050000000001148
  0
ARC
  8
0
  6
CONTINUOUS
 62
     3
 10
-18.699999999999989
 20
 13.70000000000114
 40
 0.3500000000000008
 50
 90.000001535234532
 51
-90.000001535234489
  0
LINE
  8
0
  6
CONTINUOUS
 62
     3
 10
-18.699999999999989
 20
 13.350000000001138
 11
-16.499999999999943
 21
 13.35000000000106
  0
ARC
  8
0
  6
CONTINUOUS
 62
     3
 10
-16.499999999999943
 20
 11.900000000001064
 40
 1.45
 50
 0.000000000000007
 51
 90.000001535234532
  0
LINE
  8
0
  6
CONTINUOUS
 62
     3
 10
-15.050000000000011
 20
 11.900000000001064
 11
-15.050000000000011
 21
 9.5000000000010658
  0
ARC
  8
0
  6
CONTINUOUS
 62
     3
 10
-16.499999999999943
 20
 9.5000000000010658
 40
 1.45
 50
-90.000001535234489
 51
 0.000000000000007
  0
LINE
  8
0
  6
CONTINUOUS
 62
     3
 10
-16.499999999999943
 20
 8.050000000001063
 11
-18
 21
 8.050000000001063
  0
ARC
  8
0
  6
CONTINUOUS
 62
     3
 10
-18
 20
 7.0000000000011795
 40
 1.05
 50
 90.000001535234532
 51
 180.00000307046903
  0
LINE
  8
0
  6
CONTINUOUS
 62
     3
 10
-19.050000000000011
 20
 7.0000000000011795
 11
-19.050000000000011
 21
-12.4999999999987
  0
LINE
  8
0
  6
CONTINUOUS
 62
     3
 10
-17.499999999999943
 20
-14.049999999998811
 11
-6.9999999999999432
 21
-14.049999999999578
  0
ARC
  8
0
  6
CONTINUOUS
 62
     3
 10
-6.9999999999999432
 20
-12.499999999999581
 40
 1.55
 50
-90.000001535234489
 51
 0.000000000000007
  0
LINE
  8
0
  6
CONTINUOUS
 62
     3
 10
-5.4499999999999886
 20
-12.499999999999581
 11
-5.4499999999999886
 21
-10.449999999999214
  0
ARC
  8
0
  6
CONTINUOUS
 62
     3
 10
 17.5
 20
-12.499999999999581
 40
 2.5
 50
-90.000001535234517
 51
 0
  0
ARC
  8
0
  6
CONTINUOUS
 62
     3
 10
-17.5
 20
-12.499999999999581
 40
 2.5
 50
 180.00000307046903
 51
-90.000001535234517
  0
ARC
  8
0
  6
CONTINUOUS
 62
     3
 10
 17.499999999999943
 20
-12.4999999999987
 40
 1.55
 50
-90.000001535234517
 51
 0
  0
ARC
  8
0
  6
CONTINUOUS
 62
     3
 10
-17.499999999999943
 20
-12.4999999999987
 40
 1.55
 50
 180.00000307046903
 51
-90.000001535234517
  0
LINE
  8
0
  6
CONTINUOUS
 62
     3
 10
-5.9499999999999886
 20
-12.686626924633707
 11
-6.3377551020407736
 21
-11.81936342324483
  0
ARC
  8
0
  6
CONTINUOUS
 62
     3
 10
-6.9499999999999886
 20
-10.449999999999214
 40
 1.5
 50
 0
 51
-65.910495012531115
  0
ARC
  8
0
  6
CONTINUOUS
 62
     3
 10
-6.9499999999999886
 20
-10.449999999999214
 40
 2.4499999999999886
 50
 0
 51
-65.910495012531129
  0
LINE
  8
0
  6
CONTINUOUS
 62
     3
 10
 5.9499999999999886
 20
-12.686626924633707
 11
 6.3377551020407736
 21
-11.81936342324483
  0
ARC
  8
0
  6
CONTINUOUS
 62
     3
 10
 6.9499999999999886
 20
-10.449999999999214
 40
 1.5
 50
-114.08950805793792
 51
 180.00000307046903
  0
ARC
  8
0
  6
CONTINUOUS
 62
     3
 10
 6.9499999999999886
 20
-10.449999999999214
 40
 2.4499999999999886
 50
-114.08950805793789
 51
 180.00000307046903
  0
ENDBLK
  8
0
  0
ENDSEC
  0
SECTION
  2
ENTITIES
  0
LINE
  8
3
  6
CONTINUOUS
 62
     4
 10
-20.000000000000004
 20
 15.000000000000597
 11
-20.000000000000004
 21
 29.098635371179036
  0
LINE
  8
3
  6
CONTINUOUS
 62
     4
 10
 19.999999999999996
 20
 15.000000000000593
 11
 19.999999999999996
 21
 29.098635371179036
  0
LINE
  8
3
  6
CONTINUOUS
 62
     4
 10
-20.000000000000004
 20
 28.098635371179036
 11
 19.999999999999996
 21
 28.098635371179036
  0
LINE
  8
3
  6
CONTINUOUS
 62
     4
 10
-20.000000000000004
 20
 28.098635371179036
 11
-17.065557197798586
 21
 27.474900298725757
  0
LINE
  8
3
  6
CONTINUOUS
 62
     4
 10
-20.000000000000004
 20
 28.098635371179036
 11
-17.065557197798586
 21
 28.722370443632315
  0
LINE
  8
3
  6
CONTINUOUS
 62
     4
 10
 19.999999999999996
 20
 28.098635371179036
 11
 17.065557197798579
 21
 28.722370443632315
  0
LINE
  8
3
  6
CONTINUOUS
 62
     4
 10
 19.999999999999996
 20
 28.098635371179036
 11
 17.065557197798579
 21
 27.474900298725757
  0
TEXT
  8
3
  6
CONTINUOUS
 62
     7
 10
-2.4000000000000039
 20
 29.098635371179036
 11
 2.3999999999999968
 21
 29.098635371179036
 40
 3
 41
 0.8
  1
40
 50
 0
 72
  5
  0
LINE
  8
3
  6
CONTINUOUS
 62
     4
 10
-20.000000000000004
 20
 15.000000000000597
 11
-34.523640829694401
 21
 15.000000000000597
  0
LINE
  8
3
  6
CONTINUOUS
 62
     4
 10
-18.50000000000006
 20
-14.999999999999865
 11
-34.523640829694401
 21
-14.999999999999865
  0
LINE
  8
3
  6
CONTINUOUS
 62
     4
 10
-33.523640829694401
 20
 15.000000000000597
 11
-33.523640829694401
 21
-14.999999999999865
  0
LINE
  8
3
  6
CONTINUOUS
 62
     4
 10
-33.523640829694401
 20
 15.000000000000597
 11
-34.147375902147679
 21
 12.06555719779918
  0
LINE
  8
3
  6
CONTINUOUS
 62
     4
 10
-33.523640829694401
 20
 15.000000000000597
 11
-32.899905757241122
 21
 12.06555719779918
  0
LINE
  8
3
  6
CONTINUOUS
 62
     4
 10
-33.523640829694401
 20
-14.999999999999865
 11
-32.899905757241122
 21
-12.065557197798448
  0
LINE
  8
3
  6
CONTINUOUS
 62
     4
 10
-33.523640829694401
 20
-14.999999999999865
 11
-34.147375902147679
 21
-12.065557197798448
  0
TEXT
  8
3
  6
CONTINUOUS
 62
     7
 10
-34.523640829694401
 20
-2.3999999999996326
 11
-34.523640829694401
 21
 2.4000000000003645
 40
 3
 41
 0.8
  1
30
 50
 90.000001535234517
 72
  5
  0
LINE
  8
0
  6
CONTINUOUS
 62
     3
 10
 95
 20
-138.5
 11
-40
 21
-138.5
  0
LINE
  8
0
  6
CONTINUOUS
 62
     3
 10
 95
 20
-138.5
 11
 95
 21
-125.5
  0
LINE
  8
0
  6
CONTINUOUS
 62
     3
 10
 95.000000000000014
 20
-130.5
 11
-40
 21
-130.5
  0
LINE
  8
0
  6
CONTINUOUS
 62
     3
 10
 95.000000000000014
 20
-125.5
 11
-40
 21
-125.49999999999999
  0
LINE
  8
0
  6
CONTINUOUS
 62
     3
 10
 10.000000000000291
 20
-138.5
 11
 10.000000000000291
 21
-125.49999999999999
  0
LINE
  8
0
  6
CONTINUOUS
 62
     3
 10
-40
 20
-138.5
 11
-40
 21
-125.49999999999999
  0
TEXT
  8
0
  6
CONTINUOUS
 62
     7
 10
 32.054268287215663
 20
-129.58467884310591
 11
 39.254268287215666
 21
-129.58467884310591
 40
 3
 41
 0.8
  1
品　名
 50
 0
 72
  5
  0
TEXT
  8
0
  6
CONTINUOUS
 62
     7
 10
-10.656430904892009
 20
-129.58467884310591
 11
-3.4564309048920068
 21
-129.58467884310591
 40
 3
 41
 0.8
  1
品　番
 50
 0
 72
  5
  0
LINE
  8
0
  6
CONTINUOUS
 62
     3
 10
-25
 20
-125.49999999999999
 11
-25
 21
-138.5
  0
TEXT
  8
0
  6
CONTINUOUS
 62
     7
 10
-35.705145907949991
 20
-129.43378296959352
 11
-28.505145907949988
 21
-129.43378296959352
 40
 3
 41
 0.8
  1
Ｎｏ.
 50
 0
 72
  5
  0
TEXT
  8
0
  6
CONTINUOUS
 62
     7
 10
 72.515863352835737
 20
-129.58467884310591
 11
 82.115863352835731
 21
-129.58467884310591
 40
 3
 41
 0.8
  1
管理図番
 50
 0
 72
  5
  0
LINE
  8
0
  6
CONTINUOUS
 62
     3
 10
 60.000000000000014
 20
-125.5
 11
 60.000000000000014
 21
-138.5
  0
TEXT
  8
0
  6
CONTINUOUS
 62
     7
 10
-10.466173741920196
 20
-136.52998617535636
 11
-3.5541737419201969
 21
-136.52998617535636
 40
 4.3199999999999994
 41
 0.8
  1
KH
 50
 0
 72
  5
  0
TEXT
  8
0
  6
CONTINUOUS
 62
     7
 10
 17.704060254388512
 20
-136.09798617535634
 11
 53.646460254388515
 21
-136.09798617535637
 40
 3.4559999999999995
 41
 0.8
  1
レクト40　スチールレール
 50
 0
 72
  5
  0
TEXT
  8
0
  6
CONTINUOUS
 62
     7
 10
 69.292001913169941
 20
-136.34679963316546
 11
 85.880801913169933
 21
-136.34679963316549
 40
 3.4559999999999995
 41
 0.8
  1
D53099
 50
 0
 72
  5
  0
INSERT
  8
0
  2
CADWIN-G0
 10
0.0
 20
0.0
  0
ENDSEC
  0
EOF