  0
SECTION
  2
HEADER
  9
$ACADVER
  1
AC1015
  9
$ACADMAINTVER
 70
         6
  9
$DWGCODEPAGE
  3
ANSI_932
  9
$INSBASE
 10
0.0
 20
0.0
 30
0.0
  9
$EXTMIN
 10
1.0000000000E+20
 20
1.0000000000E+20
 30
1.0000000000E+20
  9
$EXTMAX
 10
-1.0000000000E+20
 20
-1.0000000000E+20
 30
-1.0000000000E+20
  9
$LIMMIN
 10
0.0
 20
0.0
  9
$LIMMAX
 10
0.0
 20
0.0
  9
$ORTHOMODE
 70
         0
  9
$REGENMODE
 70
         1
  9
$FILLMODE
 70
         1
  9
$QTEXTMODE
 70
         0
  9
$MIRRTEXT
 70
         1
  9
$LTSCALE
 40
1.0
  9
$ATTMODE
 70
         1
  9
$TEXTSIZE
 40
0.2
  9
$TRACEWID
 40
0.05
  9
$TEXTSTYLE
  7
Standard
  9
$CLAYER
  8
0
  9
$CELTYPE
  6
Continuous
  9
$CECOLOR
 62
       256
  9
$CELTSCALE
 40
1.0
  9
$DISPSILH
 70
         0
  9
$DIMSCALE
 40
1.0
  9
$DIMASZ
 40
0.18
  9
$DIMEXO
 40
0.0625
  9
$DIMDLI
 40
0.38
  9
$DIMRND
 40
0.0
  9
$DIMDLE
 40
0.0
  9
$DIMEXE
 40
0.18
  9
$DIMTP
 40
0.0
  9
$DIMTM
 40
0.0
  9
$DIMTXT
 40
0.18
  9
$DIMCEN
 40
0.09
  9
$DIMTSZ
 40
0.0
  9
$DIMTOL
 70
         0
  9
$DIMLIM
 70
         0
  9
$DIMTIH
 70
         1
  9
$DIMTOH
 70
         1
  9
$DIMSE1
 70
         0
  9
$DIMSE2
 70
         0
  9
$DIMTAD
 70
         0
  9
$DIMZIN
 70
         0
  9
$DIMBLK
  1

  9
$DIMASO
 70
         1
  9
$DIMSHO
 70
         1
  9
$DIMPOST
  1

  9
$DIMAPOST
  1

  9
$DIMALT
 70
         0
  9
$DIMALTD
 70
         2
  9
$DIMALTF
 40
25.4
  9
$DIMLFAC
 40
1.0
  9
$DIMTOFL
 70
         0
  9
$DIMTVP
 40
0.0
  9
$DIMTIX
 70
         0
  9
$DIMSOXD
 70
         0
  9
$DIMSAH
 70
         0
  9
$DIMBLK1
  1

  9
$DIMBLK2
  1

  9
$DIMSTYLE
  2
Standard
  9
$DIMCLRD
 70
         0
  9
$DIMCLRE
 70
         0
  9
$DIMCLRT
 70
         0
  9
$DIMTFAC
 40
1.0
  9
$DIMGAP
 40
0.09
  9
$DIMJUST
 70
         0
  9
$DIMSD1
 70
         0
  9
$DIMSD2
 70
         0
  9
$DIMTOLJ
 70
         1
  9
$DIMTZIN
 70
         0
  9
$DIMALTZ
 70
         0
  9
$DIMALTTZ
 70
         0
  9
$DIMUPT
 70
         0
  9
$DIMDEC
 70
         4
  9
$DIMTDEC
 70
         4
  9
$DIMALTU
 70
         2
  9
$DIMALTTD
 70
         2
  9
$DIMTXSTY
  7
Standard
  9
$DIMAUNIT
 70
         0
  9
$DIMADEC
 70
         0
  9
$DIMALTRND
 40
0.0
  9
$DIMAZIN
 70
         0
  9
$DIMDSEP
 70
         0
  9
$DIMATFIT
 70
         3
  9
$DIMFRAC
 70
         0
  9
$DIMLDRBLK
  1

  9
$DIMLUNIT
 70
         2
  9
$DIMLWD
 70
         0
  9
$DIMLWE
 70
         0
  9
$DIMTMOVE
 70
         0
  9
$LUNITS
 70
         2
  9
$LUPREC
 70
         4
  9
$SKETCHINC
 40
0.1
  9
$FILLETRAD
 40
0.0
  9
$AUNITS
 70
         0
  9
$AUPREC
 70
         0
  9
$MENU
  1
acad
  9
$ELEVATION
 40
0.0
  9
$PELEVATION
 40
0.0
  9
$THICKNESS
 40
0.0
  9
$LIMCHECK
 70
         0
  9
$CHAMFERA
 40
0.0
  9
$CHAMFERB
 40
0.0
  9
$CHAMFERC
 40
0.0
  9
$CHAMFERD
 40
0.0
  9
$SKPOLY
 70
         0
  9
$TDCREATE
 40
0.000000000
  9
$TDUCREATE
 40
0.000000000
  9
$TDUPDATE
 40
0.000000000
  9
$TDUUPDATE
 40
0.000000000
  9
$TDINDWG
 40
0.0000000000
  9
$TDUSRTIMER
 40
0.0000000000
  9
$USRTIMER
 70
         1
  9
$ANGBASE
 50
0.0
  9
$ANGDIR
 70
         0
  9
$PDMODE
 70
         3
  9
$PDSIZE
 40
-1.0
  9
$PLINEWID
 40
0.0
  9
$SPLFRAME
 70
         0
  9
$SPLINETYPE
 70
         6
  9
$SPLINESEGS
 70
         8
  9
$HANDSEED
  5
2E4
  9
$SURFTAB1
 70
         6
  9
$SURFTAB2
 70
         6
  9
$SURFTYPE
 70
         6
  9
$SURFU
 70
         6
  9
$SURFV
 70
         6
  9
$UCSBASE
  2

  9
$UCSNAME
  2

  9
$UCSORG
 10
0.0
 20
0.0
 30
0.0
  9
$UCSXDIR
 10
1.0
 20
0.0
 30
0.0
  9
$UCSYDIR
 10
0.0
 20
1.0
 30
0.0
  9
$UCSORTHOREF
  2

  9
$UCSORTHOVIEW
 70
         0
  9
$UCSORGTOP
 10
0.0
 20
0.0
 30
0.0
  9
$UCSORGBOTTOM
 10
0.0
 20
0.0
 30
0.0
  9
$UCSORGLEFT
 10
0.0
 20
0.0
 30
0.0
  9
$UCSORGRIGHT
 10
0.0
 20
0.0
 30
0.0
  9
$UCSORGFRONT
 10
0.0
 20
0.0
 30
0.0
  9
$UCSORGBACK
 10
0.0
 20
0.0
 30
0.0
  9
$PUCSBASE
  2

  9
$PUCSNAME
  2

  9
$PUCSORG
 10
0.0
 20
0.0
 30
0.0
  9
$PUCSXDIR
 10
1.0
 20
0.0
 30
0.0
  9
$PUCSYDIR
 10
0.0
 20
1.0
 30
0.0
  9
$PUCSORTHOREF
  2

  9
$PUCSORTHOVIEW
 70
         0
  9
$PUCSORGTOP
 10
0.0
 20
0.0
 30
0.0
  9
$PUCSORGBOTTOM
 10
0.0
 20
0.0
 30
0.0
  9
$PUCSORGLEFT
 10
0.0
 20
0.0
 30
0.0
  9
$PUCSORGRIGHT
 10
0.0
 20
0.0
 30
0.0
  9
$PUCSORGFRONT
 10
0.0
 20
0.0
 30
0.0
  9
$PUCSORGBACK
 10
0.0
 20
0.0
 30
0.0
  9
$USERI1
 70
         0
  9
$USERI2
 70
         0
  9
$USERI3
 70
         0
  9
$USERI4
 70
         0
  9
$USERI5
 70
         0
  9
$USERR1
 40
0.0
  9
$USERR2
 40
0.0
  9
$USERR3
 40
0.0
  9
$USERR4
 40
0.0
  9
$USERR5
 40
0.0
  9
$WORLDVIEW
 70
         1
  9
$SHADEDGE
 70
         3
  9
$SHADEDIF
 70
        70
  9
$TILEMODE
 70
         1
  9
$MAXACTVP
 70
        16
  9
$PINSBASE
 10
0.0
 20
0.0
 30
0.0
  9
$PLIMCHECK
 70
         0
  9
$PEXTMIN
 10
1.0000000000E+20
 20
1.0000000000E+20
 30
1.0000000000E+20
  9
$PEXTMAX
 10
-1.0000000000E+20
 20
-1.0000000000E+20
 30
-1.0000000000E+20
  9
$PLIMMIN
 10
0.0
 20
0.0
  9
$PLIMMAX
 10
12.0
 20
9.0
  9
$UNITMODE
 70
         0
  9
$VISRETAIN
 70
         0
  9
$PLINEGEN
 70
         1
  9
$PSLTSCALE
 70
         0
  9
$TREEDEPTH
 70
      3020
  9
$CMLSTYLE
  2
Standard
  9
$CMLJUST
 70
         0
  9
$CMLSCALE
 40
1.0
  9
$PROXYGRAPHICS
 70
         0
  9
$MEASUREMENT
 70
         0
  9
$CELWEIGHT
370
         0
  9
$ENDCAPS
280
         0
  9
$JOINSTYLE
280
         0
  9
$LWDISPLAY
290
         0
  9
$INSUNITS
 70
         0
  9
$HYPERLINKBASE
  1

  9
$XEDIT
290
         1
  9
$CEPSNTYPE
380
         0
  9
$PSTYLEMODE
290
         0
  9
$FINGERPRINTGUID
  2

  9
$VERSIONGUID
  2

  9
$EXTNAMES
290
         1
  9
$PSVPSCALE
 40
0.0
  0
ENDSEC
  0
SECTION
  2
CLASSES
  0
CLASS
  1
LWPOLYLINE
  2
AcDbPolyline
  3
"AutoCAD"
 90
        0
280
         0
281
         1
  0
CLASS
  1
IMAGE
  2
AcDbRasterImage
  3
ISM
 90
      127
280
         0
281
         1
  0
CLASS
  1
OLE2FRAME
  2
AcDbOle2Frame
  3
""
 90
        0
280
         0
281
         1
  0
CLASS
  1
HATCH
  2
AcDbHatch
  3
"ACAD_SEDONA"
 90
        0
280
         0
281
         1
  0
CLASS
  1
DICTIONARYVAR
  2
AcDbDictionaryVar
  3
"AutoCAD"
 90
        0
280
         0
281
         0
  0
CLASS
  1
RASTERVARIABLES
  2
AcDbRasterVariables
  3
ISM
 90
        0
280
         0
281
         0
  0
CLASS
  1
IMAGEDEF
  2
AcDbRasterImageDef
  3
ISM
 90
        0
280
         0
281
         0
  0
CLASS
  1
IMAGEDEF_REACTOR
  2
AcDbRasterImageDefReactor
  3
ISM
 90
        1
280
         0
281
         0
  0
CLASS
  1
IDBUFFER
  2
AcDbIdBuffer
  3
"Acad"
 90
        0
280
         0
281
         0
  0
CLASS
  1
SPATIAL_FILTER
  2
AcDbSpatialFilter
  3
"Acad"
 90
        0
280
         0
281
         0
  0
CLASS
  1
XRECORD
  2
AcDbXrecord
  3
"<Built In>"
 90
        0
280
         0
281
         0
  0
CLASS
  1
SORTENTSTABLE
  2
AcDbSortentsTable
  3
"AutoCAD"
 90
        0
280
         0
281
         0
  0
CLASS
  1
LAYER_INDEX
  2
AcDbLayerIndex
  3
"Acad"
 90
        0
280
         0
281
         0
  0
CLASS
  1
SPATIAL_INDEX
  2
AcDbSpatialIndex
  3
"Acad"
 90
        0
280
         0
281
         0
  0
CLASS
  1
OBJECT_PTR
  2
CAseDLPNTableRecord
  3
"ASE-LPNTableRecord"
 90
        1
280
         0
281
         0
  0
CLASS
  1
LAYOUT
  2
AcDbLayout
  3
"AutoCAD 2000"
 90
        1
280
         0
281
         0
  0
CLASS
  1
PLOTSETTINGS
  2
AcDbPlotSettings
  3
"AutoCAD 2000"
 90
        1
280
         0
281
         0
  0
CLASS
  1
ACDBDICTIONARYWDFLT
  2
AcDbDictionaryWithDefault
  3
"AutoCAD 2000"
 90
        1
280
         0
281
         0
  0
CLASS
  1
ACDBPLACEHOLDER
  2
AcDbPlaceHolder
  3
"AutoCAD 2000"
 90
        1
280
         0
281
         0
  0
CLASS
  1
VBA_PROJECT
  2
AcDbVbaProject
  3
"acadvba"
 90
        1
280
         0
281
         0
  0
CLASS
  1
WIPEOUT
  2
AcDbWipeout
  3
WipeOut|AutoCAD Express Tool|expresstools@autodesk.com
 90
      127
280
         0
281
         1
  0
CLASS
  1
WIPEOUTVARIABLES
  2
AcDbWipeoutVariables
  3
WipeOut|AutoCAD Express Tool|expresstools@autodesk.com
 90
        0
280
         0
281
         0
  0
CLASS
  1
RTEXT
  2
RText
  3
RText|AutoCAD Express Tool|expresstools@autodesk.com
 90
        0
280
         0
281
         1
  0
CLASS
  1
ARCALIGNEDTEXT
  2
AcDbArcAlignedText
  3
ATEXT|AutoCAD Express Tool|expresstools@autodesk.com
 90
        0
280
         0
281
         1
  0
ENDSEC
  0
SECTION
  2
TABLES
  0
TABLE
  2
VPORT
  5
7
100
AcDbSymbolTable
 70
         1
  0
VPORT
  5
15
100
AcDbSymbolTableRecord
100
AcDbViewportTableRecord
  2
*ACTIVE
 70
         0
 10
0.0
 20
0.0
 11
1.0
 21
1.0
 12
6.591288
 22
4.579184
 13
0.0
 23
0.0
 14
1.0
 24
1.0
 15
0.0
 25
0.0
 16
0.0
 26
0.0
 36
1.0
 17
0.0
 27
0.0
 37
0.0
 40
9.158369
 41
0.688564
 42
50.0
 43
0.0
 44
0.0
 50
0.0
 51
0.0
 71
         0
 72
       100
 73
         1
 74
         1
 75
         0
 76
         0
 77
         0
 78
         0
281
         0
 65
         0
110
0.0
120
0.0
130
0.0
111
1.0
121
0.0
131
0.0
112
0.0
122
1.0
132
0.0
345
0
346
0
 79
         0
146
0.0
  0
ENDTAB
  0
TABLE
  2
LTYPE
  5
4
100
AcDbSymbolTable
 70
        13
  0
LTYPE
  5
11
100
AcDbSymbolTableRecord
100
AcDbLinetypeTableRecord
  2
ByBlock
 70
        64
  3

 72
        65
 73
         0
 40
0.0
  0
LTYPE
  5
12
100
AcDbSymbolTableRecord
100
AcDbLinetypeTableRecord
  2
ByLayer
 70
        64
  3

 72
        65
 73
         0
 40
0.0
  0
LTYPE
  5
13
100
AcDbSymbolTableRecord
100
AcDbLinetypeTableRecord
  2
Continuous
 70
        64
  3
Solid line
 72
        65
 73
         0
 40
0.0
  0
LTYPE
  5
24
100
AcDbSymbolTableRecord
100
AcDbLinetypeTableRecord
  2
DOT
 70
        64
  3
. . . . . . . . 
 72
        65
 73
         2
 40
1.0
 49
0.0
 74
         0
 49
-1.0
 74
         0
  0
LTYPE
  5
25
100
AcDbSymbolTableRecord
100
AcDbLinetypeTableRecord
  2
DASHED
 70
        64
  3
___  ___  ___  ___  
 72
        65
 73
         2
 40
4.0
 49
3.0
 74
         0
 49
-1.0
 74
         0
  0
LTYPE
  5
26
100
AcDbSymbolTableRecord
100
AcDbLinetypeTableRecord
  2
HIDDEN
 70
        64
  3
__ __ __ __ 
 72
        65
 73
         2
 40
3.0
 49
2.0
 74
         0
 49
-1.0
 74
         0
  0
LTYPE
  5
27
100
AcDbSymbolTableRecord
100
AcDbLinetypeTableRecord
  2
STITCH
 70
        64
  3
_ _ _ _ 
 72
        65
 73
         2
 40
2.0
 49
1.0
 74
         0
 49
-1.0
 74
         0
  0
LTYPE
  5
28
100
AcDbSymbolTableRecord
100
AcDbLinetypeTableRecord
  2
CENTER
 70
        64
  3
______  __  ______  __  
 72
        65
 73
         4
 40
43.0
 49
40.0
 74
         0
 49
-1.0
 74
         0
 49
1.0
 74
         0
 49
-1.0
 74
         0
  0
LTYPE
  5
29
100
AcDbSymbolTableRecord
100
AcDbLinetypeTableRecord
  2
DASHDOT
 70
        64
  3
____ . ____ . 
 72
        65
 73
         4
 40
32.0
 49
30.0
 74
         0
 49
-1.0
 74
         0
 49
0.0
 74
         0
 49
-1.0
 74
         0
  0
LTYPE
  5
2A
100
AcDbSymbolTableRecord
100
AcDbLinetypeTableRecord
  2
BORDER
 70
        64
  3
__ . __ . 
 72
        65
 73
         4
 40
22.0
 49
20.0
 74
         0
 49
-1.0
 74
         0
 49
0.0
 74
         0
 49
-1.0
 74
         0
  0
LTYPE
  5
2B
100
AcDbSymbolTableRecord
100
AcDbLinetypeTableRecord
  2
CUTTING
 70
        64
  3
________   ___   ___   
 72
        65
 73
         6
 40
45.0
 49
40.0
 74
         0
 49
-1.0
 74
         0
 49
1.0
 74
         0
 49
-1.0
 74
         0
 49
1.0
 74
         0
 49
-1.0
 74
         0
  0
LTYPE
  5
2C
100
AcDbSymbolTableRecord
100
AcDbLinetypeTableRecord
  2
PHANTOM
 70
        64
  3
______  __  __  
 72
        65
 73
         6
 40
35.0
 49
30.0
 74
         0
 49
-1.0
 74
         0
 49
1.0
 74
         0
 49
-1.0
 74
         0
 49
1.0
 74
         0
 49
-1.0
 74
         0
  0
LTYPE
  5
2D
100
AcDbSymbolTableRecord
100
AcDbLinetypeTableRecord
  2
DIVIDE
 70
        64
  3
____ . . ____ . . 
 72
        65
 73
         6
 40
23.0
 49
20.0
 74
         0
 49
-1.0
 74
         0
 49
0.0
 74
         0
 49
-1.0
 74
         0
 49
0.0
 74
         0
 49
-1.0
 74
         0
  0
ENDTAB
  0
TABLE
  2
LAYER
  5
2
100
AcDbSymbolTable
 70
         9
  0
LAYER
  5
14
100
AcDbSymbolTableRecord
100
AcDbLayerTableRecord
  2
0
 70
         0
 62
         7
  6
Continuous
290
         1
370
        -3
390
1D
  0
LAYER
  5
2E
100
AcDbSymbolTableRecord
100
AcDbLayerTableRecord
  2
LAYER3
 70
         0
 62
         7
  6
Continuous
290
         1
370
        -3
390
1F
  0
LAYER
  5
41
100
AcDbSymbolTableRecord
100
AcDbLayerTableRecord
  2
LAYER2
 70
         0
 62
         7
  6
Continuous
290
         1
370
        -3
390
1F
  0
LAYER
  5
4B
100
AcDbSymbolTableRecord
100
AcDbLayerTableRecord
  2
LAYER4
 70
         0
 62
         7
  6
Continuous
290
         1
370
        -3
390
1F
  0
LAYER
  5
57
100
AcDbSymbolTableRecord
100
AcDbLayerTableRecord
  2
LAYER0
 70
         0
 62
         7
  6
Continuous
290
         1
370
        -3
390
1F
  0
LAYER
  5
97
100
AcDbSymbolTableRecord
100
AcDbLayerTableRecord
  2
LAYER12
 70
         0
 62
         7
  6
Continuous
290
         1
370
        -3
390
1F
  0
LAYER
  5
A3
100
AcDbSymbolTableRecord
100
AcDbLayerTableRecord
  2
LAYER10
 70
         0
 62
         7
  6
Continuous
290
         1
370
        -3
390
1F
  0
LAYER
  5
E4
100
AcDbSymbolTableRecord
100
AcDbLayerTableRecord
  2
LAYER7
 70
         0
 62
         7
  6
Continuous
290
         1
370
        -3
390
1F
  0
LAYER
  5
F0
100
AcDbSymbolTableRecord
100
AcDbLayerTableRecord
  2
LAYER5
 70
         0
 62
         7
  6
Continuous
290
         1
370
        -3
390
1F
  0
ENDTAB
  0
TABLE
  2
STYLE
  5
3
100
AcDbSymbolTable
 70
         1
  0
STYLE
  5
17
100
AcDbSymbolTableRecord
100
AcDbTextStyleTableRecord
  2
Standard
 70
         0
 40
0.0
 41
1.0
 50
0.0
 71
         0
 42
0.0
  3
txt
  4
extfont
  0
ENDTAB
  0
TABLE
  2
VIEW
  5
5
100
AcDbSymbolTable
 70
         0
  0
ENDTAB
  0
TABLE
  2
UCS
  5
6
100
AcDbSymbolTable
 70
         0
  0
ENDTAB
  0
TABLE
  2
APPID
  5
8
100
AcDbSymbolTable
 70
         1
  0
APPID
  5
16
100
AcDbSymbolTableRecord
100
AcDbRegAppTableRecord
  2
ACAD
 70
         0
  0
ENDTAB
  0
TABLE
  2
DIMSTYLE
  5
9
100
AcDbSymbolTable
 70
         1
100
AcDbDimStyleTable
 71
         0
  0
DIMSTYLE
105
18
100
AcDbSymbolTableRecord
100
AcDbDimStyleTableRecord
  2
Standard
 70
         0
  3

  4

 40
1.0
 41
0.18
 42
0.0625
 43
0.38
 44
0.18
 45
0.0
 46
0.0
 47
0.0
 48
0.0
 71
         0
 72
         0
 73
         1
 74
         1
 75
         0
 76
         0
 77
         0
 78
         0
 79
         0
140
0.18
141
0.09
142
0.0
143
25.4
144
1.0
145
0.0
146
1.0
147
0.09
148
0.0
170
         0
171
         2
172
         0
173
         0
174
         0
175
         0
176
         0
177
         0
178
         0
179
         0
271
         4
272
         4
273
         2
274
         2
275
         0
276
         0
277
         2
278
        46
279
         0
280
         0
281
         0
282
         0
283
         1
284
         0
285
         0
286
         0
288
         0
340
17
341
0
342
0
343
0
344
0
371
        -2
372
        -2
  0
ENDTAB
  0
TABLE
  2
BLOCK_RECORD
  5
1
100
AcDbSymbolTable
 70
        18
  0
BLOCK_RECORD
  5
A
100
AcDbSymbolTableRecord
100
AcDbBlockTableRecord
  2
*MODEL_SPACE
340
20
  0
BLOCK_RECORD
  5
B
100
AcDbSymbolTableRecord
100
AcDbBlockTableRecord
  2
*PAPER_SPACE
340
21
  0
BLOCK_RECORD
  5
51
100
AcDbSymbolTableRecord
100
AcDbBlockTableRecord
  2
CLUMP0
340
0
  0
BLOCK_RECORD
  5
54
100
AcDbSymbolTableRecord
100
AcDbBlockTableRecord
  2
CLUMP1
340
0
  0
BLOCK_RECORD
  5
6E
100
AcDbSymbolTableRecord
100
AcDbBlockTableRecord
  2
CLUMP2
340
0
  0
BLOCK_RECORD
  5
71
100
AcDbSymbolTableRecord
100
AcDbBlockTableRecord
  2
CLUMP3
340
0
  0
BLOCK_RECORD
  5
104
100
AcDbSymbolTableRecord
100
AcDbBlockTableRecord
  2
CLUMP4
340
0
  0
BLOCK_RECORD
  5
107
100
AcDbSymbolTableRecord
100
AcDbBlockTableRecord
  2
CLUMP5
340
0
  0
BLOCK_RECORD
  5
170
100
AcDbSymbolTableRecord
100
AcDbBlockTableRecord
  2
CLUMP6
340
0
  0
BLOCK_RECORD
  5
173
100
AcDbSymbolTableRecord
100
AcDbBlockTableRecord
  2
CLUMP7
340
0
  0
BLOCK_RECORD
  5
18C
100
AcDbSymbolTableRecord
100
AcDbBlockTableRecord
  2
CLUMP8
340
0
  0
BLOCK_RECORD
  5
18F
100
AcDbSymbolTableRecord
100
AcDbBlockTableRecord
  2
CLUMP9
340
0
  0
BLOCK_RECORD
  5
228
100
AcDbSymbolTableRecord
100
AcDbBlockTableRecord
  2
CLUMP10
340
0
  0
BLOCK_RECORD
  5
22B
100
AcDbSymbolTableRecord
100
AcDbBlockTableRecord
  2
CLUMP11
340
0
  0
BLOCK_RECORD
  5
244
100
AcDbSymbolTableRecord
100
AcDbBlockTableRecord
  2
CLUMP12
340
0
  0
BLOCK_RECORD
  5
247
100
AcDbSymbolTableRecord
100
AcDbBlockTableRecord
  2
CLUMP13
340
0
  0
BLOCK_RECORD
  5
28E
100
AcDbSymbolTableRecord
100
AcDbBlockTableRecord
  2
CLUMP14
340
0
  0
BLOCK_RECORD
  5
291
100
AcDbSymbolTableRecord
100
AcDbBlockTableRecord
  2
CLUMP15
340
0
  0
BLOCK_RECORD
  5
2AA
100
AcDbSymbolTableRecord
100
AcDbBlockTableRecord
  2
CLUMP16
340
0
  0
BLOCK_RECORD
  5
2AD
100
AcDbSymbolTableRecord
100
AcDbBlockTableRecord
  2
CLUMP17
340
0
  0
ENDTAB
  0
ENDSEC
  0
SECTION
  2
BLOCKS
  0
BLOCK
  5
D
100
AcDbEntity
  8
0
100
AcDbBlockBegin
  2
*MODEL_SPACE
 70
         0
 10
0.0
 20
0.0
 30
0.0
  3
*MODEL_SPACE
  1

  0
ENDBLK
  5
E
100
AcDbEntity
  8
0
100
AcDbBlockEnd
  0
BLOCK
  5
F
100
AcDbEntity
 67
         1
  8
0
100
AcDbBlockBegin
  2
*PAPER_SPACE
 70
         0
 10
0.0
 20
0.0
 30
0.0
  3
*PAPER_SPACE
  1

  0
ENDBLK
  5
10
100
AcDbEntity
 67
         1
  8
0
100
AcDbBlockEnd
  0
BLOCK
  5
53
100
AcDbEntity
  8
0
100
AcDbBlockBegin
  2
CLUMP0
 70
         0
 10
0.0
 20
0.0
 30
0.0
  3

  1

  0
INSERT
  5
55
100
AcDbEntity
  8
0
100
AcDbBlockReference
  2
CLUMP1
 10
0.0
 20
0.0
 30
0.0
  0
ENDBLK
  5
6D
100
AcDbEntity
  8
0
100
AcDbBlockEnd
  0
BLOCK
  5
56
100
AcDbEntity
  8
0
100
AcDbBlockBegin
  2
CLUMP1
 70
         0
 10
0.0
 20
0.0
 30
0.0
  3

  1

  0
LINE
  5
58
100
AcDbEntity
  8
LAYER0
 62
         3
100
AcDbLine
 10
46.4398919734
 20
64.4985075252
 30
0.0
 11
47.3518919734
 21
63.7935075252
 31
0.0
  0
LINE
  5
59
100
AcDbEntity
  8
LAYER0
 62
         3
100
AcDbLine
 10
47.3518919734
 20
63.7935075252
 30
0.0
 11
48.2638919734
 21
63.1785075252
 31
0.0
  0
LINE
  5
5A
100
AcDbEntity
  8
LAYER0
 62
         3
100
AcDbLine
 10
48.2638919734
 20
63.1785075252
 30
0.0
 11
49.1758919734
 21
62.7435075252
 31
0.0
  0
LINE
  5
5B
100
AcDbEntity
  8
LAYER0
 62
         3
100
AcDbLine
 10
49.1758919734
 20
62.7435075252
 30
0.0
 11
49.6318919734
 21
62.6216325252
 31
0.0
  0
LINE
  5
5C
100
AcDbEntity
  8
LAYER0
 62
         3
100
AcDbLine
 10
49.6318919734
 20
62.6216325252
 30
0.0
 11
50.0878919734
 21
62.5785075252
 31
0.0
  0
LINE
  5
5D
100
AcDbEntity
  8
LAYER0
 62
         3
100
AcDbLine
 10
50.0878919734
 20
62.5785075252
 30
0.0
 11
50.5438919734
 21
62.6216325252
 31
0.0
  0
LINE
  5
5E
100
AcDbEntity
  8
LAYER0
 62
         3
100
AcDbLine
 10
50.5438919734
 20
62.6216325252
 30
0.0
 11
50.9998919734
 21
62.7435075252
 31
0.0
  0
LINE
  5
5F
100
AcDbEntity
  8
LAYER0
 62
         3
100
AcDbLine
 10
50.9998919734
 20
62.7435075252
 30
0.0
 11
51.9118919734
 21
63.1785075252
 31
0.0
  0
LINE
  5
60
100
AcDbEntity
  8
LAYER0
 62
         3
100
AcDbLine
 10
51.9118919734
 20
63.1785075252
 30
0.0
 11
52.8238919734
 21
63.7935075252
 31
0.0
  0
LINE
  5
61
100
AcDbEntity
  8
LAYER0
 62
         3
100
AcDbLine
 10
52.8238919734
 20
63.7935075252
 30
0.0
 11
53.7358919734
 21
64.4985075252
 31
0.0
  0
LINE
  5
62
100
AcDbEntity
  8
LAYER0
 62
         3
100
AcDbLine
 10
53.7358919734
 20
64.4985075252
 30
0.0
 11
54.6478919734
 21
65.2035075252
 31
0.0
  0
LINE
  5
63
100
AcDbEntity
  8
LAYER0
 62
         3
100
AcDbLine
 10
54.6478919734
 20
65.2035075252
 30
0.0
 11
55.5598919734
 21
65.8185075252
 31
0.0
  0
LINE
  5
64
100
AcDbEntity
  8
LAYER0
 62
         3
100
AcDbLine
 10
55.5598919734
 20
65.8185075252
 30
0.0
 11
56.4718919734
 21
66.2535075252
 31
0.0
  0
LINE
  5
65
100
AcDbEntity
  8
LAYER0
 62
         3
100
AcDbLine
 10
56.4718919734
 20
66.2535075252
 30
0.0
 11
56.9278919734
 21
66.3753825252
 31
0.0
  0
LINE
  5
66
100
AcDbEntity
  8
LAYER0
 62
         3
100
AcDbLine
 10
56.9278919734
 20
66.3753825252
 30
0.0
 11
57.3838919734
 21
66.4185075252
 31
0.0
  0
LINE
  5
67
100
AcDbEntity
  8
LAYER0
 62
         3
100
AcDbLine
 10
57.3838919734
 20
66.4185075252
 30
0.0
 11
57.8398919734
 21
66.3753825252
 31
0.0
  0
LINE
  5
68
100
AcDbEntity
  8
LAYER0
 62
         3
100
AcDbLine
 10
57.8398919734
 20
66.3753825252
 30
0.0
 11
58.2958919734
 21
66.2535075252
 31
0.0
  0
LINE
  5
69
100
AcDbEntity
  8
LAYER0
 62
         3
100
AcDbLine
 10
58.2958919734
 20
66.2535075252
 30
0.0
 11
59.2078919734
 21
65.8185075252
 31
0.0
  0
LINE
  5
6A
100
AcDbEntity
  8
LAYER0
 62
         3
100
AcDbLine
 10
59.2078919734
 20
65.8185075252
 30
0.0
 11
60.1198919734
 21
65.2035075252
 31
0.0
  0
LINE
  5
6B
100
AcDbEntity
  8
LAYER0
 62
         3
100
AcDbLine
 10
60.1198919734
 20
65.2035075252
 30
0.0
 11
61.0318919734
 21
64.4985075252
 31
0.0
  0
ENDBLK
  5
6C
100
AcDbEntity
  8
0
100
AcDbBlockEnd
  0
BLOCK
  5
70
100
AcDbEntity
  8
0
100
AcDbBlockBegin
  2
CLUMP2
 70
         0
 10
0.0
 20
0.0
 30
0.0
  3

  1

  0
INSERT
  5
72
100
AcDbEntity
  8
0
100
AcDbBlockReference
  2
CLUMP3
 10
0.0
 20
0.0
 30
0.0
  0
ENDBLK
  5
89
100
AcDbEntity
  8
0
100
AcDbBlockEnd
  0
BLOCK
  5
73
100
AcDbEntity
  8
0
100
AcDbBlockBegin
  2
CLUMP3
 70
         0
 10
0.0
 20
0.0
 30
0.0
  3

  1

  0
LINE
  5
74
100
AcDbEntity
  8
LAYER0
 62
         3
100
AcDbLine
 10
46.4398919734
 20
60.6585075252
 30
0.0
 11
47.3518919734
 21
59.9535075252
 31
0.0
  0
LINE
  5
75
100
AcDbEntity
  8
LAYER0
 62
         3
100
AcDbLine
 10
47.3518919734
 20
59.9535075252
 30
0.0
 11
48.2638919734
 21
59.3385075252
 31
0.0
  0
LINE
  5
76
100
AcDbEntity
  8
LAYER0
 62
         3
100
AcDbLine
 10
48.2638919734
 20
59.3385075252
 30
0.0
 11
49.1758919734
 21
58.9035075252
 31
0.0
  0
LINE
  5
77
100
AcDbEntity
  8
LAYER0
 62
         3
100
AcDbLine
 10
49.1758919734
 20
58.9035075252
 30
0.0
 11
49.6318919734
 21
58.7816325252
 31
0.0
  0
LINE
  5
78
100
AcDbEntity
  8
LAYER0
 62
         3
100
AcDbLine
 10
49.6318919734
 20
58.7816325252
 30
0.0
 11
50.0878919734
 21
58.7385075252
 31
0.0
  0
LINE
  5
79
100
AcDbEntity
  8
LAYER0
 62
         3
100
AcDbLine
 10
50.0878919734
 20
58.7385075252
 30
0.0
 11
50.5438919734
 21
58.7816325252
 31
0.0
  0
LINE
  5
7A
100
AcDbEntity
  8
LAYER0
 62
         3
100
AcDbLine
 10
50.5438919734
 20
58.7816325252
 30
0.0
 11
50.9998919734
 21
58.9035075252
 31
0.0
  0
LINE
  5
7B
100
AcDbEntity
  8
LAYER0
 62
         3
100
AcDbLine
 10
50.9998919734
 20
58.9035075252
 30
0.0
 11
51.9118919734
 21
59.3385075252
 31
0.0
  0
LINE
  5
7C
100
AcDbEntity
  8
LAYER0
 62
         3
100
AcDbLine
 10
51.9118919734
 20
59.3385075252
 30
0.0
 11
52.8238919734
 21
59.9535075252
 31
0.0
  0
LINE
  5
7D
100
AcDbEntity
  8
LAYER0
 62
         3
100
AcDbLine
 10
52.8238919734
 20
59.9535075252
 30
0.0
 11
53.7358919734
 21
60.6585075252
 31
0.0
  0
LINE
  5
7E
100
AcDbEntity
  8
LAYER0
 62
         3
100
AcDbLine
 10
53.7358919734
 20
60.6585075252
 30
0.0
 11
54.6478919734
 21
61.3635075252
 31
0.0
  0
LINE
  5
7F
100
AcDbEntity
  8
LAYER0
 62
         3
100
AcDbLine
 10
54.6478919734
 20
61.3635075252
 30
0.0
 11
55.5598919734
 21
61.9785075252
 31
0.0
  0
LINE
  5
80
100
AcDbEntity
  8
LAYER0
 62
         3
100
AcDbLine
 10
55.5598919734
 20
61.9785075252
 30
0.0
 11
56.4718919734
 21
62.4135075252
 31
0.0
  0
LINE
  5
81
100
AcDbEntity
  8
LAYER0
 62
         3
100
AcDbLine
 10
56.4718919734
 20
62.4135075252
 30
0.0
 11
56.9278919734
 21
62.5353825252
 31
0.0
  0
LINE
  5
82
100
AcDbEntity
  8
LAYER0
 62
         3
100
AcDbLine
 10
56.9278919734
 20
62.5353825252
 30
0.0
 11
57.3838919734
 21
62.5785075252
 31
0.0
  0
LINE
  5
83
100
AcDbEntity
  8
LAYER0
 62
         3
100
AcDbLine
 10
57.3838919734
 20
62.5785075252
 30
0.0
 11
57.8398919734
 21
62.5353825252
 31
0.0
  0
LINE
  5
84
100
AcDbEntity
  8
LAYER0
 62
         3
100
AcDbLine
 10
57.8398919734
 20
62.5353825252
 30
0.0
 11
58.2958919734
 21
62.4135075252
 31
0.0
  0
LINE
  5
85
100
AcDbEntity
  8
LAYER0
 62
         3
100
AcDbLine
 10
58.2958919734
 20
62.4135075252
 30
0.0
 11
59.2078919734
 21
61.9785075252
 31
0.0
  0
LINE
  5
86
100
AcDbEntity
  8
LAYER0
 62
         3
100
AcDbLine
 10
59.2078919734
 20
61.9785075252
 30
0.0
 11
60.1198919734
 21
61.3635075252
 31
0.0
  0
LINE
  5
87
100
AcDbEntity
  8
LAYER0
 62
         3
100
AcDbLine
 10
60.1198919734
 20
61.3635075252
 30
0.0
 11
61.0318919734
 21
60.6585075252
 31
0.0
  0
ENDBLK
  5
88
100
AcDbEntity
  8
0
100
AcDbBlockEnd
  0
BLOCK
  5
106
100
AcDbEntity
  8
0
100
AcDbBlockBegin
  2
CLUMP4
 70
         0
 10
0.0
 20
0.0
 30
0.0
  3

  1

  0
INSERT
  5
108
100
AcDbEntity
  8
0
100
AcDbBlockReference
  2
CLUMP5
 10
0.0
 20
0.0
 30
0.0
  0
ENDBLK
  5
11F
100
AcDbEntity
  8
0
100
AcDbBlockEnd
  0
BLOCK
  5
109
100
AcDbEntity
  8
0
100
AcDbBlockBegin
  2
CLUMP5
 70
         0
 10
0.0
 20
0.0
 30
0.0
  3

  1

  0
ARC
  5
10A
100
AcDbEntity
  8
LAYER4
 62
         3
100
AcDbCircle
 10
56.1104730112
 20
-20.0894023352
 30
0.0
 40
1.2254189623
210
-0.0
220
0.0
230
1.0
100
AcDbArc
 50
325.5615300078
 51
25.5615310313
  0
ARC
  5
10B
100
AcDbEntity
  8
LAYER4
 62
         3
100
AcDbCircle
 10
56.1104730112
 20
-24.2474023352
 30
0.0
 40
1.2254189623
210
-0.0
220
0.0
230
1.0
100
AcDbArc
 50
334.4384689687
 51
34.4384699922
  0
LINE
  5
10C
100
AcDbEntity
  8
LAYER4
 62
         3
100
AcDbLine
 10
57.3358919734
 20
-20.0894023352
 30
0.0
 11
57.3358919734
 21
-24.2474023352
 31
0.0
  0
LINE
  5
10D
100
AcDbEntity
  8
LAYER4
 62
         3
100
AcDbLine
 10
57.3358919734
 20
-24.5684023352
 30
0.0
 11
57.3358919734
 21
-19.7684023352
 31
0.0
  0
ARC
  5
10E
100
AcDbEntity
  8
LAYER4
 62
         3
100
AcDbCircle
 10
50.7804414541
 20
-22.1684023352
 30
0.0
 40
4.5795143989
210
-0.0
220
0.0
230
1.0
100
AcDbArc
 50
342.3830308591
 51
17.6169691409
  0
LINE
  5
10F
100
AcDbEntity
  8
LAYER4
 62
         3
100
AcDbLine
 10
54.3358919734
 20
-25.5584023352
 30
0.0
 11
54.3358919734
 21
-18.7784023352
 31
0.0
  0
LINE
  5
110
100
AcDbEntity
  8
LAYER4
 62
         3
100
AcDbLine
 10
54.7558919734
 20
-25.5584023352
 30
0.0
 11
54.7558919734
 21
-18.7784023352
 31
0.0
  0
ARC
  5
111
100
AcDbEntity
  8
LAYER4
 62
         3
100
AcDbCircle
 10
52.7563775745
 20
-22.1684023352
 30
0.0
 40
4.5795143989
210
-0.0
220
0.0
230
1.0
100
AcDbArc
 50
342.3830308591
 51
17.6169691409
  0
LINE
  5
112
100
AcDbEntity
  8
LAYER4
 62
         3
100
AcDbLine
 10
57.1211176733
 20
-23.5544023352
 30
0.0
 11
55.1451815528
 21
-23.5544023352
 31
0.0
  0
LINE
  5
113
100
AcDbEntity
  8
LAYER4
 62
         3
100
AcDbLine
 10
57.1211176733
 20
-24.9404023352
 30
0.0
 11
55.1451815528
 21
-24.9404023352
 31
0.0
  0
ARC
  5
114
100
AcDbEntity
  8
LAYER4
 62
         3
100
AcDbCircle
 10
54.5458919734
 20
-25.5584023352
 30
0.0
 40
0.21
210
0.0
220
0.0
230
1.0
100
AcDbArc
 50
179.9999969295
 51
329.9999994883
  0
LINE
  5
115
100
AcDbEntity
  8
LAYER4
 62
         3
100
AcDbLine
 10
55.1451815528
 20
-24.9404023352
 30
0.0
 11
54.7277573082
 21
-25.6634023352
 31
0.0
  0
ARC
  5
116
100
AcDbEntity
  8
LAYER4
 62
         3
100
AcDbCircle
 10
54.1345368907
 20
-24.2474023352
 30
0.0
 40
1.2254189623
210
-0.0
220
0.0
230
1.0
100
AcDbArc
 50
325.5615300078
 51
34.4384699922
  0
LINE
  5
117
100
AcDbEntity
  8
LAYER4
 62
         3
100
AcDbLine
 10
57.1211176733
 20
-24.9404023352
 30
0.0
 11
57.3358919734
 21
-24.5684023352
 31
0.0
  0
LINE
  5
118
100
AcDbEntity
  8
LAYER4
 62
         3
100
AcDbLine
 10
57.1211176733
 20
-20.7824023352
 30
0.0
 11
55.1451815528
 21
-20.7824023352
 31
0.0
  0
LINE
  5
119
100
AcDbEntity
  8
LAYER4
 62
         3
100
AcDbLine
 10
57.1211176733
 20
-19.3964023352
 30
0.0
 11
55.1451815528
 21
-19.3964023352
 31
0.0
  0
ARC
  5
11A
100
AcDbEntity
  8
LAYER4
 62
         3
100
AcDbCircle
 10
54.1345368907
 20
-20.0894023352
 30
0.0
 40
1.2254189623
210
-0.0
220
0.0
230
1.0
100
AcDbArc
 50
325.5615300078
 51
34.4384699922
  0
ARC
  5
11B
100
AcDbEntity
  8
LAYER4
 62
         3
100
AcDbCircle
 10
54.5458919734
 20
-18.7784023352
 30
0.0
 40
0.21
210
0.0
220
-0.0
230
1.0
100
AcDbArc
 50
30.0000005117
 51
179.9999969295
  0
LINE
  5
11C
100
AcDbEntity
  8
LAYER4
 62
         3
100
AcDbLine
 10
55.1451815528
 20
-19.3964023352
 30
0.0
 11
54.7277573082
 21
-18.6734023352
 31
0.0
  0
LINE
  5
11D
100
AcDbEntity
  8
LAYER4
 62
         3
100
AcDbLine
 10
57.1211176733
 20
-19.3964023352
 30
0.0
 11
57.3358919734
 21
-19.7684023352
 31
0.0
  0
ENDBLK
  5
11E
100
AcDbEntity
  8
0
100
AcDbBlockEnd
  0
BLOCK
  5
172
100
AcDbEntity
  8
0
100
AcDbBlockBegin
  2
CLUMP6
 70
         0
 10
0.0
 20
0.0
 30
0.0
  3

  1

  0
INSERT
  5
174
100
AcDbEntity
  8
0
100
AcDbBlockReference
  2
CLUMP7
 10
0.0
 20
0.0
 30
0.0
  0
ENDBLK
  5
18B
100
AcDbEntity
  8
0
100
AcDbBlockEnd
  0
BLOCK
  5
175
100
AcDbEntity
  8
0
100
AcDbBlockBegin
  2
CLUMP7
 70
         0
 10
0.0
 20
0.0
 30
0.0
  3

  1

  0
LINE
  5
176
100
AcDbEntity
  8
LAYER0
 62
         3
100
AcDbLine
 10
-52.1643265017
 20
60.6585075252
 30
0.0
 11
-51.2523265017
 21
59.9535075252
 31
0.0
  0
LINE
  5
177
100
AcDbEntity
  8
LAYER0
 62
         3
100
AcDbLine
 10
-51.2523265017
 20
59.9535075252
 30
0.0
 11
-50.3403265017
 21
59.3385075252
 31
0.0
  0
LINE
  5
178
100
AcDbEntity
  8
LAYER0
 62
         3
100
AcDbLine
 10
-50.3403265017
 20
59.3385075252
 30
0.0
 11
-49.4283265017
 21
58.9035075252
 31
0.0
  0
LINE
  5
179
100
AcDbEntity
  8
LAYER0
 62
         3
100
AcDbLine
 10
-49.4283265017
 20
58.9035075252
 30
0.0
 11
-48.9723265017
 21
58.7816325252
 31
0.0
  0
LINE
  5
17A
100
AcDbEntity
  8
LAYER0
 62
         3
100
AcDbLine
 10
-48.9723265017
 20
58.7816325252
 30
0.0
 11
-48.5163265017
 21
58.7385075252
 31
0.0
  0
LINE
  5
17B
100
AcDbEntity
  8
LAYER0
 62
         3
100
AcDbLine
 10
-48.5163265017
 20
58.7385075252
 30
0.0
 11
-48.0603265017
 21
58.7816325252
 31
0.0
  0
LINE
  5
17C
100
AcDbEntity
  8
LAYER0
 62
         3
100
AcDbLine
 10
-48.0603265017
 20
58.7816325252
 30
0.0
 11
-47.6043265017
 21
58.9035075252
 31
0.0
  0
LINE
  5
17D
100
AcDbEntity
  8
LAYER0
 62
         3
100
AcDbLine
 10
-47.6043265017
 20
58.9035075252
 30
0.0
 11
-46.6923265017
 21
59.3385075252
 31
0.0
  0
LINE
  5
17E
100
AcDbEntity
  8
LAYER0
 62
         3
100
AcDbLine
 10
-46.6923265017
 20
59.3385075252
 30
0.0
 11
-45.7803265017
 21
59.9535075252
 31
0.0
  0
LINE
  5
17F
100
AcDbEntity
  8
LAYER0
 62
         3
100
AcDbLine
 10
-45.7803265017
 20
59.9535075252
 30
0.0
 11
-44.8683265017
 21
60.6585075252
 31
0.0
  0
LINE
  5
180
100
AcDbEntity
  8
LAYER0
 62
         3
100
AcDbLine
 10
-44.8683265017
 20
60.6585075252
 30
0.0
 11
-43.9563265017
 21
61.3635075252
 31
0.0
  0
LINE
  5
181
100
AcDbEntity
  8
LAYER0
 62
         3
100
AcDbLine
 10
-43.9563265017
 20
61.3635075252
 30
0.0
 11
-43.0443265017
 21
61.9785075252
 31
0.0
  0
LINE
  5
182
100
AcDbEntity
  8
LAYER0
 62
         3
100
AcDbLine
 10
-43.0443265017
 20
61.9785075252
 30
0.0
 11
-42.1323265017
 21
62.4135075252
 31
0.0
  0
LINE
  5
183
100
AcDbEntity
  8
LAYER0
 62
         3
100
AcDbLine
 10
-42.1323265017
 20
62.4135075252
 30
0.0
 11
-41.6763265017
 21
62.5353825252
 31
0.0
  0
LINE
  5
184
100
AcDbEntity
  8
LAYER0
 62
         3
100
AcDbLine
 10
-41.6763265017
 20
62.5353825252
 30
0.0
 11
-41.2203265017
 21
62.5785075252
 31
0.0
  0
LINE
  5
185
100
AcDbEntity
  8
LAYER0
 62
         3
100
AcDbLine
 10
-41.2203265017
 20
62.5785075252
 30
0.0
 11
-40.7643265017
 21
62.5353825252
 31
0.0
  0
LINE
  5
186
100
AcDbEntity
  8
LAYER0
 62
         3
100
AcDbLine
 10
-40.7643265017
 20
62.5353825252
 30
0.0
 11
-40.3083265017
 21
62.4135075252
 31
0.0
  0
LINE
  5
187
100
AcDbEntity
  8
LAYER0
 62
         3
100
AcDbLine
 10
-40.3083265017
 20
62.4135075252
 30
0.0
 11
-39.3963265017
 21
61.9785075252
 31
0.0
  0
LINE
  5
188
100
AcDbEntity
  8
LAYER0
 62
         3
100
AcDbLine
 10
-39.3963265017
 20
61.9785075252
 30
0.0
 11
-38.4843265017
 21
61.3635075252
 31
0.0
  0
LINE
  5
189
100
AcDbEntity
  8
LAYER0
 62
         3
100
AcDbLine
 10
-38.4843265017
 20
61.3635075252
 30
0.0
 11
-37.5723265017
 21
60.6585075252
 31
0.0
  0
ENDBLK
  5
18A
100
AcDbEntity
  8
0
100
AcDbBlockEnd
  0
BLOCK
  5
18E
100
AcDbEntity
  8
0
100
AcDbBlockBegin
  2
CLUMP8
 70
         0
 10
0.0
 20
0.0
 30
0.0
  3

  1

  0
INSERT
  5
190
100
AcDbEntity
  8
0
100
AcDbBlockReference
  2
CLUMP9
 10
0.0
 20
0.0
 30
0.0
  0
ENDBLK
  5
1A7
100
AcDbEntity
  8
0
100
AcDbBlockEnd
  0
BLOCK
  5
191
100
AcDbEntity
  8
0
100
AcDbBlockBegin
  2
CLUMP9
 70
         0
 10
0.0
 20
0.0
 30
0.0
  3

  1

  0
LINE
  5
192
100
AcDbEntity
  8
LAYER0
 62
         3
100
AcDbLine
 10
-52.1643265017
 20
64.4985075252
 30
0.0
 11
-51.2523265017
 21
63.7935075252
 31
0.0
  0
LINE
  5
193
100
AcDbEntity
  8
LAYER0
 62
         3
100
AcDbLine
 10
-51.2523265017
 20
63.7935075252
 30
0.0
 11
-50.3403265017
 21
63.1785075252
 31
0.0
  0
LINE
  5
194
100
AcDbEntity
  8
LAYER0
 62
         3
100
AcDbLine
 10
-50.3403265017
 20
63.1785075252
 30
0.0
 11
-49.4283265017
 21
62.7435075252
 31
0.0
  0
LINE
  5
195
100
AcDbEntity
  8
LAYER0
 62
         3
100
AcDbLine
 10
-49.4283265017
 20
62.7435075252
 30
0.0
 11
-48.9723265017
 21
62.6216325252
 31
0.0
  0
LINE
  5
196
100
AcDbEntity
  8
LAYER0
 62
         3
100
AcDbLine
 10
-48.9723265017
 20
62.6216325252
 30
0.0
 11
-48.5163265017
 21
62.5785075252
 31
0.0
  0
LINE
  5
197
100
AcDbEntity
  8
LAYER0
 62
         3
100
AcDbLine
 10
-48.5163265017
 20
62.5785075252
 30
0.0
 11
-48.0603265017
 21
62.6216325252
 31
0.0
  0
LINE
  5
198
100
AcDbEntity
  8
LAYER0
 62
         3
100
AcDbLine
 10
-48.0603265017
 20
62.6216325252
 30
0.0
 11
-47.6043265017
 21
62.7435075252
 31
0.0
  0
LINE
  5
199
100
AcDbEntity
  8
LAYER0
 62
         3
100
AcDbLine
 10
-47.6043265017
 20
62.7435075252
 30
0.0
 11
-46.6923265017
 21
63.1785075252
 31
0.0
  0
LINE
  5
19A
100
AcDbEntity
  8
LAYER0
 62
         3
100
AcDbLine
 10
-46.6923265017
 20
63.1785075252
 30
0.0
 11
-45.7803265017
 21
63.7935075252
 31
0.0
  0
LINE
  5
19B
100
AcDbEntity
  8
LAYER0
 62
         3
100
AcDbLine
 10
-45.7803265017
 20
63.7935075252
 30
0.0
 11
-44.8683265017
 21
64.4985075252
 31
0.0
  0
LINE
  5
19C
100
AcDbEntity
  8
LAYER0
 62
         3
100
AcDbLine
 10
-44.8683265017
 20
64.4985075252
 30
0.0
 11
-43.9563265017
 21
65.2035075252
 31
0.0
  0
LINE
  5
19D
100
AcDbEntity
  8
LAYER0
 62
         3
100
AcDbLine
 10
-43.9563265017
 20
65.2035075252
 30
0.0
 11
-43.0443265017
 21
65.8185075252
 31
0.0
  0
LINE
  5
19E
100
AcDbEntity
  8
LAYER0
 62
         3
100
AcDbLine
 10
-43.0443265017
 20
65.8185075252
 30
0.0
 11
-42.1323265017
 21
66.2535075252
 31
0.0
  0
LINE
  5
19F
100
AcDbEntity
  8
LAYER0
 62
         3
100
AcDbLine
 10
-42.1323265017
 20
66.2535075252
 30
0.0
 11
-41.6763265017
 21
66.3753825252
 31
0.0
  0
LINE
  5
1A0
100
AcDbEntity
  8
LAYER0
 62
         3
100
AcDbLine
 10
-41.6763265017
 20
66.3753825252
 30
0.0
 11
-41.2203265017
 21
66.4185075252
 31
0.0
  0
LINE
  5
1A1
100
AcDbEntity
  8
LAYER0
 62
         3
100
AcDbLine
 10
-41.2203265017
 20
66.4185075252
 30
0.0
 11
-40.7643265017
 21
66.3753825252
 31
0.0
  0
LINE
  5
1A2
100
AcDbEntity
  8
LAYER0
 62
         3
100
AcDbLine
 10
-40.7643265017
 20
66.3753825252
 30
0.0
 11
-40.3083265017
 21
66.2535075252
 31
0.0
  0
LINE
  5
1A3
100
AcDbEntity
  8
LAYER0
 62
         3
100
AcDbLine
 10
-40.3083265017
 20
66.2535075252
 30
0.0
 11
-39.3963265017
 21
65.8185075252
 31
0.0
  0
LINE
  5
1A4
100
AcDbEntity
  8
LAYER0
 62
         3
100
AcDbLine
 10
-39.3963265017
 20
65.8185075252
 30
0.0
 11
-38.4843265017
 21
65.2035075252
 31
0.0
  0
LINE
  5
1A5
100
AcDbEntity
  8
LAYER0
 62
         3
100
AcDbLine
 10
-38.4843265017
 20
65.2035075252
 30
0.0
 11
-37.5723265017
 21
64.4985075252
 31
0.0
  0
ENDBLK
  5
1A6
100
AcDbEntity
  8
0
100
AcDbBlockEnd
  0
BLOCK
  5
22A
100
AcDbEntity
  8
0
100
AcDbBlockBegin
  2
CLUMP10
 70
         0
 10
0.0
 20
0.0
 30
0.0
  3

  1

  0
INSERT
  5
22C
100
AcDbEntity
  8
0
100
AcDbBlockReference
  2
CLUMP11
 10
0.0
 20
0.0
 30
0.0
  0
ENDBLK
  5
243
100
AcDbEntity
  8
0
100
AcDbBlockEnd
  0
BLOCK
  5
22D
100
AcDbEntity
  8
0
100
AcDbBlockBegin
  2
CLUMP11
 70
         0
 10
0.0
 20
0.0
 30
0.0
  3

  1

  0
LINE
  5
22E
100
AcDbEntity
  8
LAYER0
 62
         3
100
AcDbLine
 10
-52.1643251927
 20
-18.0136240271
 30
0.0
 11
-51.2523251927
 21
-18.7186240271
 31
0.0
  0
LINE
  5
22F
100
AcDbEntity
  8
LAYER0
 62
         3
100
AcDbLine
 10
-51.2523251927
 20
-18.7186240271
 30
0.0
 11
-50.3403251927
 21
-19.3336240271
 31
0.0
  0
LINE
  5
230
100
AcDbEntity
  8
LAYER0
 62
         3
100
AcDbLine
 10
-50.3403251927
 20
-19.3336240271
 30
0.0
 11
-49.4283251927
 21
-19.7686240271
 31
0.0
  0
LINE
  5
231
100
AcDbEntity
  8
LAYER0
 62
         3
100
AcDbLine
 10
-49.4283251927
 20
-19.7686240271
 30
0.0
 11
-48.9723251927
 21
-19.8904990271
 31
0.0
  0
LINE
  5
232
100
AcDbEntity
  8
LAYER0
 62
         3
100
AcDbLine
 10
-48.9723251927
 20
-19.8904990271
 30
0.0
 11
-48.5163251927
 21
-19.9336240271
 31
0.0
  0
LINE
  5
233
100
AcDbEntity
  8
LAYER0
 62
         3
100
AcDbLine
 10
-48.5163251927
 20
-19.9336240271
 30
0.0
 11
-48.0603251927
 21
-19.8904990271
 31
0.0
  0
LINE
  5
234
100
AcDbEntity
  8
LAYER0
 62
         3
100
AcDbLine
 10
-48.0603251927
 20
-19.8904990271
 30
0.0
 11
-47.6043251927
 21
-19.7686240271
 31
0.0
  0
LINE
  5
235
100
AcDbEntity
  8
LAYER0
 62
         3
100
AcDbLine
 10
-47.6043251927
 20
-19.7686240271
 30
0.0
 11
-46.6923251927
 21
-19.3336240271
 31
0.0
  0
LINE
  5
236
100
AcDbEntity
  8
LAYER0
 62
         3
100
AcDbLine
 10
-46.6923251927
 20
-19.3336240271
 30
0.0
 11
-45.7803251927
 21
-18.7186240271
 31
0.0
  0
LINE
  5
237
100
AcDbEntity
  8
LAYER0
 62
         3
100
AcDbLine
 10
-45.7803251927
 20
-18.7186240271
 30
0.0
 11
-44.8683251927
 21
-18.0136240271
 31
0.0
  0
LINE
  5
238
100
AcDbEntity
  8
LAYER0
 62
         3
100
AcDbLine
 10
-44.8683251927
 20
-18.0136240271
 30
0.0
 11
-43.9563251927
 21
-17.3086240271
 31
0.0
  0
LINE
  5
239
100
AcDbEntity
  8
LAYER0
 62
         3
100
AcDbLine
 10
-43.9563251927
 20
-17.3086240271
 30
0.0
 11
-43.0443251927
 21
-16.6936240271
 31
0.0
  0
LINE
  5
23A
100
AcDbEntity
  8
LAYER0
 62
         3
100
AcDbLine
 10
-43.0443251927
 20
-16.6936240271
 30
0.0
 11
-42.1323251927
 21
-16.2586240271
 31
0.0
  0
LINE
  5
23B
100
AcDbEntity
  8
LAYER0
 62
         3
100
AcDbLine
 10
-42.1323251927
 20
-16.2586240271
 30
0.0
 11
-41.6763251927
 21
-16.1367490271
 31
0.0
  0
LINE
  5
23C
100
AcDbEntity
  8
LAYER0
 62
         3
100
AcDbLine
 10
-41.6763251927
 20
-16.1367490271
 30
0.0
 11
-41.2203251927
 21
-16.0936240271
 31
0.0
  0
LINE
  5
23D
100
AcDbEntity
  8
LAYER0
 62
         3
100
AcDbLine
 10
-41.2203251927
 20
-16.0936240271
 30
0.0
 11
-40.7643251927
 21
-16.1367490271
 31
0.0
  0
LINE
  5
23E
100
AcDbEntity
  8
LAYER0
 62
         3
100
AcDbLine
 10
-40.7643251927
 20
-16.1367490271
 30
0.0
 11
-40.3083251927
 21
-16.2586240271
 31
0.0
  0
LINE
  5
23F
100
AcDbEntity
  8
LAYER0
 62
         3
100
AcDbLine
 10
-40.3083251927
 20
-16.2586240271
 30
0.0
 11
-39.3963251927
 21
-16.6936240271
 31
0.0
  0
LINE
  5
240
100
AcDbEntity
  8
LAYER0
 62
         3
100
AcDbLine
 10
-39.3963251927
 20
-16.6936240271
 30
0.0
 11
-38.4843251927
 21
-17.3086240271
 31
0.0
  0
LINE
  5
241
100
AcDbEntity
  8
LAYER0
 62
         3
100
AcDbLine
 10
-38.4843251927
 20
-17.3086240271
 30
0.0
 11
-37.5723251927
 21
-18.0136240271
 31
0.0
  0
ENDBLK
  5
242
100
AcDbEntity
  8
0
100
AcDbBlockEnd
  0
BLOCK
  5
246
100
AcDbEntity
  8
0
100
AcDbBlockBegin
  2
CLUMP12
 70
         0
 10
0.0
 20
0.0
 30
0.0
  3

  1

  0
INSERT
  5
248
100
AcDbEntity
  8
0
100
AcDbBlockReference
  2
CLUMP13
 10
0.0
 20
0.0
 30
0.0
  0
ENDBLK
  5
25F
100
AcDbEntity
  8
0
100
AcDbBlockEnd
  0
BLOCK
  5
249
100
AcDbEntity
  8
0
100
AcDbBlockBegin
  2
CLUMP13
 70
         0
 10
0.0
 20
0.0
 30
0.0
  3

  1

  0
LINE
  5
24A
100
AcDbEntity
  8
LAYER0
 62
         3
100
AcDbLine
 10
-52.1643251927
 20
-14.1736240271
 30
0.0
 11
-51.2523251927
 21
-14.8786240271
 31
0.0
  0
LINE
  5
24B
100
AcDbEntity
  8
LAYER0
 62
         3
100
AcDbLine
 10
-51.2523251927
 20
-14.8786240271
 30
0.0
 11
-50.3403251927
 21
-15.4936240271
 31
0.0
  0
LINE
  5
24C
100
AcDbEntity
  8
LAYER0
 62
         3
100
AcDbLine
 10
-50.3403251927
 20
-15.4936240271
 30
0.0
 11
-49.4283251927
 21
-15.9286240271
 31
0.0
  0
LINE
  5
24D
100
AcDbEntity
  8
LAYER0
 62
         3
100
AcDbLine
 10
-49.4283251927
 20
-15.9286240271
 30
0.0
 11
-48.9723251927
 21
-16.0504990271
 31
0.0
  0
LINE
  5
24E
100
AcDbEntity
  8
LAYER0
 62
         3
100
AcDbLine
 10
-48.9723251927
 20
-16.0504990271
 30
0.0
 11
-48.5163251927
 21
-16.0936240271
 31
0.0
  0
LINE
  5
24F
100
AcDbEntity
  8
LAYER0
 62
         3
100
AcDbLine
 10
-48.5163251927
 20
-16.0936240271
 30
0.0
 11
-48.0603251927
 21
-16.0504990271
 31
0.0
  0
LINE
  5
250
100
AcDbEntity
  8
LAYER0
 62
         3
100
AcDbLine
 10
-48.0603251927
 20
-16.0504990271
 30
0.0
 11
-47.6043251927
 21
-15.9286240271
 31
0.0
  0
LINE
  5
251
100
AcDbEntity
  8
LAYER0
 62
         3
100
AcDbLine
 10
-47.6043251927
 20
-15.9286240271
 30
0.0
 11
-46.6923251927
 21
-15.4936240271
 31
0.0
  0
LINE
  5
252
100
AcDbEntity
  8
LAYER0
 62
         3
100
AcDbLine
 10
-46.6923251927
 20
-15.4936240271
 30
0.0
 11
-45.7803251927
 21
-14.8786240271
 31
0.0
  0
LINE
  5
253
100
AcDbEntity
  8
LAYER0
 62
         3
100
AcDbLine
 10
-45.7803251927
 20
-14.8786240271
 30
0.0
 11
-44.8683251927
 21
-14.1736240271
 31
0.0
  0
LINE
  5
254
100
AcDbEntity
  8
LAYER0
 62
         3
100
AcDbLine
 10
-44.8683251927
 20
-14.1736240271
 30
0.0
 11
-43.9563251927
 21
-13.4686240271
 31
0.0
  0
LINE
  5
255
100
AcDbEntity
  8
LAYER0
 62
         3
100
AcDbLine
 10
-43.9563251927
 20
-13.4686240271
 30
0.0
 11
-43.0443251927
 21
-12.8536240271
 31
0.0
  0
LINE
  5
256
100
AcDbEntity
  8
LAYER0
 62
         3
100
AcDbLine
 10
-43.0443251927
 20
-12.8536240271
 30
0.0
 11
-42.1323251927
 21
-12.4186240271
 31
0.0
  0
LINE
  5
257
100
AcDbEntity
  8
LAYER0
 62
         3
100
AcDbLine
 10
-42.1323251927
 20
-12.4186240271
 30
0.0
 11
-41.6763251927
 21
-12.2967490271
 31
0.0
  0
LINE
  5
258
100
AcDbEntity
  8
LAYER0
 62
         3
100
AcDbLine
 10
-41.6763251927
 20
-12.2967490271
 30
0.0
 11
-41.2203251927
 21
-12.2536240271
 31
0.0
  0
LINE
  5
259
100
AcDbEntity
  8
LAYER0
 62
         3
100
AcDbLine
 10
-41.2203251927
 20
-12.2536240271
 30
0.0
 11
-40.7643251927
 21
-12.2967490271
 31
0.0
  0
LINE
  5
25A
100
AcDbEntity
  8
LAYER0
 62
         3
100
AcDbLine
 10
-40.7643251927
 20
-12.2967490271
 30
0.0
 11
-40.3083251927
 21
-12.4186240271
 31
0.0
  0
LINE
  5
25B
100
AcDbEntity
  8
LAYER0
 62
         3
100
AcDbLine
 10
-40.3083251927
 20
-12.4186240271
 30
0.0
 11
-39.3963251927
 21
-12.8536240271
 31
0.0
  0
LINE
  5
25C
100
AcDbEntity
  8
LAYER0
 62
         3
100
AcDbLine
 10
-39.3963251927
 20
-12.8536240271
 30
0.0
 11
-38.4843251927
 21
-13.4686240271
 31
0.0
  0
LINE
  5
25D
100
AcDbEntity
  8
LAYER0
 62
         3
100
AcDbLine
 10
-38.4843251927
 20
-13.4686240271
 30
0.0
 11
-37.5723251927
 21
-14.1736240271
 31
0.0
  0
ENDBLK
  5
25E
100
AcDbEntity
  8
0
100
AcDbBlockEnd
  0
BLOCK
  5
290
100
AcDbEntity
  8
0
100
AcDbBlockBegin
  2
CLUMP14
 70
         0
 10
0.0
 20
0.0
 30
0.0
  3

  1

  0
INSERT
  5
292
100
AcDbEntity
  8
0
100
AcDbBlockReference
  2
CLUMP15
 10
0.0
 20
0.0
 30
0.0
  0
ENDBLK
  5
2A9
100
AcDbEntity
  8
0
100
AcDbBlockEnd
  0
BLOCK
  5
293
100
AcDbEntity
  8
0
100
AcDbBlockBegin
  2
CLUMP15
 70
         0
 10
0.0
 20
0.0
 30
0.0
  3

  1

  0
LINE
  5
294
100
AcDbEntity
  8
LAYER0
 62
         3
100
AcDbLine
 10
-5.5710708003
 20
60.6585075252
 30
0.0
 11
-4.6590708003
 21
59.9535075252
 31
0.0
  0
LINE
  5
295
100
AcDbEntity
  8
LAYER0
 62
         3
100
AcDbLine
 10
-4.6590708003
 20
59.9535075252
 30
0.0
 11
-3.7470708003
 21
59.3385075252
 31
0.0
  0
LINE
  5
296
100
AcDbEntity
  8
LAYER0
 62
         3
100
AcDbLine
 10
-3.7470708003
 20
59.3385075252
 30
0.0
 11
-2.8350708003
 21
58.9035075252
 31
0.0
  0
LINE
  5
297
100
AcDbEntity
  8
LAYER0
 62
         3
100
AcDbLine
 10
-2.8350708003
 20
58.9035075252
 30
0.0
 11
-2.3790708003
 21
58.7816325252
 31
0.0
  0
LINE
  5
298
100
AcDbEntity
  8
LAYER0
 62
         3
100
AcDbLine
 10
-2.3790708003
 20
58.7816325252
 30
0.0
 11
-1.9230708003
 21
58.7385075252
 31
0.0
  0
LINE
  5
299
100
AcDbEntity
  8
LAYER0
 62
         3
100
AcDbLine
 10
-1.9230708003
 20
58.7385075252
 30
0.0
 11
-1.4670708003
 21
58.7816325252
 31
0.0
  0
LINE
  5
29A
100
AcDbEntity
  8
LAYER0
 62
         3
100
AcDbLine
 10
-1.4670708003
 20
58.7816325252
 30
0.0
 11
-1.0110708003
 21
58.9035075252
 31
0.0
  0
LINE
  5
29B
100
AcDbEntity
  8
LAYER0
 62
         3
100
AcDbLine
 10
-1.0110708003
 20
58.9035075252
 30
0.0
 11
-0.0990708003
 21
59.3385075252
 31
0.0
  0
LINE
  5
29C
100
AcDbEntity
  8
LAYER0
 62
         3
100
AcDbLine
 10
-0.0990708003
 20
59.3385075252
 30
0.0
 11
0.8129291997
 21
59.9535075252
 31
0.0
  0
LINE
  5
29D
100
AcDbEntity
  8
LAYER0
 62
         3
100
AcDbLine
 10
0.8129291997
 20
59.9535075252
 30
0.0
 11
1.7249291997
 21
60.6585075252
 31
0.0
  0
LINE
  5
29E
100
AcDbEntity
  8
LAYER0
 62
         3
100
AcDbLine
 10
1.7249291997
 20
60.6585075252
 30
0.0
 11
2.6369291997
 21
61.3635075252
 31
0.0
  0
LINE
  5
29F
100
AcDbEntity
  8
LAYER0
 62
         3
100
AcDbLine
 10
2.6369291997
 20
61.3635075252
 30
0.0
 11
3.5489291997
 21
61.9785075252
 31
0.0
  0
LINE
  5
2A0
100
AcDbEntity
  8
LAYER0
 62
         3
100
AcDbLine
 10
3.5489291997
 20
61.9785075252
 30
0.0
 11
4.4609291997
 21
62.4135075252
 31
0.0
  0
LINE
  5
2A1
100
AcDbEntity
  8
LAYER0
 62
         3
100
AcDbLine
 10
4.4609291997
 20
62.4135075252
 30
0.0
 11
4.9169291997
 21
62.5353825252
 31
0.0
  0
LINE
  5
2A2
100
AcDbEntity
  8
LAYER0
 62
         3
100
AcDbLine
 10
4.9169291997
 20
62.5353825252
 30
0.0
 11
5.3729291997
 21
62.5785075252
 31
0.0
  0
LINE
  5
2A3
100
AcDbEntity
  8
LAYER0
 62
         3
100
AcDbLine
 10
5.3729291997
 20
62.5785075252
 30
0.0
 11
5.8289291997
 21
62.5353825252
 31
0.0
  0
LINE
  5
2A4
100
AcDbEntity
  8
LAYER0
 62
         3
100
AcDbLine
 10
5.8289291997
 20
62.5353825252
 30
0.0
 11
6.2849291997
 21
62.4135075252
 31
0.0
  0
LINE
  5
2A5
100
AcDbEntity
  8
LAYER0
 62
         3
100
AcDbLine
 10
6.2849291997
 20
62.4135075252
 30
0.0
 11
7.1969291997
 21
61.9785075252
 31
0.0
  0
LINE
  5
2A6
100
AcDbEntity
  8
LAYER0
 62
         3
100
AcDbLine
 10
7.1969291997
 20
61.9785075252
 30
0.0
 11
8.1089291997
 21
61.3635075252
 31
0.0
  0
LINE
  5
2A7
100
AcDbEntity
  8
LAYER0
 62
         3
100
AcDbLine
 10
8.1089291997
 20
61.3635075252
 30
0.0
 11
9.0209291997
 21
60.6585075252
 31
0.0
  0
ENDBLK
  5
2A8
100
AcDbEntity
  8
0
100
AcDbBlockEnd
  0
BLOCK
  5
2AC
100
AcDbEntity
  8
0
100
AcDbBlockBegin
  2
CLUMP16
 70
         0
 10
0.0
 20
0.0
 30
0.0
  3

  1

  0
INSERT
  5
2AE
100
AcDbEntity
  8
0
100
AcDbBlockReference
  2
CLUMP17
 10
0.0
 20
0.0
 30
0.0
  0
ENDBLK
  5
2C5
100
AcDbEntity
  8
0
100
AcDbBlockEnd
  0
BLOCK
  5
2AF
100
AcDbEntity
  8
0
100
AcDbBlockBegin
  2
CLUMP17
 70
         0
 10
0.0
 20
0.0
 30
0.0
  3

  1

  0
LINE
  5
2B0
100
AcDbEntity
  8
LAYER0
 62
         3
100
AcDbLine
 10
-5.5710708003
 20
64.4985075252
 30
0.0
 11
-4.6590708003
 21
63.7935075252
 31
0.0
  0
LINE
  5
2B1
100
AcDbEntity
  8
LAYER0
 62
         3
100
AcDbLine
 10
-4.6590708003
 20
63.7935075252
 30
0.0
 11
-3.7470708003
 21
63.1785075252
 31
0.0
  0
LINE
  5
2B2
100
AcDbEntity
  8
LAYER0
 62
         3
100
AcDbLine
 10
-3.7470708003
 20
63.1785075252
 30
0.0
 11
-2.8350708003
 21
62.7435075252
 31
0.0
  0
LINE
  5
2B3
100
AcDbEntity
  8
LAYER0
 62
         3
100
AcDbLine
 10
-2.8350708003
 20
62.7435075252
 30
0.0
 11
-2.3790708003
 21
62.6216325252
 31
0.0
  0
LINE
  5
2B4
100
AcDbEntity
  8
LAYER0
 62
         3
100
AcDbLine
 10
-2.3790708003
 20
62.6216325252
 30
0.0
 11
-1.9230708003
 21
62.5785075252
 31
0.0
  0
LINE
  5
2B5
100
AcDbEntity
  8
LAYER0
 62
         3
100
AcDbLine
 10
-1.9230708003
 20
62.5785075252
 30
0.0
 11
-1.4670708003
 21
62.6216325252
 31
0.0
  0
LINE
  5
2B6
100
AcDbEntity
  8
LAYER0
 62
         3
100
AcDbLine
 10
-1.4670708003
 20
62.6216325252
 30
0.0
 11
-1.0110708003
 21
62.7435075252
 31
0.0
  0
LINE
  5
2B7
100
AcDbEntity
  8
LAYER0
 62
         3
100
AcDbLine
 10
-1.0110708003
 20
62.7435075252
 30
0.0
 11
-0.0990708003
 21
63.1785075252
 31
0.0
  0
LINE
  5
2B8
100
AcDbEntity
  8
LAYER0
 62
         3
100
AcDbLine
 10
-0.0990708003
 20
63.1785075252
 30
0.0
 11
0.8129291997
 21
63.7935075252
 31
0.0
  0
LINE
  5
2B9
100
AcDbEntity
  8
LAYER0
 62
         3
100
AcDbLine
 10
0.8129291997
 20
63.7935075252
 30
0.0
 11
1.7249291997
 21
64.4985075252
 31
0.0
  0
LINE
  5
2BA
100
AcDbEntity
  8
LAYER0
 62
         3
100
AcDbLine
 10
1.7249291997
 20
64.4985075252
 30
0.0
 11
2.6369291997
 21
65.2035075252
 31
0.0
  0
LINE
  5
2BB
100
AcDbEntity
  8
LAYER0
 62
         3
100
AcDbLine
 10
2.6369291997
 20
65.2035075252
 30
0.0
 11
3.5489291997
 21
65.8185075252
 31
0.0
  0
LINE
  5
2BC
100
AcDbEntity
  8
LAYER0
 62
         3
100
AcDbLine
 10
3.5489291997
 20
65.8185075252
 30
0.0
 11
4.4609291997
 21
66.2535075252
 31
0.0
  0
LINE
  5
2BD
100
AcDbEntity
  8
LAYER0
 62
         3
100
AcDbLine
 10
4.4609291997
 20
66.2535075252
 30
0.0
 11
4.9169291997
 21
66.3753825252
 31
0.0
  0
LINE
  5
2BE
100
AcDbEntity
  8
LAYER0
 62
         3
100
AcDbLine
 10
4.9169291997
 20
66.3753825252
 30
0.0
 11
5.3729291997
 21
66.4185075252
 31
0.0
  0
LINE
  5
2BF
100
AcDbEntity
  8
LAYER0
 62
         3
100
AcDbLine
 10
5.3729291997
 20
66.4185075252
 30
0.0
 11
5.8289291997
 21
66.3753825252
 31
0.0
  0
LINE
  5
2C0
100
AcDbEntity
  8
LAYER0
 62
         3
100
AcDbLine
 10
5.8289291997
 20
66.3753825252
 30
0.0
 11
6.2849291997
 21
66.2535075252
 31
0.0
  0
LINE
  5
2C1
100
AcDbEntity
  8
LAYER0
 62
         3
100
AcDbLine
 10
6.2849291997
 20
66.2535075252
 30
0.0
 11
7.1969291997
 21
65.8185075252
 31
0.0
  0
LINE
  5
2C2
100
AcDbEntity
  8
LAYER0
 62
         3
100
AcDbLine
 10
7.1969291997
 20
65.8185075252
 30
0.0
 11
8.1089291997
 21
65.2035075252
 31
0.0
  0
LINE
  5
2C3
100
AcDbEntity
  8
LAYER0
 62
         3
100
AcDbLine
 10
8.1089291997
 20
65.2035075252
 30
0.0
 11
9.0209291997
 21
64.4985075252
 31
0.0
  0
ENDBLK
  5
2C4
100
AcDbEntity
  8
0
100
AcDbBlockEnd
  0
ENDSEC
  0
SECTION
  2
ENTITIES
  0
LINE
  5
2F
100
AcDbEntity
  8
LAYER3
 62
         4
100
AcDbLine
 10
58.2358919734
 20
2.8206391101
 30
0.0
 11
61.1703347756
 21
3.4443741826
 31
0.0
  0
LINE
  5
30
100
AcDbEntity
  8
LAYER3
 62
         4
100
AcDbLine
 10
58.2358919734
 20
2.8206391101
 30
0.0
 11
61.1703347756
 21
2.1969040377
 31
0.0
  0
LINE
  5
31
100
AcDbEntity
  8
LAYER3
 62
         4
100
AcDbLine
 10
74.9429113447
 20
2.8206391101
 30
0.0
 11
58.2358919734
 21
2.8206391101
 31
0.0
  0
MTEXT
  5
32
100
AcDbEntity
  8
LAYER3
100
AcDbMText
 10
66.1240396852
 20
6.6082978016
 30
0.0
 40
2.1473683357
 41
5.1292919922
 71
         1
 72
         1
  1
\W0.8;φ15
  0
LINE
  5
33
100
AcDbEntity
  8
LAYER3
 62
         4
100
AcDbLine
 10
49.2358919734
 20
2.8206391101
 30
0.0
 11
58.2358919734
 21
2.8206391101
 31
0.0
  0
LINE
  5
34
100
AcDbEntity
  8
LAYER3
 62
         4
100
AcDbLine
 10
9.0449291997
 20
128.8045199604
 30
0.0
 11
6.1104863975
 21
128.180784888
 31
0.0
  0
LINE
  5
35
100
AcDbEntity
  8
LAYER3
 62
         4
100
AcDbLine
 10
9.0449291997
 20
128.8045199604
 30
0.0
 11
6.1104863975
 21
129.4282550329
 31
0.0
  0
LINE
  5
36
100
AcDbEntity
  8
LAYER3
 62
         4
100
AcDbLine
 10
9.0449291997
 20
119.6264646274
 30
0.0
 11
9.0449291997
 21
129.8045199604
 31
0.0
  0
MTEXT
  5
37
100
AcDbEntity
  8
LAYER3
100
AcDbMText
 10
51.3358919734
 20
132.3402108901
 30
0.0
 40
2.1473683357
 41
2.5646459961
 71
         1
 72
         1
  1
\W0.8;56
  0
LINE
  5
38
100
AcDbEntity
  8
LAYER3
 62
         4
100
AcDbLine
 10
70.5358919734
 20
128.5525521987
 30
0.0
 11
67.6014491712
 21
127.9288171263
 31
0.0
  0
LINE
  5
39
100
AcDbEntity
  8
LAYER3
 62
         4
100
AcDbLine
 10
70.5358919734
 20
128.5525521987
 30
0.0
 11
67.6014491712
 21
129.1762872712
 31
0.0
  0
LINE
  5
3A
100
AcDbEntity
  8
LAYER3
 62
         4
100
AcDbLine
 10
36.9358919734
 20
128.5525521987
 30
0.0
 11
39.8703347756
 21
129.1762872712
 31
0.0
  0
LINE
  5
3B
100
AcDbEntity
  8
LAYER3
 62
         4
100
AcDbLine
 10
36.9358919734
 20
128.5525521987
 30
0.0
 11
39.8703347756
 21
127.9288171263
 31
0.0
  0
LINE
  5
3C
100
AcDbEntity
  8
LAYER3
 62
         4
100
AcDbLine
 10
36.9358919734
 20
128.5525521987
 30
0.0
 11
70.5358919734
 21
128.5525521987
 31
0.0
  0
LINE
  5
3D
100
AcDbEntity
  8
LAYER3
 62
         4
100
AcDbLine
 10
70.5358919734
 20
121.1264646274
 30
0.0
 11
70.5358919734
 21
129.5525521987
 31
0.0
  0
LINE
  5
3E
100
AcDbEntity
  8
LAYER3
 62
         4
100
AcDbLine
 10
36.9358919734
 20
121.1264646274
 30
0.0
 11
36.9358919734
 21
129.5525521987
 31
0.0
  0
LINE
  5
3F
100
AcDbEntity
  8
LAYER3
 62
         4
100
AcDbLine
 10
48.0058919734
 20
52.4582881652
 30
0.0
 11
45.0714491712
 21
51.8345530927
 31
0.0
  0
LINE
  5
40
100
AcDbEntity
  8
LAYER3
 62
         4
100
AcDbLine
 10
48.0058919734
 20
52.4582881652
 30
0.0
 11
45.0714491712
 21
53.0820232376
 31
0.0
  0
LINE
  5
42
100
AcDbEntity
  8
LAYER2
 62
         3
100
AcDbLine
 10
47.0158919734
 20
31.251418289
 30
0.0
 11
46.1158919734
 21
30.351418289
 31
0.0
  0
LINE
  5
43
100
AcDbEntity
  8
LAYER2
 62
         3
100
AcDbLine
 10
61.3558919734
 20
30.351418289
 30
0.0
 11
60.4558919734
 21
31.251418289
 31
0.0
  0
LINE
  5
44
100
AcDbEntity
  8
LAYER2
 62
         3
100
AcDbLine
 10
60.4558919734
 20
13.251418289
 30
0.0
 11
61.3558919734
 21
14.151418289
 31
0.0
  0
LINE
  5
45
100
AcDbEntity
  8
LAYER2
 62
         3
100
AcDbLine
 10
46.1158919734
 20
14.151418289
 30
0.0
 11
47.0158919734
 21
13.251418289
 31
0.0
  0
LINE
  5
46
100
AcDbEntity
  8
LAYER2
 62
         3
100
AcDbLine
 10
48.0862767311
 20
31.683764571
 30
0.0
 11
48.3358919734
 21
31.251418289
 31
0.0
  0
LINE
  5
47
100
AcDbEntity
  8
LAYER2
 62
         3
100
AcDbLine
 10
59.3855072157
 20
31.683764571
 30
0.0
 11
59.1358919734
 21
31.251418289
 31
0.0
  0
LINE
  5
48
100
AcDbEntity
  8
LAYER2
 62
         3
100
AcDbLine
 10
60.4558919734
 20
13.251418289
 30
0.0
 11
47.0158919734
 21
13.251418289
 31
0.0
  0
LINE
  5
49
100
AcDbEntity
  8
LAYER2
 62
         3
100
AcDbLine
 10
61.3558919734
 20
14.151418289
 30
0.0
 11
61.3558919734
 21
30.351418289
 31
0.0
  0
LINE
  5
4A
100
AcDbEntity
  8
LAYER2
 62
         3
100
AcDbLine
 10
60.4558919734
 20
31.251418289
 30
0.0
 11
47.0158919734
 21
31.251418289
 31
0.0
  0
LINE
  5
4C
100
AcDbEntity
  8
LAYER4
 62
         3
100
AcDbLine
 10
52.5355807637
 20
22.944418289
 30
0.0
 11
52.5355807637
 21
21.558418289
 31
0.0
  0
LINE
  5
4D
100
AcDbEntity
  8
LAYER4
 62
         3
100
AcDbLine
 10
53.7358919734
 20
23.637418289
 30
0.0
 11
52.5355807637
 21
22.944418289
 31
0.0
  0
LINE
  5
4E
100
AcDbEntity
  8
LAYER4
 62
         3
100
AcDbLine
 10
54.936203183
 20
21.558418289
 30
0.0
 11
54.936203183
 21
22.944418289
 31
0.0
  0
LINE
  5
4F
100
AcDbEntity
  8
LAYER4
 62
         3
100
AcDbLine
 10
54.936203183
 20
22.944418289
 30
0.0
 11
53.7358919734
 21
23.637418289
 31
0.0
  0
CIRCLE
  5
50
100
AcDbEntity
  8
LAYER2
 62
         3
100
AcDbCircle
 10
53.7358919734
 20
22.251418289
 30
0.0
 40
2.55
210
0.0
220
0.0
230
1.0
  0
INSERT
  5
52
100
AcDbEntity
  8
0
100
AcDbBlockReference
  2
CLUMP0
 10
0.0
 20
0.0
 30
0.0
  0
INSERT
  5
6F
100
AcDbEntity
  8
0
100
AcDbBlockReference
  2
CLUMP2
 10
0.0
 20
0.0
 30
0.0
  0
LINE
  5
8A
100
AcDbEntity
  8
LAYER3
 62
         4
100
AcDbLine
 10
43.0058919734
 20
52.4582881652
 30
0.0
 11
48.0058919734
 21
52.4582881652
 31
0.0
  0
LINE
  5
8B
100
AcDbEntity
  8
LAYER3
 62
         4
100
AcDbLine
 10
59.4658919734
 20
52.4582881652
 30
0.0
 11
62.4003347756
 21
53.0820232376
 31
0.0
  0
LINE
  5
8C
100
AcDbEntity
  8
LAYER3
 62
         4
100
AcDbLine
 10
59.4658919734
 20
52.4582881652
 30
0.0
 11
62.4003347756
 21
51.8345530927
 31
0.0
  0
LINE
  5
8D
100
AcDbEntity
  8
LAYER3
 62
         4
100
AcDbLine
 10
72.6752014894
 20
52.4582881652
 30
0.0
 11
59.4658919734
 21
52.4582881652
 31
0.0
  0
MTEXT
  5
8E
100
AcDbEntity
  8
LAYER3
100
AcDbMText
 10
63.4658919734
 20
56.2459468566
 30
0.0
 40
2.1473683357
 41
5.1292919922
 71
         1
 72
         1
  1
\W0.8;φ19
  0
LINE
  5
8F
100
AcDbEntity
  8
LAYER3
 62
         4
100
AcDbLine
 10
48.0058919734
 20
52.4582881652
 30
0.0
 11
59.4658919734
 21
52.4582881652
 31
0.0
  0
LINE
  5
90
100
AcDbEntity
  8
LAYER3
 62
         4
100
AcDbLine
 10
49.2358919734
 20
2.8206391101
 30
0.0
 11
46.3014491712
 21
2.1969040377
 31
0.0
  0
LINE
  5
91
100
AcDbEntity
  8
LAYER3
 62
         4
100
AcDbLine
 10
49.2358919734
 20
2.8206391101
 30
0.0
 11
46.3014491712
 21
3.4443741826
 31
0.0
  0
LINE
  5
92
100
AcDbEntity
  8
LAYER3
 62
         4
100
AcDbLine
 10
44.2358919734
 20
2.8206391101
 30
0.0
 11
49.2358919734
 21
2.8206391101
 31
0.0
  0
LINE
  5
93
100
AcDbEntity
  8
LAYER2
 62
         3
100
AcDbLine
 10
59.4358919734
 20
118.6264646274
 30
0.0
 11
70.5358919734
 21
118.6264646274
 31
0.0
  0
ARC
  5
94
100
AcDbEntity
  8
LAYER2
 62
         3
100
AcDbCircle
 10
53.7358919734
 20
107.5264646274
 30
0.0
 40
4.8
210
0.0
220
0.0
230
1.0
100
AcDbArc
 50
184.581217093
 51
355.4187798366
  0
LINE
  5
95
100
AcDbEntity
  8
LAYER2
 62
         3
100
AcDbLine
 10
36.9358919734
 20
120.1264646274
 30
0.0
 11
70.5358919734
 21
120.1264646274
 31
0.0
  0
LINE
  5
96
100
AcDbEntity
  8
LAYER2
 62
         3
100
AcDbLine
 10
14.9264291997
 20
19.701418289
 30
0.0
 11
14.9264291997
 21
24.801418289
 31
0.0
  0
LINE
  5
98
100
AcDbEntity
  8
LAYER12
 62
         4
100
AcDbLine
 10
9.3449291997
 20
23.457118289
 30
0.0
 11
12.2264291997
 21
23.457118289
 31
0.0
  0
LINE
  5
99
100
AcDbEntity
  8
LAYER4
 62
         3
100
AcDbLine
 10
12.2264291997
 20
23.751418289
 30
0.0
 11
9.3449291997
 21
23.751418289
 31
0.0
  0
LINE
  5
9A
100
AcDbEntity
  8
LAYER12
 62
         4
100
AcDbLine
 10
9.3449291997
 20
21.045718289
 30
0.0
 11
12.2264291997
 21
21.045718289
 31
0.0
  0
ARC
  5
9B
100
AcDbEntity
  8
LAYER2
 62
         3
100
AcDbCircle
 10
7.5449291997
 20
118.6264646274
 30
0.0
 40
1.5
210
0.0
220
-0.0
230
1.0
100
AcDbArc
 50
0.0
 51
90.0000015352
  0
LINE
  5
9C
100
AcDbEntity
  8
LAYER2
 62
         3
100
AcDbLine
 10
36.9358919734
 20
118.6264646274
 30
0.0
 11
36.9358919734
 21
120.1264646274
 31
0.0
  0
LINE
  5
9D
100
AcDbEntity
  8
LAYER2
 62
         3
100
AcDbLine
 10
46.2358919734
 20
118.6864646274
 30
0.0
 11
46.2358919734
 21
120.1264646274
 31
0.0
  0
LINE
  5
9E
100
AcDbEntity
  8
LAYER2
 62
         3
100
AcDbLine
 10
48.0358919734
 20
118.6264646274
 30
0.0
 11
48.0358919734
 21
120.1264646274
 31
0.0
  0
LINE
  5
9F
100
AcDbEntity
  8
LAYER2
 62
         3
100
AcDbLine
 10
48.0358919734
 20
118.6264646274
 30
0.0
 11
48.9512274367
 21
107.143078046
 31
0.0
  0
LINE
  5
A0
100
AcDbEntity
  8
LAYER2
 62
         3
100
AcDbLine
 10
36.9358919734
 20
118.6264646274
 30
0.0
 11
48.0358919734
 21
118.6264646274
 31
0.0
  0
LINE
  5
A1
100
AcDbEntity
  8
LAYER2
 62
         3
100
AcDbLine
 10
59.4358919734
 20
118.6264646274
 30
0.0
 11
59.4358919734
 21
120.1264646274
 31
0.0
  0
LINE
  5
A2
100
AcDbEntity
  8
LAYER2
 62
         3
100
AcDbLine
 10
61.2358919734
 20
120.1264646274
 30
0.0
 11
61.2358919734
 21
118.6864646274
 31
0.0
  0
CIRCLE
  5
A4
100
AcDbEntity
  8
LAYER10
 62
         3
100
AcDbCircle
 10
53.7358919734
 20
107.5264646274
 30
0.0
 40
1.56
210
0.0
220
0.0
230
1.0
  0
LINE
  5
A5
100
AcDbEntity
  8
LAYER2
 62
         3
100
AcDbLine
 10
59.4358919734
 20
118.6264646274
 30
0.0
 11
58.5205565102
 21
107.143078046
 31
0.0
  0
LINE
  5
A6
100
AcDbEntity
  8
LAYER2
 62
         3
100
AcDbLine
 10
70.5358919734
 20
118.6264646274
 30
0.0
 11
70.5358919734
 21
120.1264646274
 31
0.0
  0
LINE
  5
A7
100
AcDbEntity
  8
LAYER2
 62
         3
100
AcDbLine
 10
46.1158919734
 20
14.151418289
 30
0.0
 11
46.1158919734
 21
30.351418289
 31
0.0
  0
CIRCLE
  5
A8
100
AcDbEntity
  8
LAYER2
 62
         3
100
AcDbCircle
 10
53.7358919734
 20
22.251418289
 30
0.0
 40
2.25
210
0.0
220
0.0
230
1.0
  0
LINE
  5
A9
100
AcDbEntity
  8
LAYER4
 62
         3
100
AcDbLine
 10
52.5355807637
 20
21.558418289
 30
0.0
 11
53.7358919734
 21
20.865418289
 31
0.0
  0
LINE
  5
AA
100
AcDbEntity
  8
LAYER4
 62
         3
100
AcDbLine
 10
53.7358919734
 20
20.865418289
 30
0.0
 11
54.936203183
 21
21.558418289
 31
0.0
  0
CIRCLE
  5
AB
100
AcDbEntity
  8
LAYER4
 62
         3
100
AcDbCircle
 10
53.7358919734
 20
22.251418289
 30
0.0
 40
1.386
210
0.0
220
0.0
230
1.0
  0
LINE
  5
AC
100
AcDbEntity
  8
LAYER2
 62
         3
100
AcDbLine
 10
46.1158919734
 20
30.351418289
 30
0.0
 11
61.3558919734
 21
30.351418289
 31
0.0
  0
LINE
  5
AD
100
AcDbEntity
  8
LAYER2
 62
         3
100
AcDbLine
 10
46.1158919734
 20
14.151418289
 30
0.0
 11
61.3558919734
 21
14.151418289
 31
0.0
  0
LINE
  5
AE
100
AcDbEntity
  8
LAYER2
 62
         3
100
AcDbLine
 10
7.4549291997
 20
61.818881317
 30
0.0
 11
7.4549291997
 21
31.983764571
 31
0.0
  0
LINE
  5
AF
100
AcDbEntity
  8
LAYER2
 62
         3
100
AcDbLine
 10
9.0449291997
 20
118.6264646274
 30
0.0
 11
9.0449291997
 21
102.7564646274
 31
0.0
  0
ARC
  5
B0
100
AcDbEntity
  8
LAYER2
 62
         3
100
AcDbCircle
 10
51.8758919734
 20
113.2864646274
 30
0.0
 40
0.24
210
0.0
220
-0.0
230
1.0
100
AcDbArc
 50
179.9999969295
 51
0.0
  0
LINE
  5
B1
100
AcDbEntity
  8
LAYER2
 62
         3
100
AcDbLine
 10
51.5158919734
 20
112.7464646274
 30
0.0
 11
52.2358919734
 21
112.7464646274
 31
0.0
  0
ARC
  5
B2
100
AcDbEntity
  8
LAYER2
 62
         3
100
AcDbCircle
 10
51.5158919734
 20
113.0464646275
 30
0.0
 40
0.3
210
0.0
220
0.0
230
1.0
100
AcDbArc
 50
179.9999969301
 51
269.9999984642
  0
LINE
  5
B3
100
AcDbEntity
  8
LAYER2
 62
         3
100
AcDbLine
 10
52.1158919734
 20
113.2864646274
 30
0.0
 11
52.1158919734
 21
113.5264646274
 31
0.0
  0
LINE
  5
B4
100
AcDbEntity
  8
LAYER2
 62
         3
100
AcDbLine
 10
52.1158919734
 20
114.1264646274
 30
0.0
 11
52.5358919734
 21
114.1264646274
 31
0.0
  0
LINE
  5
B5
100
AcDbEntity
  8
LAYER2
 62
         3
100
AcDbLine
 10
52.1158919734
 20
113.5264646274
 30
0.0
 11
52.5358919734
 21
113.5264646274
 31
0.0
  0
ARC
  5
B6
100
AcDbEntity
  8
LAYER2
 62
         3
100
AcDbCircle
 10
52.2358919734
 20
113.0464646275
 30
0.0
 40
0.3
210
0.0
220
0.0
230
1.0
100
AcDbArc
 50
269.9999984654
 51
359.9999999994
  0
LINE
  5
B7
100
AcDbEntity
  8
LAYER2
 62
         3
100
AcDbLine
 10
14.9264291997
 20
24.801418289
 30
0.0
 11
12.2264291997
 21
24.801418289
 31
0.0
  0
ARC
  5
B8
100
AcDbEntity
  8
LAYER2
 62
         3
100
AcDbCircle
 10
14.9264291997
 20
24.501418289
 30
0.0
 40
0.3
210
0.0
220
-0.0
230
1.0
100
AcDbArc
 50
0.0
 51
90.0000015352
  0
LINE
  5
B9
100
AcDbEntity
  8
LAYER2
 62
         3
100
AcDbLine
 10
14.9264291997
 20
19.701418289
 30
0.0
 11
12.2264291997
 21
19.701418289
 31
0.0
  0
ARC
  5
BA
100
AcDbEntity
  8
LAYER2
 62
         3
100
AcDbCircle
 10
14.9264291997
 20
20.001418289
 30
0.0
 40
0.3
210
-0.0
220
0.0
230
1.0
100
AcDbArc
 50
269.9999984648
 51
0.0
  0
LINE
  5
BB
100
AcDbEntity
  8
LAYER4
 62
         3
100
AcDbLine
 10
12.2264291997
 20
19.701418289
 30
0.0
 11
12.2264291997
 21
24.801418289
 31
0.0
  0
LINE
  5
BC
100
AcDbEntity
  8
LAYER2
 62
         3
100
AcDbLine
 10
12.8264291997
 20
19.701418289
 30
0.0
 11
12.8264291997
 21
24.801418289
 31
0.0
  0
LINE
  5
BD
100
AcDbEntity
  8
LAYER4
 62
         3
100
AcDbLine
 10
15.2264291997
 20
20.001418289
 30
0.0
 11
15.2264291997
 21
24.501418289
 31
0.0
  0
ARC
  5
BE
100
AcDbEntity
  8
LAYER2
 62
         3
100
AcDbCircle
 10
51.5158919734
 20
114.6064646274
 30
0.0
 40
0.3
210
0.0
220
0.0
230
1.0
100
AcDbArc
 50
90.0000015358
 51
180.0000030703
  0
ARC
  5
BF
100
AcDbEntity
  8
LAYER2
 62
         3
100
AcDbCircle
 10
52.2358919734
 20
114.6064646274
 30
0.0
 40
0.3
210
0.0
220
-0.0
230
1.0
100
AcDbArc
 50
0.0000000002
 51
90.0000015348
  0
LINE
  5
C0
100
AcDbEntity
  8
LAYER2
 62
         3
100
AcDbLine
 10
54.3358919734
 20
114.9064646274
 30
0.0
 11
54.7950141466
 21
112.7464646274
 31
0.0
  0
LINE
  5
C1
100
AcDbEntity
  8
LAYER2
 62
         3
100
AcDbLine
 10
55.4287271861
 20
114.9064646274
 30
0.0
 11
55.6582882727
 21
113.8264646274
 31
0.0
  0
LINE
  5
C2
100
AcDbEntity
  8
LAYER4
 62
         3
100
AcDbLine
 10
12.2264291997
 20
20.751418289
 30
0.0
 11
9.3449291997
 21
20.751418289
 31
0.0
  0
LINE
  5
C3
100
AcDbEntity
  8
LAYER2
 62
         3
100
AcDbLine
 10
51.2158919734
 20
114.6064646274
 30
0.0
 11
51.2158919734
 21
113.0464646274
 31
0.0
  0
LINE
  5
C4
100
AcDbEntity
  8
LAYER2
 62
         3
100
AcDbLine
 10
52.5358919734
 20
114.1264646274
 30
0.0
 11
52.5358919734
 21
114.6064646274
 31
0.0
  0
ARC
  5
C5
100
AcDbEntity
  8
LAYER2
 62
         3
100
AcDbCircle
 10
51.8758919734
 20
114.3664646274
 30
0.0
 40
0.24
210
0.0
220
-0.0
230
1.0
100
AcDbArc
 50
0.0
 51
179.9999969295
  0
LINE
  5
C6
100
AcDbEntity
  8
LAYER2
 62
         3
100
AcDbLine
 10
52.5358919734
 20
113.0464646274
 30
0.0
 11
52.5358919734
 21
113.5264646274
 31
0.0
  0
LINE
  5
C7
100
AcDbEntity
  8
LAYER2
 62
         3
100
AcDbLine
 10
51.5158919734
 20
114.9064646274
 30
0.0
 11
52.2358919734
 21
114.9064646274
 31
0.0
  0
LINE
  5
C8
100
AcDbEntity
  8
LAYER2
 62
         3
100
AcDbLine
 10
53.1358919734
 20
114.9064646274
 30
0.0
 11
53.8558919734
 21
114.9064646274
 31
0.0
  0
LINE
  5
C9
100
AcDbEntity
  8
LAYER2
 62
         3
100
AcDbLine
 10
59.4658919734
 20
116.2264646274
 30
0.0
 11
59.2483919734
 21
116.2264646274
 31
0.0
  0
LINE
  5
CA
100
AcDbEntity
  8
LAYER2
 62
         3
100
AcDbLine
 10
8.4449291997
 20
31.251418289
 30
0.0
 11
9.3449291997
 21
30.351418289
 31
0.0
  0
LINE
  5
CB
100
AcDbEntity
  8
LAYER10
 62
         3
100
AcDbLine
 10
59.2483919734
 20
116.2264646274
 30
0.0
 11
48.2233919734
 21
116.2264646274
 31
0.0
  0
LINE
  5
CC
100
AcDbEntity
  8
LAYER2
 62
         3
100
AcDbLine
 10
48.2233919734
 20
116.2264646274
 30
0.0
 11
48.0058919734
 21
116.2264646274
 31
0.0
  0
LINE
  5
CD
100
AcDbEntity
  8
LAYER2
 62
         3
100
AcDbLine
 10
55.1630567608
 20
114.9064646274
 30
0.0
 11
54.9334956742
 21
113.8264646274
 31
0.0
  0
LINE
  5
CE
100
AcDbEntity
  8
LAYER2
 62
         3
100
AcDbLine
 10
54.7039345876
 20
114.9064646274
 30
0.0
 11
54.9334956742
 21
113.8264646274
 31
0.0
  0
LINE
  5
CF
100
AcDbEntity
  8
LAYER2
 62
         3
100
AcDbLine
 10
55.8878493593
 20
114.9064646274
 30
0.0
 11
55.6582882727
 21
113.8264646274
 31
0.0
  0
ARC
  5
D0
100
AcDbEntity
  8
LAYER2
 62
         3
100
AcDbCircle
 10
53.1358919734
 20
114.6064646274
 30
0.0
 40
0.3
210
0.0
220
0.0
230
1.0
100
AcDbArc
 50
90.0000015356
 51
179.9999969295
  0
ARC
  5
D1
100
AcDbEntity
  8
LAYER2
 62
         3
100
AcDbCircle
 10
53.8558919734
 20
114.6064646274
 30
0.0
 40
0.3
210
0.0
220
-0.0
230
1.0
100
AcDbArc
 50
0.0000000002
 51
90.000001535
  0
LINE
  5
D2
100
AcDbEntity
  8
LAYER2
 62
         3
100
AcDbLine
 10
56.2558919734
 20
114.9064646274
 30
0.0
 11
55.7967698002
 21
112.7464646274
 31
0.0
  0
LINE
  5
D3
100
AcDbEntity
  8
LAYER2
 62
         3
100
AcDbLine
 10
55.8878493593
 20
114.9064646274
 30
0.0
 11
56.2558919734
 21
114.9064646274
 31
0.0
  0
LINE
  5
D4
100
AcDbEntity
  8
LAYER2
 62
         3
100
AcDbLine
 10
53.7358919734
 20
113.2864646274
 30
0.0
 11
53.7358919734
 21
114.3664646274
 31
0.0
  0
LINE
  5
D5
100
AcDbEntity
  8
LAYER2
 62
         3
100
AcDbLine
 10
54.1558919734
 20
114.6064646274
 30
0.0
 11
54.1558919734
 21
113.0464646274
 31
0.0
  0
LINE
  5
D6
100
AcDbEntity
  8
LAYER2
 62
         3
100
AcDbLine
 10
55.2958919734
 20
113.7999008043
 30
0.0
 11
55.0719772017
 21
112.7464646274
 31
0.0
  0
ARC
  5
D7
100
AcDbEntity
  8
LAYER2
 62
         3
100
AcDbCircle
 10
53.8558919734
 20
113.0464646275
 30
0.0
 40
0.3
210
0.0
220
0.0
230
1.0
100
AcDbArc
 50
269.999998465
 51
359.9999999994
  0
LINE
  5
D8
100
AcDbEntity
  8
LAYER2
 62
         3
100
AcDbLine
 10
55.0719772017
 20
112.7464646274
 30
0.0
 11
54.7950141466
 21
112.7464646274
 31
0.0
  0
LINE
  5
D9
100
AcDbEntity
  8
LAYER2
 62
         3
100
AcDbLine
 10
55.2958919734
 20
113.7999008043
 30
0.0
 11
55.5198067451
 21
112.7464646274
 31
0.0
  0
LINE
  5
DA
100
AcDbEntity
  8
LAYER2
 62
         3
100
AcDbLine
 10
55.7967698002
 20
112.7464646274
 30
0.0
 11
55.5198067451
 21
112.7464646274
 31
0.0
  0
LINE
  5
DB
100
AcDbEntity
  8
LAYER2
 62
         3
100
AcDbLine
 10
52.1158919734
 20
114.1264646274
 30
0.0
 11
52.1158919734
 21
114.3664646274
 31
0.0
  0
LINE
  5
DC
100
AcDbEntity
  8
LAYER2
 62
         3
100
AcDbLine
 10
51.6358919734
 20
113.2864646274
 30
0.0
 11
51.6358919734
 21
114.3664646274
 31
0.0
  0
LINE
  5
DD
100
AcDbEntity
  8
LAYER4
 62
         4
100
AcDbLine
 10
7.4849291997
 20
106.0564646274
 30
0.0
 11
9.0449291997
 21
106.0564646274
 31
0.0
  0
LINE
  5
DE
100
AcDbEntity
  8
LAYER4
 62
         4
100
AcDbLine
 10
7.4849291997
 20
109.0564646274
 30
0.0
 11
9.0449291997
 21
109.0564646274
 31
0.0
  0
LINE
  5
DF
100
AcDbEntity
  8
LAYER2
 62
         3
100
AcDbLine
 10
7.4849291997
 20
118.6264646274
 30
0.0
 11
7.4849291997
 21
102.7564646274
 31
0.0
  0
CIRCLE
  5
E0
100
AcDbEntity
  8
LAYER2
 62
         3
100
AcDbCircle
 10
53.7358919734
 20
107.5264646274
 30
0.0
 40
2.7
210
0.0
220
0.0
230
1.0
  0
ARC
  5
E1
100
AcDbEntity
  8
LAYER2
 62
         3
100
AcDbCircle
 10
48.6058919734
 20
31.983764571
 30
0.0
 40
0.6
210
0.0
220
0.0
230
1.0
100
AcDbArc
 50
179.9999969295
 51
209.9999974413
  0
LINE
  5
E2
100
AcDbEntity
  8
LAYER2
 62
         3
100
AcDbLine
 10
48.0058919734
 20
59.4788981502
 30
0.0
 11
48.0058919734
 21
31.983764571
 31
0.0
  0
ARC
  5
E3
100
AcDbEntity
  8
LAYER2
 62
         3
100
AcDbCircle
 10
58.8658919734
 20
31.983764571
 30
0.0
 40
0.6
210
-0.0
220
0.0
230
1.0
100
AcDbArc
 50
329.9999994883
 51
0.0
  0
LINE
  5
E5
100
AcDbEntity
  8
LAYER7
 62
         4
100
AcDbLine
 10
48.5458919734
 20
31.983764571
 30
0.0
 11
58.8658919734
 21
31.983764571
 31
0.0
  0
LINE
  5
E6
100
AcDbEntity
  8
LAYER2
 62
         3
100
AcDbLine
 10
59.4658919734
 20
61.818881317
 30
0.0
 11
59.4658919734
 21
31.983764571
 31
0.0
  0
LINE
  5
E7
100
AcDbEntity
  8
LAYER2
 62
         3
100
AcDbLine
 10
7.4549291997
 20
116.2264646274
 30
0.0
 11
7.4549291997
 21
102.7264646274
 31
0.0
  0
LINE
  5
E8
100
AcDbEntity
  8
LAYER2
 62
         3
100
AcDbLine
 10
7.4549291997
 20
116.2264646274
 30
0.0
 11
7.4549291997
 21
65.6445272621
 31
0.0
  0
LINE
  5
E9
100
AcDbEntity
  8
LAYER2
 62
         3
100
AcDbLine
 10
7.374544442
 20
31.683764571
 30
0.0
 11
7.1249291997
 21
31.251418289
 31
0.0
  0
LINE
  5
EA
100
AcDbEntity
  8
LAYER2
 62
         3
100
AcDbLine
 10
9.3449291997
 20
14.151418289
 30
0.0
 11
9.3449291997
 21
30.351418289
 31
0.0
  0
LINE
  5
EB
100
AcDbEntity
  8
LAYER2
 62
         3
100
AcDbLine
 10
9.3449291997
 20
14.151418289
 30
0.0
 11
8.4449291997
 21
13.251418289
 31
0.0
  0
LINE
  5
EC
100
AcDbEntity
  8
LAYER2
 62
         3
100
AcDbLine
 10
48.0058919734
 20
116.2264646274
 30
0.0
 11
48.0058919734
 21
63.3524877884
 31
0.0
  0
LINE
  5
ED
100
AcDbEntity
  8
LAYER2
 62
         3
100
AcDbLine
 10
59.4658919734
 20
116.2264646274
 30
0.0
 11
59.4658919734
 21
65.6445272621
 31
0.0
  0
ARC
  5
EE
100
AcDbEntity
  8
LAYER2
 62
         3
100
AcDbCircle
 10
6.8549291997
 20
31.983764571
 30
0.0
 40
0.6
210
-0.0
220
0.0
230
1.0
100
AcDbArc
 50
329.9999994883
 51
0.0
  0
LINE
  5
EF
100
AcDbEntity
  8
LAYER2
 62
         3
100
AcDbLine
 10
7.4849291997
 20
102.7564646274
 30
0.0
 11
9.0449291997
 21
102.7564646274
 31
0.0
  0
LINE
  5
F1
100
AcDbEntity
  8
LAYER5
 62
         4
100
AcDbLine
 10
9.0449291997
 20
109.1164646274
 30
0.0
 11
7.4849291997
 21
109.1164646274
 31
0.0
  0
LINE
  5
F2
100
AcDbEntity
  8
LAYER5
 62
         4
100
AcDbLine
 10
9.0449291997
 20
105.9964646274
 30
0.0
 11
7.4849291997
 21
105.9964646274
 31
0.0
  0
LINE
  5
F3
100
AcDbEntity
  8
LAYER2
 62
         3
100
AcDbLine
 10
53.2558919734
 20
113.2864646274
 30
0.0
 11
53.2558919734
 21
114.3664646274
 31
0.0
  0
LINE
  5
F4
100
AcDbEntity
  8
LAYER2
 62
         3
100
AcDbLine
 10
52.8358919734
 20
114.6064646274
 30
0.0
 11
52.8358919734
 21
113.0464646274
 31
0.0
  0
ARC
  5
F5
100
AcDbEntity
  8
LAYER2
 62
         3
100
AcDbCircle
 10
53.1358919734
 20
113.0464646274
 30
0.0
 40
0.3
210
0.0
220
0.0
230
1.0
100
AcDbArc
 50
179.9999969297
 51
269.9999984644
  0
ARC
  5
F6
100
AcDbEntity
  8
LAYER2
 62
         3
100
AcDbCircle
 10
53.4958919734
 20
114.3664646274
 30
0.0
 40
0.24
210
0.0
220
-0.0
230
1.0
100
AcDbArc
 50
0.0
 51
179.9999969295
  0
LINE
  5
F7
100
AcDbEntity
  8
LAYER2
 62
         3
100
AcDbLine
 10
53.8558919734
 20
112.7464646274
 30
0.0
 11
53.1358919734
 21
112.7464646274
 31
0.0
  0
ARC
  5
F8
100
AcDbEntity
  8
LAYER2
 62
         3
100
AcDbCircle
 10
53.4958919734
 20
113.2864646274
 30
0.0
 40
0.24
210
0.0
220
-0.0
230
1.0
100
AcDbArc
 50
179.9999969295
 51
0.0
  0
LINE
  5
F9
100
AcDbEntity
  8
LAYER2
 62
         3
100
AcDbLine
 10
55.1630567608
 20
114.9064646274
 30
0.0
 11
55.4287271861
 21
114.9064646274
 31
0.0
  0
LINE
  5
FA
100
AcDbEntity
  8
LAYER2
 62
         3
100
AcDbLine
 10
54.3358919734
 20
114.9064646274
 30
0.0
 11
54.7039345876
 21
114.9064646274
 31
0.0
  0
LINE
  5
FB
100
AcDbEntity
  8
LAYER4
 62
         3
100
AcDbLine
 10
52.1458919734
 20
-20.6684023352
 30
0.0
 11
52.1458919734
 21
-19.6184023352
 31
0.0
  0
LINE
  5
FC
100
AcDbEntity
  8
LAYER2
 62
         3
100
AcDbLine
 10
53.1358919734
 20
-25.1684023352
 30
0.0
 11
53.1358919734
 21
-19.1684023352
 31
0.0
  0
LINE
  5
FD
100
AcDbEntity
  8
LAYER2
 62
         3
100
AcDbLine
 10
53.1358919734
 20
-25.1684023352
 30
0.0
 11
52.5358919734
 21
-25.1684023352
 31
0.0
  0
LINE
  5
FE
100
AcDbEntity
  8
LAYER2
 62
         3
100
AcDbLine
 10
53.1358919734
 20
-19.1684023352
 30
0.0
 11
52.5358919734
 21
-19.1684023352
 31
0.0
  0
LINE
  5
FF
100
AcDbEntity
  8
LAYER2
 62
         3
100
AcDbLine
 10
52.5358919734
 20
-25.1684023352
 30
0.0
 11
52.5358919734
 21
-19.1684023352
 31
0.0
  0
LINE
  5
100
100
AcDbEntity
  8
LAYER4
 62
         3
100
AcDbLine
 10
60.5758919734
 20
-20.9627023352
 30
0.0
 11
60.5758919734
 21
-23.3741023352
 31
0.0
  0
LINE
  5
101
100
AcDbEntity
  8
LAYER4
 62
         3
100
AcDbLine
 10
60.5758919734
 20
-20.6684023352
 30
0.0
 11
60.5758919734
 21
-23.6684023352
 31
0.0
  0
LINE
  5
102
100
AcDbEntity
  8
LAYER12
 62
         4
100
AcDbLine
 10
60.5758919734
 20
-23.3741023352
 30
0.0
 11
57.3358919734
 21
-23.3741023352
 31
0.0
  0
LINE
  5
103
100
AcDbEntity
  8
LAYER4
 62
         3
100
AcDbLine
 10
50.9758919734
 20
-23.6684023352
 30
0.0
 11
51.5264802087
 21
-23.6684023352
 31
0.0
  0
INSERT
  5
105
100
AcDbEntity
  8
0
100
AcDbBlockReference
  2
CLUMP4
 10
0.0
 20
0.0
 30
0.0
  0
ARC
  5
120
100
AcDbEntity
  8
LAYER4
 62
         3
100
AcDbCircle
 10
50.3253075196
 20
-20.5799049046
 30
0.0
 40
1.2
210
0.0
220
0.0
230
1.0
100
AcDbArc
 50
95.0000016205
 51
153.8163849117
  0
ARC
  5
121
100
AcDbEntity
  8
LAYER4
 62
         3
100
AcDbCircle
 10
50.3253075196
 20
-23.7568997658
 30
0.0
 40
1.2
210
0.0
220
0.0
230
1.0
100
AcDbArc
 50
206.1836150882
 51
264.9999983795
  0
ARC
  5
122
100
AcDbEntity
  8
LAYER4
 62
         3
100
AcDbCircle
 10
53.5558919734
 20
-22.1684023352
 30
0.0
 40
4.8
210
0.0
220
0.0
230
1.0
100
AcDbArc
 50
153.8163849118
 51
206.1836150882
  0
LINE
  5
123
100
AcDbEntity
  8
LAYER4
 62
         3
100
AcDbLine
 10
50.2207206283
 20
-24.9523334034
 30
0.0
 11
50.9758919734
 21
-25.0184023352
 31
0.0
  0
LINE
  5
124
100
AcDbEntity
  8
LAYER12
 62
         4
100
AcDbLine
 10
52.5358919734
 20
-23.3741023352
 30
0.0
 11
52.351490797
 21
-23.3741023352
 31
0.0
  0
LINE
  5
125
100
AcDbEntity
  8
LAYER4
 62
         3
100
AcDbLine
 10
57.3358919734
 20
-23.6684023352
 30
0.0
 11
60.5758919734
 21
-23.6684023352
 31
0.0
  0
LINE
  5
126
100
AcDbEntity
  8
LAYER12
 62
         4
100
AcDbLine
 10
52.5358919734
 20
-20.9627023352
 30
0.0
 11
51.9402931499
 21
-20.9627023352
 31
0.0
  0
LINE
  5
127
100
AcDbEntity
  8
LAYER4
 62
         3
100
AcDbLine
 10
57.3358919734
 20
-20.6684023352
 30
0.0
 11
60.5758919734
 21
-20.6684023352
 31
0.0
  0
LINE
  5
128
100
AcDbEntity
  8
LAYER2
 62
         3
100
AcDbLine
 10
52.1458919734
 20
-19.6184023352
 30
0.0
 11
51.7558919734
 21
-22.1684023352
 31
0.0
  0
LINE
  5
129
100
AcDbEntity
  8
LAYER2
 62
         3
100
AcDbLine
 10
50.9758919734
 20
-22.1684023352
 30
0.0
 11
51.3658919734
 21
-19.6184023352
 31
0.0
  0
LINE
  5
12A
100
AcDbEntity
  8
LAYER2
 62
         3
100
AcDbLine
 10
51.3658919734
 20
-24.7184023352
 30
0.0
 11
51.7558919734
 21
-22.1684023352
 31
0.0
  0
LINE
  5
12B
100
AcDbEntity
  8
LAYER4
 62
         3
100
AcDbLine
 10
9.0449291997
 20
109.0564646274
 30
0.0
 11
9.0449291997
 21
110.1964646274
 31
0.0
  0
LINE
  5
12C
100
AcDbEntity
  8
LAYER4
 62
         3
100
AcDbLine
 10
9.0449291997
 20
104.9164646274
 30
0.0
 11
9.0449291997
 21
106.0564646274
 31
0.0
  0
LINE
  5
12D
100
AcDbEntity
  8
LAYER4
 62
         3
100
AcDbLine
 10
9.0449291997
 20
106.0564646274
 30
0.0
 11
9.0449291997
 21
109.0564646274
 31
0.0
  0
ARC
  5
12E
100
AcDbEntity
  8
LAYER4
 62
         3
100
AcDbCircle
 10
8.0089291997
 20
107.5564646274
 30
0.0
 40
2.836
210
-0.0
220
0.0
230
1.0
100
AcDbArc
 50
291.4262448759
 51
68.5737551241
  0
LINE
  5
12F
100
AcDbEntity
  8
LAYER5
 62
         5
100
AcDbLine
 10
53.1358919734
 20
-20.3684023352
 30
0.0
 11
54.3358919734
 21
-20.3684023352
 31
0.0
  0
LINE
  5
130
100
AcDbEntity
  8
LAYER5
 62
         5
100
AcDbLine
 10
54.3358919734
 20
-23.9684023352
 30
0.0
 11
53.1358919734
 21
-23.9684023352
 31
0.0
  0
LINE
  5
131
100
AcDbEntity
  8
LAYER2
 62
         3
100
AcDbLine
 10
53.1358919734
 20
-26.9684023352
 30
0.0
 11
54.3358919734
 21
-26.9684023352
 31
0.0
  0
LINE
  5
132
100
AcDbEntity
  8
LAYER2
 62
         3
100
AcDbLine
 10
54.3358919734
 20
-26.9684023352
 30
0.0
 11
54.3358919734
 21
-14.6169304726
 31
0.0
  0
LINE
  5
133
100
AcDbEntity
  8
LAYER2
 62
         3
100
AcDbLine
 10
53.1358919734
 20
-26.9684023352
 30
0.0
 11
53.1358919734
 21
-11.3684023352
 31
0.0
  0
LINE
  5
134
100
AcDbEntity
  8
LAYER2
 62
         3
100
AcDbLine
 10
54.3358919734
 20
-14.6169304726
 30
0.0
 11
53.7358919734
 21
-14.3684023352
 31
0.0
  0
LINE
  5
135
100
AcDbEntity
  8
LAYER4
 62
         3
100
AcDbLine
 10
50.9758919734
 20
-20.6684023352
 30
0.0
 11
51.2053037381
 21
-20.6684023352
 31
0.0
  0
LINE
  5
136
100
AcDbEntity
  8
LAYER12
 62
         4
100
AcDbLine
 10
60.5758919734
 20
-20.9627023352
 30
0.0
 11
57.3358919734
 21
-20.9627023352
 31
0.0
  0
LINE
  5
137
100
AcDbEntity
  8
LAYER4
 62
         3
100
AcDbLine
 10
51.3658919734
 20
-24.7184023352
 30
0.0
 11
51.3658919734
 21
-23.6684023352
 31
0.0
  0
LINE
  5
138
100
AcDbEntity
  8
LAYER4
 62
         3
100
AcDbLine
 10
60.5758919734
 20
-23.6684023352
 30
0.0
 11
60.5758919734
 21
-23.3741023352
 31
0.0
  0
LINE
  5
139
100
AcDbEntity
  8
LAYER4
 62
         3
100
AcDbLine
 10
60.5758919734
 20
-20.6684023352
 30
0.0
 11
60.5758919734
 21
-20.9627023352
 31
0.0
  0
LINE
  5
13A
100
AcDbEntity
  8
LAYER2
 62
         3
100
AcDbLine
 10
54.3358919734
 20
-14.1198741978
 30
0.0
 11
53.7358919734
 21
-14.3684023352
 31
0.0
  0
LINE
  5
13B
100
AcDbEntity
  8
LAYER2
 62
         3
100
AcDbLine
 10
54.3358919734
 20
-14.1198741978
 30
0.0
 11
54.3358919734
 21
-11.3684023352
 31
0.0
  0
ARC
  5
13C
100
AcDbEntity
  8
LAYER2
 62
         3
100
AcDbCircle
 10
53.7358919734
 20
-6.908581711
 30
0.0
 40
4.5
210
0.0
220
0.0
230
1.0
100
AcDbArc
 50
179.9999969295
 51
262.3377426733
  0
LINE
  5
13D
100
AcDbEntity
  8
LAYER2
 62
         3
100
AcDbLine
 10
52.1458919734
 20
-24.7184023352
 30
0.0
 11
52.5358919734
 21
-22.1684023352
 31
0.0
  0
LINE
  5
13E
100
AcDbEntity
  8
LAYER2
 62
         3
100
AcDbLine
 10
51.7558919734
 20
-22.1684023352
 30
0.0
 11
52.5358919734
 21
-22.1684023352
 31
0.0
  0
LINE
  5
13F
100
AcDbEntity
  8
LAYER2
 62
         3
100
AcDbLine
 10
50.9758919734
 20
-22.1684023352
 30
0.0
 11
51.7558919734
 21
-22.1684023352
 31
0.0
  0
LINE
  5
140
100
AcDbEntity
  8
LAYER12
 62
         4
100
AcDbLine
 10
51.1602931499
 20
-20.9627023352
 30
0.0
 11
50.9758919734
 21
-20.9627023352
 31
0.0
  0
LINE
  5
141
100
AcDbEntity
  8
LAYER12
 62
         4
100
AcDbLine
 10
51.571490797
 20
-23.3741023352
 30
0.0
 11
50.9758919734
 21
-23.3741023352
 31
0.0
  0
LINE
  5
142
100
AcDbEntity
  8
LAYER4
 62
         3
100
AcDbLine
 10
52.3064802087
 20
-23.6684023352
 30
0.0
 11
52.5358919734
 21
-23.6684023352
 31
0.0
  0
LINE
  5
143
100
AcDbEntity
  8
LAYER4
 62
         3
100
AcDbLine
 10
51.9853037381
 20
-20.6684023352
 30
0.0
 11
52.5358919734
 21
-20.6684023352
 31
0.0
  0
LINE
  5
144
100
AcDbEntity
  8
LAYER2
 62
         3
100
AcDbLine
 10
50.9758919734
 20
-25.0184023352
 30
0.0
 11
50.9758919734
 21
-19.3184023352
 31
0.0
  0
LINE
  5
145
100
AcDbEntity
  8
LAYER2
 62
         3
100
AcDbLine
 10
51.3658919734
 20
-24.7184023352
 30
0.0
 11
52.1458919734
 21
-24.7184023352
 31
0.0
  0
LINE
  5
146
100
AcDbEntity
  8
LAYER4
 62
         3
100
AcDbLine
 10
50.2207206283
 20
-19.3844712669
 30
0.0
 11
50.9758919734
 21
-19.3184023352
 31
0.0
  0
LINE
  5
147
100
AcDbEntity
  8
LAYER2
 62
         3
100
AcDbLine
 10
51.3658919734
 20
-19.6184023352
 30
0.0
 11
52.1458919734
 21
-19.6184023352
 31
0.0
  0
LINE
  5
148
100
AcDbEntity
  8
LAYER0
 62
         4
100
AcDbLine
 10
25.0
 20
-117.5
 30
0.0
 11
25.0
 21
-92.5
 31
0.0
  0
LINE
  5
149
100
AcDbEntity
  8
LAYER0
 62
         4
100
AcDbLine
 10
60.0
 20
-117.5
 30
0.0
 11
60.0
 21
-92.5
 31
0.0
  0
LINE
  5
14A
100
AcDbEntity
  8
LAYER0
 62
         4
100
AcDbLine
 10
95.0
 20
-117.5
 30
0.0
 11
95.0
 21
-92.5
 31
0.0
  0
MTEXT
  5
14B
100
AcDbEntity
  8
LAYER0
100
AcDbMText
 10
27.3808602544
 20
-132.8866032766
 30
0.0
 40
2.4737683892
 41
17.7268336013
 71
         1
 72
         1
  1
\W0.8;大型伸縮吊棒
  0
MTEXT
  5
14C
100
AcDbEntity
  8
LAYER0
100
AcDbMText
 10
70.6744019132
 20
-133.1354167344
 30
0.0
 40
2.4737683892
 41
7.3861806672
 71
         1
 72
         1
  1
\W0.8;55762
  0
LINE
  5
14D
100
AcDbEntity
  8
LAYER0
 62
         3
100
AcDbLine
 10
60.0
 20
-125.5
 30
0.0
 11
60.0
 21
-138.5
 31
0.0
  0
MTEXT
  5
14E
100
AcDbEntity
  8
LAYER0
100
AcDbMText
 10
72.5158633528
 20
-126.7970201517
 30
0.0
 40
2.1473683357
 41
10.2585839844
 71
         1
 72
         1
  1
\W0.8;管理図番
  0
MTEXT
  5
14F
100
AcDbEntity
  8
LAYER0
100
AcDbMText
 10
32.0542682872
 20
-126.7970201517
 30
0.0
 40
2.1473683357
 41
7.6538653946
 71
         1
 72
         1
  1
\W0.8;品　名
  0
LINE
  5
150
100
AcDbEntity
  8
LAYER0
 62
         3
100
AcDbLine
 10
10.0
 20
-138.5
 30
0.0
 11
10.0
 21
-125.5
 31
0.0
  0
LINE
  5
151
100
AcDbEntity
  8
LAYER0
 62
         3
100
AcDbLine
 10
95.0
 20
-138.5
 30
0.0
 11
95.0
 21
-125.5
 31
0.0
  0
MTEXT
  5
152
100
AcDbEntity
  8
LAYER0
100
AcDbMText
 10
38.3427557598
 20
-113.5319626402
 30
0.0
 40
2.4737683892
 41
4.4317084003
 71
         1
 72
         1
  1
\W0.8;340
  0
MTEXT
  5
153
100
AcDbEntity
  8
LAYER0
100
AcDbMText
 10
38.3427557598
 20
-108.5319626402
 30
0.0
 40
2.4737683892
 41
4.4317084003
 71
         1
 72
         1
  1
\W0.8;520
  0
MTEXT
  5
154
100
AcDbEntity
  8
LAYER0
100
AcDbMText
 10
38.3427557598
 20
-103.5319626402
 30
0.0
 40
2.4737683892
 41
4.4317084003
 71
         1
 72
         1
  1
\W0.8;880
  0
MTEXT
  5
155
100
AcDbEntity
  8
LAYER0
100
AcDbMText
 10
72.8666133849
 20
-113.4148118478
 30
0.0
 40
2.4737683892
 41
4.4317084003
 71
         1
 72
         1
  1
\W0.8;235
  0
MTEXT
  5
156
100
AcDbEntity
  8
LAYER0
100
AcDbMText
 10
72.8666133849
 20
-108.4148118478
 30
0.0
 40
2.4737683892
 41
4.4317084003
 71
         1
 72
         1
  1
\W0.8;325
  0
MTEXT
  5
157
100
AcDbEntity
  8
LAYER0
100
AcDbMText
 10
72.8666133849
 20
-103.4148118478
 30
0.0
 40
2.4737683892
 41
4.4317084003
 71
         1
 72
         1
  1
\W0.8;505
  0
MTEXT
  5
158
100
AcDbEntity
  8
LAYER0
100
AcDbMText
 10
72.8666133849
 20
-98.4148118478
 30
0.0
 40
2.4737683892
 41
4.4317084003
 71
         1
 72
         1
  1
\W0.8;865
  0
MTEXT
  5
159
100
AcDbEntity
  8
LAYER0
100
AcDbMText
 10
36.9603557598
 20
-98.5319626402
 30
0.0
 40
2.4737683892
 41
5.9089445338
 71
         1
 72
         1
  1
\W0.8;1600
  0
MTEXT
  5
15A
100
AcDbEntity
  8
LAYER0
100
AcDbMText
 10
36.5776079022
 20
-93.68931822
 30
0.0
 40
2.1473683357
 41
14.1055529785
 71
         1
 72
         1
  1
\W0.8;Ｌ1（ｍｍ）
  0
MTEXT
  5
15B
100
AcDbEntity
  8
LAYER0
100
AcDbMText
 10
71.311989129
 20
-93.5605211547
 30
0.0
 40
2.1473683357
 41
14.1055529785
 71
         1
 72
         1
  1
\W0.8;Ｌ2（ｍｍ）
  0
LINE
  5
15C
100
AcDbEntity
  8
LAYER2
 62
         3
100
AcDbLine
 10
8.4509291997
 20
-11.3684023352
 30
0.0
 11
8.4509291997
 21
-23.9684023352
 31
0.0
  0
LINE
  5
15D
100
AcDbEntity
  8
LAYER2
 62
         3
100
AcDbLine
 10
8.4509291997
 20
-11.3684023352
 30
0.0
 11
6.2249291997
 21
-6.908581711
 31
0.0
  0
ARC
  5
15E
100
AcDbEntity
  8
LAYER2
 62
         3
100
AcDbCircle
 10
5.4509291997
 20
-23.9684023352
 30
0.0
 40
3.0
210
-0.0
220
0.0
230
1.0
100
AcDbArc
 50
269.9999984648
 51
0.0
  0
LINE
  5
15F
100
AcDbEntity
  8
LAYER4
 62
         3
100
AcDbLine
 10
3.2434707335
 20
-22.3553023352
 30
0.0
 11
3.2434707335
 21
-21.9815023352
 31
0.0
  0
ARC
  5
160
100
AcDbEntity
  8
LAYER2
 62
         3
100
AcDbCircle
 10
53.7358919734
 20
-6.908581711
 30
0.0
 40
4.5
210
-0.0
220
0.0
230
1.0
100
AcDbArc
 50
277.6622542563
 51
0.0
  0
LINE
  5
161
100
AcDbEntity
  8
LAYER4
 62
         3
100
AcDbLine
 10
-50.6283265017
 20
109.0264646274
 30
0.0
 11
-50.5983265017
 21
109.0264646274
 31
0.0
  0
LINE
  5
162
100
AcDbEntity
  8
LAYER5
 62
         4
100
AcDbLine
 10
-52.1883265017
 20
109.0264646274
 30
0.0
 11
-50.6283265017
 21
109.0264646274
 31
0.0
  0
LINE
  5
163
100
AcDbEntity
  8
LAYER5
 62
         4
100
AcDbLine
 10
-50.6283265017
 20
109.0864646274
 30
0.0
 11
-52.1883265017
 21
109.0864646274
 31
0.0
  0
LINE
  5
164
100
AcDbEntity
  8
LAYER2
 62
         3
100
AcDbLine
 10
-52.1883265017
 20
102.7265421468
 30
0.0
 11
-50.6283265017
 21
102.7265421468
 31
0.0
  0
LINE
  5
165
100
AcDbEntity
  8
LAYER4
 62
         3
100
AcDbLine
 10
-52.1883265017
 20
104.8865421468
 30
0.0
 11
-52.1883265017
 21
106.0265421468
 31
0.0
  0
LINE
  5
166
100
AcDbEntity
  8
LAYER4
 62
         3
100
AcDbLine
 10
-50.6283265017
 20
106.0264646274
 30
0.0
 11
-50.5983265017
 21
106.0264646274
 31
0.0
  0
LINE
  5
167
100
AcDbEntity
  8
LAYER5
 62
         4
100
AcDbLine
 10
-52.1883265017
 20
106.0264646274
 30
0.0
 11
-50.6283265017
 21
106.0264646274
 31
0.0
  0
LINE
  5
168
100
AcDbEntity
  8
LAYER5
 62
         4
100
AcDbLine
 10
-50.6283265017
 20
105.9664646274
 30
0.0
 11
-52.1883265017
 21
105.9664646274
 31
0.0
  0
ARC
  5
169
100
AcDbEntity
  8
LAYER4
 62
         3
100
AcDbCircle
 10
-51.1523265017
 20
107.5265421468
 30
0.0
 40
2.836
210
0.0
220
0.0
230
1.0
100
AcDbArc
 50
111.4262479463
 51
248.5737520537
  0
LINE
  5
16A
100
AcDbEntity
  8
LAYER4
 62
         3
100
AcDbLine
 10
-52.1883265017
 20
106.0265421468
 30
0.0
 11
-52.1883265017
 21
109.0265421468
 31
0.0
  0
LINE
  5
16B
100
AcDbEntity
  8
LAYER5
 62
         4
100
AcDbLine
 10
-37.5483265017
 20
109.1164646274
 30
0.0
 11
-39.1083265017
 21
109.1164646274
 31
0.0
  0
LINE
  5
16C
100
AcDbEntity
  8
LAYER4
 62
         4
100
AcDbLine
 10
-39.1083265017
 20
109.0564646274
 30
0.0
 11
-37.5483265017
 21
109.0564646274
 31
0.0
  0
LINE
  5
16D
100
AcDbEntity
  8
LAYER3
 62
         4
100
AcDbLine
 10
-73.2141325352
 20
120.1264646274
 30
0.0
 11
-72.5903974628
 21
117.1920218252
 31
0.0
  0
LINE
  5
16E
100
AcDbEntity
  8
LAYER3
 62
         4
100
AcDbLine
 10
-73.2141325352
 20
120.1264646274
 30
0.0
 11
-73.8378676077
 21
117.1920218252
 31
0.0
  0
LINE
  5
16F
100
AcDbEntity
  8
LAYER3
 62
         4
100
AcDbLine
 10
-51.6883265017
 20
120.1264646274
 30
0.0
 11
-74.2141325352
 21
120.1264646274
 31
0.0
  0
INSERT
  5
171
100
AcDbEntity
  8
0
100
AcDbBlockReference
  2
CLUMP6
 10
0.0
 20
0.0
 30
0.0
  0
INSERT
  5
18D
100
AcDbEntity
  8
0
100
AcDbBlockReference
  2
CLUMP8
 10
0.0
 20
0.0
 30
0.0
  0
MTEXT
  5
1A8
100
AcDbEntity
  8
LAYER3
100
AcDbMText
 10
-24.8444645546
 20
46.5790310714
 30
0.0
 40
2.1473683357
 41
2.5646459961
 71
         1
 72
         1
  1
\W0.8;L1
 11
-0.0000000268
 21
1.0
 31
0.0
  0
LINE
  5
1A9
100
AcDbEntity
  8
LAYER3
 62
         4
100
AcDbLine
 10
-21.0568058632
 20
120.1264646274
 30
0.0
 11
-20.4330707908
 21
117.1920218252
 31
0.0
  0
LINE
  5
1AA
100
AcDbEntity
  8
LAYER3
 62
         4
100
AcDbLine
 10
-21.0568058632
 20
120.1264646274
 30
0.0
 11
-21.6805409357
 21
117.1920218252
 31
0.0
  0
LINE
  5
1AB
100
AcDbEntity
  8
LAYER3
 62
         4
100
AcDbLine
 10
-5.0950708003
 20
120.1264646274
 30
0.0
 11
-22.0568058632
 21
120.1264646274
 31
0.0
  0
MTEXT
  5
1AC
100
AcDbEntity
  8
LAYER3
100
AcDbMText
 10
-77.0017912266
 20
26.2264645527
 30
0.0
 40
2.1473683357
 41
2.5646459961
 71
         1
 72
         1
  1
\W0.8;L2
 11
-0.0000000268
 21
1.0
 31
0.0
  0
LINE
  5
1AD
100
AcDbEntity
  8
LAYER3
 62
         4
100
AcDbLine
 10
-5.5950708003
 20
128.8045199604
 30
0.0
 11
-2.6606279981
 21
129.4282550329
 31
0.0
  0
LINE
  5
1AE
100
AcDbEntity
  8
LAYER3
 62
         4
100
AcDbLine
 10
-5.5950708003
 20
128.8045199604
 30
0.0
 11
-2.6606279981
 21
128.180784888
 31
0.0
  0
LINE
  5
1AF
100
AcDbEntity
  8
LAYER3
 62
         4
100
AcDbLine
 10
-5.5950708003
 20
119.6264646274
 30
0.0
 11
-5.5950708003
 21
129.8045199604
 31
0.0
  0
LINE
  5
1B0
100
AcDbEntity
  8
LAYER4
 62
         4
100
AcDbLine
 10
-39.1083265017
 20
106.0564646274
 30
0.0
 11
-37.5483265017
 21
106.0564646274
 31
0.0
  0
ARC
  5
1B1
100
AcDbEntity
  8
LAYER2
 62
         3
100
AcDbCircle
 10
-58.0698265017
 20
24.501418289
 30
0.0
 40
0.3
210
0.0
220
0.0
230
1.0
100
AcDbArc
 50
90.0000015352
 51
179.9999969295
  0
LINE
  5
1B2
100
AcDbEntity
  8
LAYER2
 62
         3
100
AcDbLine
 10
-58.0698265017
 20
19.701418289
 30
0.0
 11
-55.3698265017
 21
19.701418289
 31
0.0
  0
ARC
  5
1B3
100
AcDbEntity
  8
LAYER2
 62
         3
100
AcDbCircle
 10
-58.0698265017
 20
20.001418289
 30
0.0
 40
0.3
210
0.0
220
0.0
230
1.0
100
AcDbArc
 50
179.9999969295
 51
269.9999984648
  0
LINE
  5
1B4
100
AcDbEntity
  8
LAYER4
 62
         3
100
AcDbLine
 10
-55.3698265017
 20
19.701418289
 30
0.0
 11
-55.3698265017
 21
24.801418289
 31
0.0
  0
LINE
  5
1B5
100
AcDbEntity
  8
LAYER2
 62
         3
100
AcDbLine
 10
-55.9698265017
 20
19.701418289
 30
0.0
 11
-55.9698265017
 21
24.801418289
 31
0.0
  0
LINE
  5
1B6
100
AcDbEntity
  8
LAYER4
 62
         3
100
AcDbLine
 10
-58.3698265017
 20
20.001418289
 30
0.0
 11
-58.3698265017
 21
24.501418289
 31
0.0
  0
LINE
  5
1B7
100
AcDbEntity
  8
LAYER2
 62
         3
100
AcDbLine
 10
-58.0698265017
 20
19.701418289
 30
0.0
 11
-58.0698265017
 21
24.801418289
 31
0.0
  0
LINE
  5
1B8
100
AcDbEntity
  8
LAYER4
 62
         3
100
AcDbLine
 10
-37.5483265017
 20
104.9164646274
 30
0.0
 11
-37.5483265017
 21
106.0564646274
 31
0.0
  0
LINE
  5
1B9
100
AcDbEntity
  8
LAYER4
 62
         3
100
AcDbLine
 10
-37.5483265017
 20
106.0564646274
 30
0.0
 11
-37.5483265017
 21
109.0564646274
 31
0.0
  0
ARC
  5
1BA
100
AcDbEntity
  8
LAYER4
 62
         3
100
AcDbCircle
 10
-38.5843265017
 20
107.5564646274
 30
0.0
 40
2.836
210
-0.0
220
0.0
230
1.0
100
AcDbArc
 50
291.4262448759
 51
68.5737551241
  0
LINE
  5
1BB
100
AcDbEntity
  8
LAYER5
 62
         4
100
AcDbLine
 10
-50.5983265017
 20
109.0264646274
 30
0.0
 11
-39.1383265017
 21
109.0264646274
 31
0.0
  0
LINE
  5
1BC
100
AcDbEntity
  8
LAYER5
 62
         4
100
AcDbLine
 10
-50.5983265017
 20
106.0264646274
 30
0.0
 11
-39.1383265017
 21
106.0264646274
 31
0.0
  0
ARC
  5
1BD
100
AcDbEntity
  8
LAYER2
 62
         3
100
AcDbCircle
 10
-4.0950708003
 20
118.6264646274
 30
0.0
 40
1.5
210
0.0
220
0.0
230
1.0
100
AcDbArc
 50
90.0000015352
 51
179.9999969295
  0
ARC
  5
1BE
100
AcDbEntity
  8
LAYER2
 62
         3
100
AcDbCircle
 10
-50.6883265017
 20
118.6264646274
 30
0.0
 40
1.5
210
0.0
220
0.0
230
1.0
100
AcDbArc
 50
90.0000015352
 51
179.9999969295
  0
LINE
  5
1BF
100
AcDbEntity
  8
LAYER2
 62
         3
100
AcDbLine
 10
-50.6283265017
 20
118.6265421468
 30
0.0
 11
-50.6283265017
 21
102.7265421468
 31
0.0
  0
LINE
  5
1C0
100
AcDbEntity
  8
LAYER2
 62
         3
100
AcDbLine
 10
-52.1883265017
 20
118.6264646274
 30
0.0
 11
-52.1883265017
 21
102.7265421468
 31
0.0
  0
ARC
  5
1C1
100
AcDbEntity
  8
LAYER2
 62
         3
100
AcDbCircle
 10
-39.0483265017
 20
118.6264646274
 30
0.0
 40
1.5
210
0.0
220
-0.0
230
1.0
100
AcDbArc
 50
0.0
 51
90.0000015352
  0
LINE
  5
1C2
100
AcDbEntity
  8
LAYER2
 62
         3
100
AcDbLine
 10
-31.6668265017
 20
24.801418289
 30
0.0
 11
-34.3668265017
 21
24.801418289
 31
0.0
  0
LINE
  5
1C3
100
AcDbEntity
  8
LAYER2
 62
         3
100
AcDbLine
 10
-58.0698265017
 20
24.801418289
 30
0.0
 11
-55.3698265017
 21
24.801418289
 31
0.0
  0
LINE
  5
1C4
100
AcDbEntity
  8
LAYER2
 62
         3
100
AcDbLine
 10
-37.5483265017
 20
118.6264646274
 30
0.0
 11
-37.5483265017
 21
102.7564646274
 31
0.0
  0
LINE
  5
1C5
100
AcDbEntity
  8
LAYER2
 62
         3
100
AcDbLine
 10
-39.1083265017
 20
118.6264646274
 30
0.0
 11
-39.1083265017
 21
102.7564646274
 31
0.0
  0
LINE
  5
1C6
100
AcDbEntity
  8
LAYER2
 62
         3
100
AcDbLine
 10
-39.1083265017
 20
118.6264646274
 30
0.0
 11
-50.6283265017
 21
118.6264646274
 31
0.0
  0
LINE
  5
1C7
100
AcDbEntity
  8
LAYER2
 62
         3
100
AcDbLine
 10
-50.6883265017
 20
120.1264646274
 30
0.0
 11
-39.0483265017
 21
120.1264646274
 31
0.0
  0
LINE
  5
1C8
100
AcDbEntity
  8
LAYER4
 62
         3
100
AcDbLine
 10
-52.1883265017
 20
109.0265421468
 30
0.0
 11
-52.1883265017
 21
110.1665421468
 31
0.0
  0
LINE
  5
1C9
100
AcDbEntity
  8
LAYER12
 62
         4
100
AcDbLine
 10
-52.4883265017
 20
23.457118289
 30
0.0
 11
-55.3698265017
 21
23.457118289
 31
0.0
  0
LINE
  5
1CA
100
AcDbEntity
  8
LAYER4
 62
         3
100
AcDbLine
 10
-55.3698265017
 20
23.751418289
 30
0.0
 11
-52.4883265017
 21
23.751418289
 31
0.0
  0
ARC
  5
1CB
100
AcDbEntity
  8
LAYER2
 62
         3
100
AcDbCircle
 10
-11.4765708003
 20
24.501418289
 30
0.0
 40
0.3
210
0.0
220
0.0
230
1.0
100
AcDbArc
 50
90.0000015352
 51
179.9999969295
  0
ARC
  5
1CC
100
AcDbEntity
  8
LAYER2
 62
         3
100
AcDbCircle
 10
-11.4765708003
 20
20.001418289
 30
0.0
 40
0.3
210
0.0
220
0.0
230
1.0
100
AcDbArc
 50
179.9999969295
 51
269.9999984648
  0
LINE
  5
1CD
100
AcDbEntity
  8
LAYER2
 62
         3
100
AcDbLine
 10
-11.4765708003
 20
19.701418289
 30
0.0
 11
-11.4765708003
 21
24.801418289
 31
0.0
  0
LINE
  5
1CE
100
AcDbEntity
  8
LAYER4
 62
         3
100
AcDbLine
 10
-11.7765708003
 20
20.001418289
 30
0.0
 11
-11.7765708003
 21
24.501418289
 31
0.0
  0
LINE
  5
1CF
100
AcDbEntity
  8
LAYER2
 62
         3
100
AcDbLine
 10
-9.3765708003
 20
19.701418289
 30
0.0
 11
-9.3765708003
 21
24.801418289
 31
0.0
  0
LINE
  5
1D0
100
AcDbEntity
  8
LAYER4
 62
         3
100
AcDbLine
 10
-8.7765708003
 20
19.701418289
 30
0.0
 11
-8.7765708003
 21
24.801418289
 31
0.0
  0
LINE
  5
1D1
100
AcDbEntity
  8
LAYER4
 62
         3
100
AcDbLine
 10
-8.7765708003
 20
20.751418289
 30
0.0
 11
-5.8950708003
 21
20.751418289
 31
0.0
  0
LINE
  5
1D2
100
AcDbEntity
  8
LAYER12
 62
         4
100
AcDbLine
 10
-5.8950708003
 20
21.045718289
 30
0.0
 11
-8.7765708003
 21
21.045718289
 31
0.0
  0
LINE
  5
1D3
100
AcDbEntity
  8
LAYER4
 62
         3
100
AcDbLine
 10
-8.7765708003
 20
23.751418289
 30
0.0
 11
-5.8950708003
 21
23.751418289
 31
0.0
  0
LINE
  5
1D4
100
AcDbEntity
  8
LAYER4
 62
         3
100
AcDbLine
 10
-34.3668265017
 20
23.751418289
 30
0.0
 11
-37.2483265017
 21
23.751418289
 31
0.0
  0
LINE
  5
1D5
100
AcDbEntity
  8
LAYER12
 62
         4
100
AcDbLine
 10
-37.2483265017
 20
23.457118289
 30
0.0
 11
-34.3668265017
 21
23.457118289
 31
0.0
  0
LINE
  5
1D6
100
AcDbEntity
  8
LAYER12
 62
         4
100
AcDbLine
 10
-37.2483265017
 20
21.045718289
 30
0.0
 11
-34.3668265017
 21
21.045718289
 31
0.0
  0
LINE
  5
1D7
100
AcDbEntity
  8
LAYER4
 62
         3
100
AcDbLine
 10
-34.3668265017
 20
20.751418289
 30
0.0
 11
-37.2483265017
 21
20.751418289
 31
0.0
  0
LINE
  5
1D8
100
AcDbEntity
  8
LAYER4
 62
         3
100
AcDbLine
 10
-34.3668265017
 20
19.701418289
 30
0.0
 11
-34.3668265017
 21
24.801418289
 31
0.0
  0
ARC
  5
1D9
100
AcDbEntity
  8
LAYER2
 62
         3
100
AcDbCircle
 10
-31.6668265017
 20
24.501418289
 30
0.0
 40
0.3
210
0.0
220
-0.0
230
1.0
100
AcDbArc
 50
0.0
 51
90.0000015352
  0
ARC
  5
1DA
100
AcDbEntity
  8
LAYER2
 62
         3
100
AcDbCircle
 10
-31.6668265017
 20
20.001418289
 30
0.0
 40
0.3
210
-0.0
220
0.0
230
1.0
100
AcDbArc
 50
269.9999984648
 51
0.0
  0
LINE
  5
1DB
100
AcDbEntity
  8
LAYER2
 62
         3
100
AcDbLine
 10
-31.6668265017
 20
19.701418289
 30
0.0
 11
-31.6668265017
 21
24.801418289
 31
0.0
  0
LINE
  5
1DC
100
AcDbEntity
  8
LAYER4
 62
         3
100
AcDbLine
 10
-31.3668265017
 20
20.001418289
 30
0.0
 11
-31.3668265017
 21
24.501418289
 31
0.0
  0
LINE
  5
1DD
100
AcDbEntity
  8
LAYER2
 62
         3
100
AcDbLine
 10
-33.7668265017
 20
19.701418289
 30
0.0
 11
-33.7668265017
 21
24.801418289
 31
0.0
  0
LINE
  5
1DE
100
AcDbEntity
  8
LAYER2
 62
         3
100
AcDbLine
 10
-31.6668265017
 20
19.701418289
 30
0.0
 11
-34.3668265017
 21
19.701418289
 31
0.0
  0
LINE
  5
1DF
100
AcDbEntity
  8
LAYER4
 62
         3
100
AcDbLine
 10
-37.5483265017
 20
109.0564646274
 30
0.0
 11
-37.5483265017
 21
110.1964646274
 31
0.0
  0
LINE
  5
1E0
100
AcDbEntity
  8
LAYER2
 62
         3
100
AcDbLine
 10
-39.1083265017
 20
102.7564646274
 30
0.0
 11
-37.5483265017
 21
102.7564646274
 31
0.0
  0
LINE
  5
1E1
100
AcDbEntity
  8
LAYER5
 62
         4
100
AcDbLine
 10
-37.5483265017
 20
105.9964646274
 30
0.0
 11
-39.1083265017
 21
105.9964646274
 31
0.0
  0
LINE
  5
1E2
100
AcDbEntity
  8
LAYER2
 62
         3
100
AcDbLine
 10
-50.517941744
 20
31.683764571
 30
0.0
 11
-50.2683265017
 21
31.251418289
 31
0.0
  0
LINE
  5
1E3
100
AcDbEntity
  8
LAYER2
 62
         3
100
AcDbLine
 10
-39.2187112595
 20
31.683764571
 30
0.0
 11
-39.4683265017
 21
31.251418289
 31
0.0
  0
ARC
  5
1E4
100
AcDbEntity
  8
LAYER2
 62
         3
100
AcDbCircle
 10
-39.7383265017
 20
31.983764571
 30
0.0
 40
0.6
210
-0.0
220
0.0
230
1.0
100
AcDbArc
 50
329.9999994883
 51
0.0
  0
LINE
  5
1E5
100
AcDbEntity
  8
LAYER2
 62
         3
100
AcDbLine
 10
-5.5950708003
 20
102.7265421468
 30
0.0
 11
-4.0350708003
 21
102.7265421468
 31
0.0
  0
LINE
  5
1E6
100
AcDbEntity
  8
LAYER2
 62
         3
100
AcDbLine
 10
-4.0350708003
 20
118.6265421468
 30
0.0
 11
-4.0350708003
 21
102.7265421468
 31
0.0
  0
LINE
  5
1E7
100
AcDbEntity
  8
LAYER5
 62
         4
100
AcDbLine
 10
-4.0350708003
 20
105.9664646274
 30
0.0
 11
-5.5950708003
 21
105.9664646274
 31
0.0
  0
LINE
  5
1E8
100
AcDbEntity
  8
LAYER5
 62
         4
100
AcDbLine
 10
-4.0350708003
 20
109.0864646274
 30
0.0
 11
-5.5950708003
 21
109.0864646274
 31
0.0
  0
LINE
  5
1E9
100
AcDbEntity
  8
LAYER2
 62
         3
100
AcDbLine
 10
-52.4883265017
 20
30.351418289
 30
0.0
 11
-37.2483265017
 21
30.351418289
 31
0.0
  0
LINE
  5
1EA
100
AcDbEntity
  8
LAYER2
 62
         3
100
AcDbLine
 10
-52.4883265017
 20
14.151418289
 30
0.0
 11
-37.2483265017
 21
14.151418289
 31
0.0
  0
LINE
  5
1EB
100
AcDbEntity
  8
LAYER2
 62
         3
100
AcDbLine
 10
-51.5883265017
 20
31.251418289
 30
0.0
 11
-52.4883265017
 21
30.351418289
 31
0.0
  0
LINE
  5
1EC
100
AcDbEntity
  8
LAYER2
 62
         3
100
AcDbLine
 10
-37.2483265017
 20
30.351418289
 30
0.0
 11
-38.1483265017
 21
31.251418289
 31
0.0
  0
LINE
  5
1ED
100
AcDbEntity
  8
LAYER2
 62
         3
100
AcDbLine
 10
-38.1483265017
 20
13.251418289
 30
0.0
 11
-37.2483265017
 21
14.151418289
 31
0.0
  0
LINE
  5
1EE
100
AcDbEntity
  8
LAYER2
 62
         3
100
AcDbLine
 10
-51.5883265017
 20
13.251418289
 30
0.0
 11
-52.4883265017
 21
14.151418289
 31
0.0
  0
LINE
  5
1EF
100
AcDbEntity
  8
LAYER2
 62
         3
100
AcDbLine
 10
-38.1483265017
 20
13.251418289
 30
0.0
 11
-51.5883265017
 21
13.251418289
 31
0.0
  0
LINE
  5
1F0
100
AcDbEntity
  8
LAYER2
 62
         3
100
AcDbLine
 10
-37.2483265017
 20
14.151418289
 30
0.0
 11
-37.2483265017
 21
30.351418289
 31
0.0
  0
LINE
  5
1F1
100
AcDbEntity
  8
LAYER2
 62
         3
100
AcDbLine
 10
-38.1483265017
 20
31.251418289
 30
0.0
 11
-51.5883265017
 21
31.251418289
 31
0.0
  0
LINE
  5
1F2
100
AcDbEntity
  8
LAYER2
 62
         3
100
AcDbLine
 10
-39.1383265017
 20
116.2264646274
 30
0.0
 11
-39.1383265017
 21
65.6445272621
 31
0.0
  0
LINE
  5
1F3
100
AcDbEntity
  8
LAYER2
 62
         3
100
AcDbLine
 10
-50.5983265017
 20
116.2264646274
 30
0.0
 11
-39.1383265017
 21
116.2264646274
 31
0.0
  0
LINE
  5
1F4
100
AcDbEntity
  8
LAYER2
 62
         3
100
AcDbLine
 10
-39.1383265017
 20
116.2264646274
 30
0.0
 11
-39.1383265017
 21
102.7264646274
 31
0.0
  0
LINE
  5
1F5
100
AcDbEntity
  8
LAYER2
 62
         3
100
AcDbLine
 10
-5.5950708003
 20
118.6264646274
 30
0.0
 11
-5.5950708003
 21
102.7265421468
 31
0.0
  0
LINE
  5
1F6
100
AcDbEntity
  8
LAYER12
 62
         4
100
AcDbLine
 10
-5.8950708003
 20
23.457118289
 30
0.0
 11
-8.7765708003
 21
23.457118289
 31
0.0
  0
LINE
  5
1F7
100
AcDbEntity
  8
LAYER2
 62
         3
100
AcDbLine
 10
-11.4765708003
 20
19.701418289
 30
0.0
 11
-8.7765708003
 21
19.701418289
 31
0.0
  0
LINE
  5
1F8
100
AcDbEntity
  8
LAYER2
 62
         3
100
AcDbLine
 10
-11.4765708003
 20
24.801418289
 30
0.0
 11
-8.7765708003
 21
24.801418289
 31
0.0
  0
LINE
  5
1F9
100
AcDbEntity
  8
LAYER12
 62
         4
100
AcDbLine
 10
-52.4883265017
 20
21.045718289
 30
0.0
 11
-55.3698265017
 21
21.045718289
 31
0.0
  0
LINE
  5
1FA
100
AcDbEntity
  8
LAYER4
 62
         3
100
AcDbLine
 10
-55.3698265017
 20
20.751418289
 30
0.0
 11
-52.4883265017
 21
20.751418289
 31
0.0
  0
LINE
  5
1FB
100
AcDbEntity
  8
LAYER3
 62
         4
100
AcDbLine
 10
-73.2141325352
 20
-62.8735353726
 30
0.0
 11
-73.8378676077
 21
-59.9390925704
 31
0.0
  0
LINE
  5
1FC
100
AcDbEntity
  8
LAYER3
 62
         4
100
AcDbLine
 10
-73.2141325352
 20
-62.8735353726
 30
0.0
 11
-72.5903974628
 21
-59.9390925704
 31
0.0
  0
LINE
  5
1FD
100
AcDbEntity
  8
LAYER4
 62
         3
100
AcDbLine
 10
-5.5950708003
 20
109.0265421468
 30
0.0
 11
-5.5950708003
 21
110.1665421468
 31
0.0
  0
LINE
  5
1FE
100
AcDbEntity
  8
LAYER5
 62
         4
100
AcDbLine
 10
-5.5950708003
 20
106.0264646274
 30
0.0
 11
-4.0350708003
 21
106.0264646274
 31
0.0
  0
LINE
  5
1FF
100
AcDbEntity
  8
LAYER5
 62
         4
100
AcDbLine
 10
-5.5950708003
 20
109.0264646274
 30
0.0
 11
-4.0350708003
 21
109.0264646274
 31
0.0
  0
LINE
  5
200
100
AcDbEntity
  8
LAYER4
 62
         3
100
AcDbLine
 10
-5.5950708003
 20
104.8865421468
 30
0.0
 11
-5.5950708003
 21
106.0265421468
 31
0.0
  0
LINE
  5
201
100
AcDbEntity
  8
LAYER4
 62
         3
100
AcDbLine
 10
-5.5950708003
 20
106.0265421468
 30
0.0
 11
-5.5950708003
 21
109.0265421468
 31
0.0
  0
ARC
  5
202
100
AcDbEntity
  8
LAYER4
 62
         3
100
AcDbCircle
 10
-4.5590708003
 20
107.5265421468
 30
0.0
 40
2.836
210
0.0
220
0.0
230
1.0
100
AcDbArc
 50
111.4262479463
 51
248.5737520537
  0
LINE
  5
203
100
AcDbEntity
  8
LAYER4
 62
         3
100
AcDbLine
 10
-4.0350708003
 20
106.0264646274
 30
0.0
 11
-4.0050708003
 21
106.0264646274
 31
0.0
  0
LINE
  5
204
100
AcDbEntity
  8
LAYER4
 62
         3
100
AcDbLine
 10
-4.0350708003
 20
109.0264646274
 30
0.0
 11
-4.0050708003
 21
109.0264646274
 31
0.0
  0
LINE
  5
205
100
AcDbEntity
  8
LAYER7
 62
         4
100
AcDbLine
 10
-50.0583265017
 20
31.983764571
 30
0.0
 11
-39.7383265017
 21
31.983764571
 31
0.0
  0
LINE
  5
206
100
AcDbEntity
  8
LAYER2
 62
         3
100
AcDbLine
 10
-50.2683265017
 20
31.251418289
 30
0.0
 11
-39.4683265017
 21
31.251418289
 31
0.0
  0
LINE
  5
207
100
AcDbEntity
  8
LAYER2
 62
         3
100
AcDbLine
 10
-50.5983265017
 20
59.4788981502
 30
0.0
 11
-50.5983265017
 21
31.983764571
 31
0.0
  0
LINE
  5
208
100
AcDbEntity
  8
LAYER2
 62
         3
100
AcDbLine
 10
-39.1383265017
 20
61.818881317
 30
0.0
 11
-39.1383265017
 21
31.983764571
 31
0.0
  0
LINE
  5
209
100
AcDbEntity
  8
LAYER2
 62
         3
100
AcDbLine
 10
-4.0050708003
 20
116.2264646274
 30
0.0
 11
-4.0050708003
 21
63.3015667357
 31
0.0
  0
LINE
  5
20A
100
AcDbEntity
  8
LAYER2
 62
         3
100
AcDbLine
 10
-4.0050708003
 20
59.4788981502
 30
0.0
 11
-4.0050708003
 21
31.983764571
 31
0.0
  0
LINE
  5
20B
100
AcDbEntity
  8
LAYER2
 62
         3
100
AcDbLine
 10
-3.9246860426
 20
31.683764571
 30
0.0
 11
-3.6750708003
 21
31.251418289
 31
0.0
  0
ARC
  5
20C
100
AcDbEntity
  8
LAYER2
 62
         3
100
AcDbCircle
 10
-3.4050708003
 20
31.983764571
 30
0.0
 40
0.6
210
0.0
220
0.0
230
1.0
100
AcDbArc
 50
179.9999969295
 51
209.9999974413
  0
LINE
  5
20D
100
AcDbEntity
  8
LAYER2
 62
         3
100
AcDbLine
 10
-52.4883265017
 20
14.151418289
 30
0.0
 11
-52.4883265017
 21
30.351418289
 31
0.0
  0
LINE
  5
20E
100
AcDbEntity
  8
LAYER2
 62
         3
100
AcDbLine
 10
-5.8950708003
 20
14.151418289
 30
0.0
 11
-5.8950708003
 21
30.351418289
 31
0.0
  0
LINE
  5
20F
100
AcDbEntity
  8
LAYER2
 62
         3
100
AcDbLine
 10
-5.8950708003
 20
30.351418289
 30
0.0
 11
-4.9950708003
 21
31.251418289
 31
0.0
  0
LINE
  5
210
100
AcDbEntity
  8
LAYER2
 62
         3
100
AcDbLine
 10
-4.9950708003
 20
13.251418289
 30
0.0
 11
-5.8950708003
 21
14.151418289
 31
0.0
  0
LINE
  5
211
100
AcDbEntity
  8
LAYER2
 62
         3
100
AcDbLine
 10
-50.5983265017
 20
116.2264646274
 30
0.0
 11
-39.1383265017
 21
116.2264646274
 31
0.0
  0
LINE
  5
212
100
AcDbEntity
  8
LAYER2
 62
         3
100
AcDbLine
 10
-50.5983265017
 20
116.2264646274
 30
0.0
 11
-50.5983265017
 21
63.6478411857
 31
0.0
  0
ARC
  5
213
100
AcDbEntity
  8
LAYER2
 62
         3
100
AcDbCircle
 10
-49.9983265017
 20
31.983764571
 30
0.0
 40
0.6
210
0.0
220
0.0
230
1.0
100
AcDbArc
 50
179.9999969295
 51
209.9999974413
  0
LINE
  5
214
100
AcDbEntity
  8
LAYER2
 62
         3
100
AcDbLine
 10
-51.5913265017
 20
-52.0735353726
 30
0.0
 11
-49.3683265017
 21
-47.6137147484
 31
0.0
  0
LINE
  5
215
100
AcDbEntity
  8
LAYER2
 62
         3
100
AcDbLine
 10
-51.5913265017
 20
-52.0735353726
 30
0.0
 11
-51.5913265017
 21
-64.6735353726
 31
0.0
  0
LINE
  5
216
100
AcDbEntity
  8
LAYER2
 62
         3
100
AcDbLine
 10
-38.1423265017
 20
-52.0735353726
 30
0.0
 11
-38.1423265017
 21
-64.6735353726
 31
0.0
  0
ARC
  5
217
100
AcDbEntity
  8
LAYER2
 62
         3
100
AcDbCircle
 10
-41.1423265017
 20
-64.6735353726
 30
0.0
 40
3.0
210
-0.0
220
0.0
230
1.0
100
AcDbArc
 50
269.9999984648
 51
0.0
  0
ARC
  5
218
100
AcDbEntity
  8
LAYER2
 62
         3
100
AcDbCircle
 10
-48.5913265017
 20
-64.6735353726
 30
0.0
 40
3.0
210
0.0
220
0.0
230
1.0
100
AcDbArc
 50
179.9999969295
 51
269.9999984648
  0
LINE
  5
219
100
AcDbEntity
  8
LAYER2
 62
         3
100
AcDbLine
 10
-48.5913265017
 20
-67.6735353726
 30
0.0
 11
-41.1423265017
 21
-67.6735353726
 31
0.0
  0
LINE
  5
21A
100
AcDbEntity
  8
LAYER4
 62
         3
100
AcDbLine
 10
-44.6814265017
 20
-63.0604353726
 30
0.0
 11
-43.3497849679
 21
-63.0604353726
 31
0.0
  0
LINE
  5
21B
100
AcDbEntity
  8
LAYER4
 62
         3
100
AcDbLine
 10
-44.6814265017
 20
-62.6866353726
 30
0.0
 11
-43.3497849679
 21
-62.6866353726
 31
0.0
  0
LINE
  5
21C
100
AcDbEntity
  8
LAYER4
 62
         3
100
AcDbLine
 10
-43.3497849679
 20
-63.0604353726
 30
0.0
 11
-43.3497849679
 21
-62.6866353726
 31
0.0
  0
LINE
  5
21D
100
AcDbEntity
  8
LAYER4
 62
         3
100
AcDbLine
 10
-46.3868680355
 20
-62.6866353726
 30
0.0
 11
-45.0552265017
 21
-62.6866353726
 31
0.0
  0
LINE
  5
21E
100
AcDbEntity
  8
LAYER4
 62
         3
100
AcDbLine
 10
-46.3868680355
 20
-63.0604353726
 30
0.0
 11
-45.0552265017
 21
-63.0604353726
 31
0.0
  0
LINE
  5
21F
100
AcDbEntity
  8
LAYER4
 62
         3
100
AcDbLine
 10
-46.3868680355
 20
-63.0604353726
 30
0.0
 11
-46.3868680355
 21
-62.6866353726
 31
0.0
  0
LINE
  5
220
100
AcDbEntity
  8
LAYER4
 62
         3
100
AcDbLine
 10
-45.0552265017
 20
-61.3549938387
 30
0.0
 11
-45.0552265017
 21
-62.6866353726
 31
0.0
  0
LINE
  5
221
100
AcDbEntity
  8
LAYER4
 62
         3
100
AcDbLine
 10
-44.6814265017
 20
-61.3549938387
 30
0.0
 11
-44.6814265017
 21
-62.6866353726
 31
0.0
  0
LINE
  5
222
100
AcDbEntity
  8
LAYER4
 62
         3
100
AcDbLine
 10
-44.6814265017
 20
-61.3549938387
 30
0.0
 11
-45.0552265017
 21
-61.3549938387
 31
0.0
  0
LINE
  5
223
100
AcDbEntity
  8
LAYER4
 62
         3
100
AcDbLine
 10
-44.6814265017
 20
-64.3920769064
 30
0.0
 11
-45.0552265017
 21
-64.3920769064
 31
0.0
  0
LINE
  5
224
100
AcDbEntity
  8
LAYER4
 62
         3
100
AcDbLine
 10
-45.0552265017
 20
-63.0604353726
 30
0.0
 11
-45.0552265017
 21
-64.3920769064
 31
0.0
  0
LINE
  5
225
100
AcDbEntity
  8
LAYER4
 62
         3
100
AcDbLine
 10
-44.6814265017
 20
-63.0604353726
 30
0.0
 11
-44.6814265017
 21
-64.3920769064
 31
0.0
  0
CIRCLE
  5
226
100
AcDbEntity
  8
LAYER4
 62
         3
100
AcDbCircle
 10
-44.8683265017
 20
-62.8735353726
 30
0.0
 40
2.85
210
0.0
220
0.0
230
1.0
  0
LINE
  5
227
100
AcDbEntity
  8
LAYER3
 62
         4
100
AcDbLine
 10
-48.7183265017
 20
-62.8735353726
 30
0.0
 11
-74.2141325352
 21
-62.8735353726
 31
0.0
  0
INSERT
  5
229
100
AcDbEntity
  8
0
100
AcDbBlockReference
  2
CLUMP10
 10
0.0
 20
0.0
 30
0.0
  0
INSERT
  5
245
100
AcDbEntity
  8
0
100
AcDbBlockReference
  2
CLUMP12
 10
0.0
 20
0.0
 30
0.0
  0
LINE
  5
260
100
AcDbEntity
  8
LAYER3
 62
         4
100
AcDbLine
 10
-21.0568058632
 20
-22.1684023352
 30
0.0
 11
-21.6805409357
 21
-19.233959533
 31
0.0
  0
LINE
  5
261
100
AcDbEntity
  8
LAYER3
 62
         4
100
AcDbLine
 10
-21.0568058632
 20
-22.1684023352
 30
0.0
 11
-20.4330707908
 21
-19.233959533
 31
0.0
  0
LINE
  5
262
100
AcDbEntity
  8
LAYER3
 62
         4
100
AcDbLine
 10
-2.1250708003
 20
-22.1684023352
 30
0.0
 11
-22.0568058632
 21
-22.1684023352
 31
0.0
  0
LINE
  5
263
100
AcDbEntity
  8
LAYER3
 62
         4
100
AcDbLine
 10
-73.2141325352
 20
120.1264646274
 30
0.0
 11
-73.2141325352
 21
-62.8735353726
 31
0.0
  0
LINE
  5
264
100
AcDbEntity
  8
LAYER3
 62
         4
100
AcDbLine
 10
-21.0568058632
 20
120.1264646274
 30
0.0
 11
-21.0568058632
 21
-22.1684023352
 31
0.0
  0
LINE
  5
265
100
AcDbEntity
  8
LAYER2
 62
         3
100
AcDbLine
 10
6.2249291997
 20
13.251418289
 30
0.0
 11
6.2249291997
 21
-6.908581711
 31
0.0
  0
LINE
  5
266
100
AcDbEntity
  8
LAYER2
 62
         3
100
AcDbLine
 10
49.2358919734
 20
13.251418289
 30
0.0
 11
49.2358919734
 21
-6.908581711
 31
0.0
  0
LINE
  5
267
100
AcDbEntity
  8
LAYER2
 62
         3
100
AcDbLine
 10
58.2358919734
 20
13.251418289
 30
0.0
 11
58.2358919734
 21
-6.908581711
 31
0.0
  0
LINE
  5
268
100
AcDbEntity
  8
LAYER0
 62
         4
100
AcDbLine
 10
-40.0
 20
-117.5
 30
0.0
 11
-40.0
 21
-92.5
 31
0.0
  0
LINE
  5
269
100
AcDbEntity
  8
LAYER0
 62
         4
100
AcDbLine
 10
-15.0
 20
-117.5
 30
0.0
 11
-15.0
 21
-92.5
 31
0.0
  0
MTEXT
  5
26A
100
AcDbEntity
  8
LAYER0
100
AcDbMText
 10
-35.7051459079
 20
-126.6461242782
 30
0.0
 40
2.1473683357
 41
6.4116149902
 71
         1
 72
         1
  1
\W0.8;Ｎｏ.
  0
LINE
  5
26B
100
AcDbEntity
  8
LAYER0
 62
         3
100
AcDbLine
 10
-25.0
 20
-125.5
 30
0.0
 11
-25.0
 21
-138.5
 31
0.0
  0
MTEXT
  5
26C
100
AcDbEntity
  8
LAYER0
100
AcDbMText
 10
-10.6564309049
 20
-126.7970201517
 30
0.0
 40
2.1473683357
 41
7.6538653946
 71
         1
 72
         1
  1
\W0.8;品　番
  0
LINE
  5
26D
100
AcDbEntity
  8
LAYER0
 62
         3
100
AcDbLine
 10
-40.0
 20
-138.5
 30
0.0
 11
-40.0
 21
-125.5
 31
0.0
  0
MTEXT
  5
26E
100
AcDbEntity
  8
LAYER0
100
AcDbMText
 10
-39.1657325764
 20
-113.6461650244
 30
0.0
 40
2.22639153
 41
11.965612572
 71
         1
 72
         1
  1
\W0.8;CK-107-SS
  0
MTEXT
  5
26F
100
AcDbEntity
  8
LAYER0
100
AcDbMText
 10
-36.2626925764
 20
-108.4978267082
 30
0.0
 40
2.4737683892
 41
8.8634168007
 71
         1
 72
         1
  1
\W0.8;CK-107
  0
MTEXT
  5
270
100
AcDbEntity
  8
LAYER0
100
AcDbMText
 10
-36.2626925764
 20
-103.4978267082
 30
0.0
 40
2.4737683892
 41
8.8634168007
 71
         1
 72
         1
  1
\W0.8;CK-106
  0
MTEXT
  5
271
100
AcDbEntity
  8
LAYER0
100
AcDbMText
 10
-36.2626925764
 20
-98.4978267082
 30
0.0
 40
2.4737683892
 41
8.8634168007
 71
         1
 72
         1
  1
\W0.8;CK-105
  0
MTEXT
  5
272
100
AcDbEntity
  8
LAYER0
100
AcDbMText
 10
-31.6047510917
 20
-93.7098347584
 30
0.0
 40
2.1473683357
 41
7.6538653946
 71
         1
 72
         1
  1
\W0.8;品　番
  0
LINE
  5
273
100
AcDbEntity
  8
LAYER2
 62
         3
100
AcDbLine
 10
-51.5913265017
 20
-52.0735353726
 30
0.0
 11
-38.1423265017
 21
-52.0735353726
 31
0.0
  0
LINE
  5
274
100
AcDbEntity
  8
LAYER2
 62
         3
100
AcDbLine
 10
-38.1423265017
 20
-52.0735353726
 30
0.0
 11
-40.3683265017
 21
-47.6137147484
 31
0.0
  0
LINE
  5
275
100
AcDbEntity
  8
LAYER2
 62
         3
100
AcDbLine
 10
-38.1423265017
 20
-55.0735353726
 30
0.0
 11
-51.5913265017
 21
-55.0735353726
 31
0.0
  0
LINE
  5
276
100
AcDbEntity
  8
LAYER2
 62
         3
100
AcDbLine
 10
-38.1423265017
 20
-55.32206351
 30
0.0
 11
-51.5913265017
 21
-55.32206351
 31
0.0
  0
LINE
  5
277
100
AcDbEntity
  8
LAYER2
 62
         3
100
AcDbLine
 10
-38.1423265017
 20
-54.8250072351
 30
0.0
 11
-51.5913265017
 21
-54.8250072351
 31
0.0
  0
LINE
  5
278
100
AcDbEntity
  8
LAYER2
 62
         3
100
AcDbLine
 10
-4.9980708003
 20
-11.3684023352
 30
0.0
 11
-2.7750708003
 21
-6.908581711
 31
0.0
  0
LINE
  5
279
100
AcDbEntity
  8
LAYER2
 62
         3
100
AcDbLine
 10
-4.9980708003
 20
-11.3684023352
 30
0.0
 11
-4.9980708003
 21
-23.9684023352
 31
0.0
  0
LINE
  5
27A
100
AcDbEntity
  8
LAYER2
 62
         3
100
AcDbLine
 10
-40.3683265017
 20
-16.2384885022
 30
0.0
 11
-40.3683265017
 21
-47.6137147484
 31
0.0
  0
LINE
  5
27B
100
AcDbEntity
  8
LAYER2
 62
         3
100
AcDbLine
 10
-49.3683265017
 20
-19.7887586992
 30
0.0
 11
-49.3683265017
 21
-47.6137147484
 31
0.0
  0
LINE
  5
27C
100
AcDbEntity
  8
LAYER2
 62
         3
100
AcDbLine
 10
-5.8950708003
 20
30.351418289
 30
0.0
 11
9.3449291997
 21
30.351418289
 31
0.0
  0
LINE
  5
27D
100
AcDbEntity
  8
LAYER2
 62
         3
100
AcDbLine
 10
-5.8950708003
 20
14.151418289
 30
0.0
 11
9.3449291997
 21
14.151418289
 31
0.0
  0
LINE
  5
27E
100
AcDbEntity
  8
LAYER4
 62
         3
100
AcDbLine
 10
0.2063876659
 20
-22.3553023352
 30
0.0
 11
0.2063876659
 21
-21.9815023352
 31
0.0
  0
LINE
  5
27F
100
AcDbEntity
  8
LAYER4
 62
         3
100
AcDbLine
 10
1.5380291997
 20
-20.6498608013
 30
0.0
 11
1.5380291997
 21
-21.9815023352
 31
0.0
  0
LINE
  5
280
100
AcDbEntity
  8
LAYER4
 62
         3
100
AcDbLine
 10
1.9118291997
 20
-20.6498608013
 30
0.0
 11
1.9118291997
 21
-21.9815023352
 31
0.0
  0
LINE
  5
281
100
AcDbEntity
  8
LAYER4
 62
         3
100
AcDbLine
 10
1.9118291997
 20
-20.6498608013
 30
0.0
 11
1.5380291997
 21
-20.6498608013
 31
0.0
  0
LINE
  5
282
100
AcDbEntity
  8
LAYER4
 62
         3
100
AcDbLine
 10
1.9118291997
 20
-23.686943869
 30
0.0
 11
1.5380291997
 21
-23.686943869
 31
0.0
  0
LINE
  5
283
100
AcDbEntity
  8
LAYER4
 62
         3
100
AcDbLine
 10
1.5380291997
 20
-22.3553023352
 30
0.0
 11
1.5380291997
 21
-23.686943869
 31
0.0
  0
LINE
  5
284
100
AcDbEntity
  8
LAYER4
 62
         3
100
AcDbLine
 10
1.9118291997
 20
-22.3553023352
 30
0.0
 11
1.9118291997
 21
-23.686943869
 31
0.0
  0
CIRCLE
  5
285
100
AcDbEntity
  8
LAYER4
 62
         3
100
AcDbCircle
 10
1.7249291997
 20
-22.1684023352
 30
0.0
 40
2.85
210
0.0
220
0.0
230
1.0
  0
ARC
  5
286
100
AcDbEntity
  8
LAYER2
 62
         3
100
AcDbCircle
 10
-1.9980708003
 20
-23.9684023352
 30
0.0
 40
3.0
210
0.0
220
0.0
230
1.0
100
AcDbArc
 50
179.9999969295
 51
269.9999984648
  0
LINE
  5
287
100
AcDbEntity
  8
LAYER2
 62
         3
100
AcDbLine
 10
-1.9980708003
 20
-26.9684023352
 30
0.0
 11
5.4509291997
 21
-26.9684023352
 31
0.0
  0
LINE
  5
288
100
AcDbEntity
  8
LAYER4
 62
         3
100
AcDbLine
 10
1.9118291997
 20
-22.3553023352
 30
0.0
 11
3.2434707335
 21
-22.3553023352
 31
0.0
  0
LINE
  5
289
100
AcDbEntity
  8
LAYER4
 62
         3
100
AcDbLine
 10
1.9118291997
 20
-21.9815023352
 30
0.0
 11
3.2434707335
 21
-21.9815023352
 31
0.0
  0
LINE
  5
28A
100
AcDbEntity
  8
LAYER4
 62
         3
100
AcDbLine
 10
0.2063876659
 20
-21.9815023352
 30
0.0
 11
1.5380291997
 21
-21.9815023352
 31
0.0
  0
LINE
  5
28B
100
AcDbEntity
  8
LAYER4
 62
         3
100
AcDbLine
 10
0.2063876659
 20
-22.3553023352
 30
0.0
 11
1.5380291997
 21
-22.3553023352
 31
0.0
  0
LINE
  5
28C
100
AcDbEntity
  8
LAYER2
 62
         3
100
AcDbLine
 10
7.4849291997
 20
118.6264646274
 30
0.0
 11
-4.0350708003
 21
118.6264646274
 31
0.0
  0
LINE
  5
28D
100
AcDbEntity
  8
LAYER2
 62
         3
100
AcDbLine
 10
-4.0950708003
 20
120.1264646274
 30
0.0
 11
7.5449291997
 21
120.1264646274
 31
0.0
  0
INSERT
  5
28F
100
AcDbEntity
  8
0
100
AcDbBlockReference
  2
CLUMP14
 10
0.0
 20
0.0
 30
0.0
  0
INSERT
  5
2AB
100
AcDbEntity
  8
0
100
AcDbBlockReference
  2
CLUMP16
 10
0.0
 20
0.0
 30
0.0
  0
MTEXT
  5
2C6
100
AcDbEntity
  8
LAYER3
100
AcDbMText
 10
-3.0750708003
 20
132.5921786518
 30
0.0
 40
2.1473683357
 41
5.1292919922
 71
         1
 72
         1
  1
\W0.8;24.4
  0
LINE
  5
2C7
100
AcDbEntity
  8
LAYER3
 62
         4
100
AcDbLine
 10
-5.5950708003
 20
128.8045199604
 30
0.0
 11
9.0449291997
 21
128.8045199604
 31
0.0
  0
LINE
  5
2C8
100
AcDbEntity
  8
LAYER2
 62
         3
100
AcDbLine
 10
-2.7750708003
 20
13.251418289
 30
0.0
 11
-2.7750708003
 21
-6.908581711
 31
0.0
  0
LINE
  5
2C9
100
AcDbEntity
  8
LAYER2
 62
         3
100
AcDbLine
 10
-49.3683265017
 20
13.251418289
 30
0.0
 11
-49.3683265017
 21
-15.9487586992
 31
0.0
  0
LINE
  5
2CA
100
AcDbEntity
  8
LAYER2
 62
         3
100
AcDbLine
 10
-40.3683265017
 20
13.251418289
 30
0.0
 11
-40.3683265017
 21
-12.3984885022
 31
0.0
  0
LINE
  5
2CB
100
AcDbEntity
  8
LAYER0
 62
         4
100
AcDbLine
 10
95.0
 20
-92.5
 30
0.0
 11
-40.0
 21
-92.5
 31
0.0
  0
LINE
  5
2CC
100
AcDbEntity
  8
LAYER0
 62
         4
100
AcDbLine
 10
95.0
 20
-97.5
 30
0.0
 11
-40.0
 21
-97.5
 31
0.0
  0
LINE
  5
2CD
100
AcDbEntity
  8
LAYER0
 62
         4
100
AcDbLine
 10
95.0
 20
-102.5
 30
0.0
 11
-40.0
 21
-102.5
 31
0.0
  0
LINE
  5
2CE
100
AcDbEntity
  8
LAYER0
 62
         4
100
AcDbLine
 10
95.0
 20
-107.5
 30
0.0
 11
-40.0
 21
-107.5
 31
0.0
  0
LINE
  5
2CF
100
AcDbEntity
  8
LAYER0
 62
         4
100
AcDbLine
 10
95.0
 20
-112.5
 30
0.0
 11
-40.0
 21
-112.5
 31
0.0
  0
LINE
  5
2D0
100
AcDbEntity
  8
LAYER0
 62
         4
100
AcDbLine
 10
95.0
 20
-117.5
 30
0.0
 11
-40.0
 21
-117.5
 31
0.0
  0
LINE
  5
2D1
100
AcDbEntity
  8
LAYER0
 62
         3
100
AcDbLine
 10
95.0
 20
-125.5
 30
0.0
 11
-40.0
 21
-125.5
 31
0.0
  0
LINE
  5
2D2
100
AcDbEntity
  8
LAYER0
 62
         3
100
AcDbLine
 10
95.0
 20
-130.5
 30
0.0
 11
-40.0
 21
-130.5
 31
0.0
  0
LINE
  5
2D3
100
AcDbEntity
  8
LAYER0
 62
         3
100
AcDbLine
 10
95.0
 20
-138.5
 30
0.0
 11
-40.0
 21
-138.5
 31
0.0
  0
MTEXT
  5
2D4
100
AcDbEntity
  8
LAYER0
100
AcDbMText
 10
-10.2144535459
 20
-113.5243967393
 30
0.0
 40
2.4737683892
 41
32.4530313066
 71
         1
 72
         1
  1
\W0.8;大型伸縮吊棒　ショート
  0
MTEXT
  5
2D5
100
AcDbEntity
  8
LAYER0
100
AcDbMText
 10
-6.0672535459
 20
-108.5243967393
 30
0.0
 40
2.4737683892
 41
23.5896145059
 71
         1
 72
         1
  1
\W0.8;大型伸縮吊棒　小
  0
MTEXT
  5
2D6
100
AcDbEntity
  8
LAYER0
100
AcDbMText
 10
-6.0672535459
 20
-103.5243967393
 30
0.0
 40
2.4737683892
 41
23.5896145059
 71
         1
 72
         1
  1
\W0.8;大型伸縮吊棒　中
  0
MTEXT
  5
2D7
100
AcDbEntity
  8
LAYER0
100
AcDbMText
 10
-6.0672535459
 20
-98.5243967393
 30
0.0
 40
2.4737683892
 41
23.5896145059
 71
         1
 72
         1
  1
\W0.8;大型伸縮吊棒　大
  0
LINE
  5
2D8
100
AcDbEntity
  8
LAYER0
100
AcDbLine
 10
6.0631374306
 20
-134.4368625694
 30
0.0
 11
-21.0631374306
 21
-134.4368625694
 31
0.0
  0
MTEXT
  5
2D9
100
AcDbEntity
  8
LAYER0
100
AcDbMText
 10
-2.1635895197
 20
-93.7098347584
 30
0.0
 40
2.1473683357
 41
17.9525219727
 71
         1
 72
         1
  1
\W0.8;品名（サイズ）
  0
LINE
  5
2DA
100
AcDbEntity
  8
LAYER2
 62
         3
100
AcDbLine
 10
-4.9980708003
 20
-11.3684023352
 30
0.0
 11
8.4509291997
 21
-11.3684023352
 31
0.0
  0
LINE
  5
2DB
100
AcDbEntity
  8
LAYER2
 62
         3
100
AcDbLine
 10
8.4509291997
 20
-14.3684023352
 30
0.0
 11
-4.9980708003
 21
-14.3684023352
 31
0.0
  0
LINE
  5
2DC
100
AcDbEntity
  8
LAYER2
 62
         3
100
AcDbLine
 10
8.4509291997
 20
-14.6169304726
 30
0.0
 11
-4.9980708003
 21
-14.6169304726
 31
0.0
  0
LINE
  5
2DD
100
AcDbEntity
  8
LAYER2
 62
         3
100
AcDbLine
 10
8.4509291997
 20
-14.1198741978
 30
0.0
 11
-4.9980708003
 21
-14.1198741978
 31
0.0
  0
LINE
  5
2DE
100
AcDbEntity
  8
LAYER5
 62
         4
100
AcDbLine
 10
-4.0050708003
 20
106.0264646274
 30
0.0
 11
7.4549291997
 21
106.0264646274
 31
0.0
  0
LINE
  5
2DF
100
AcDbEntity
  8
LAYER5
 62
         4
100
AcDbLine
 10
-4.0050708003
 20
109.0264646274
 30
0.0
 11
7.4549291997
 21
109.0264646274
 31
0.0
  0
LINE
  5
2E0
100
AcDbEntity
  8
LAYER2
 62
         3
100
AcDbLine
 10
-4.0050708003
 20
116.2264646274
 30
0.0
 11
7.4549291997
 21
116.2264646274
 31
0.0
  0
LINE
  5
2E1
100
AcDbEntity
  8
LAYER2
 62
         3
100
AcDbLine
 10
8.4449291997
 20
13.251418289
 30
0.0
 11
-4.9950708003
 21
13.251418289
 31
0.0
  0
LINE
  5
2E2
100
AcDbEntity
  8
LAYER2
 62
         3
100
AcDbLine
 10
8.4449291997
 20
31.251418289
 30
0.0
 11
-4.9950708003
 21
31.251418289
 31
0.0
  0
LINE
  5
2E3
100
AcDbEntity
  8
LAYER7
 62
         4
100
AcDbLine
 10
-3.4650708003
 20
31.983764571
 30
0.0
 11
6.8549291997
 21
31.983764571
 31
0.0
  0
ENDSEC
  0
SECTION
  2
OBJECTS
  0
DICTIONARY
  5
19
100
AcDbDictionary
280
         0
281
         1
  3
ACAD_GROUP
350
1A
  3
ACAD_MLINESTYLE
350
1B
  3
ACAD_LAYOUT
350
1E
  3
ACAD_PLOTSETTINGS
350
22
  3
ACAD_PLOTSTYLENAME
350
1F
  3
ACAD_WIPEOUT_VARS
350
23
  0
DICTIONARY
  5
1A
102
{ACAD_REACTORS
330
19
102
}
100
AcDbDictionary
280
         0
281
         1
  0
DICTIONARY
  5
1B
102
{ACAD_REACTORS
330
19
102
}
100
AcDbDictionary
280
         0
281
         1
  3
Standard
350
1C
  0
MLINESTYLE
  5
1C
102
{ACAD_REACTORS
330
1B
102
}
100
AcDbMlineStyle
  2
Standard
 70
         0
  3

 62
         0
 51
90.0
 52
90.0
 71
         2
 49
0.5
 62
       256
  6
BYLAYER
 49
-0.5
 62
       256
  6
BYLAYER
  0
ACDBDICTIONARYWDFLT
  5
1F
102
{ACAD_REACTORS
330
19
102
}
100
AcDbDictionary
281
         1
  3
Normal
350
1D
100
AcDbDictionaryWithDefault
340
1D
  0
ACDBPLACEHOLDER
  5
1D
102
{ACAD_REACTORS
330
1F
102
}
  0
LAYOUT
  5
20
102
{ACAD_REACTORS
330
1E
102
}
100
AcDbPlotSettings
  1

  2

  4

  6

 40
0.0
 41
0.0
 42
0.0
 43
0.0
 44
0.0
 45
0.0
 46
0.0
 47
0.0
 48
0.0
 49
0.0
140
0.0
141
0.0
142
1.0
143
1.0
 70
         0
 72
         0
 73
         0
 74
         0
  7

 75
         0
147
1.0
148
0.0
149
0.0
100
AcDbLayout
  1
Model
 70
         0
 71
         0
 10
0.0
 20
0.0
 11
0.0
 21
0.0
 12
0.0
 22
0.0
 32
0.0
 14
0.0
 24
0.0
 34
0.0
 15
0.0
 25
0.0
 35
0.0
146
0.0
 13
0.0
 23
0.0
 33
0.0
 16
0.0
 26
0.0
 36
0.0
 17
0.0
 27
0.0
 37
0.0
 76
         0
330
A
331
0
345
0
346
0
  0
LAYOUT
  5
21
102
{ACAD_REACTORS
330
1E
102
}
100
AcDbPlotSettings
  1

  2

  4

  6

 40
0.0
 41
0.0
 42
0.0
 43
0.0
 44
0.0
 45
0.0
 46
0.0
 47
0.0
 48
0.0
 49
0.0
140
0.0
141
0.0
142
1.0
143
1.0
 70
         0
 72
         0
 73
         0
 74
         0
  7

 75
         0
147
1.0
148
0.0
149
0.0
100
AcDbLayout
  1
Layout1
 70
         0
 71
         0
 10
0.0
 20
0.0
 11
0.0
 21
0.0
 12
0.0
 22
0.0
 32
0.0
 14
0.0
 24
0.0
 34
0.0
 15
0.0
 25
0.0
 35
0.0
146
0.0
 13
0.0
 23
0.0
 33
0.0
 16
0.0
 26
0.0
 36
0.0
 17
0.0
 27
0.0
 37
0.0
 76
         0
330
B
331
0
345
0
346
0
  0
DICTIONARY
  5
1E
102
{ACAD_REACTORS
330
19
102
}
100
AcDbDictionary
280
         0
281
         1
  3
Layout1
350
21
  3
Model
350
20
  0
DICTIONARY
  5
22
102
{ACAD_REACTORS
330
19
102
}
100
AcDbDictionary
280
         0
281
         1
  0
WIPEOUTVARIABLES
  5
23
100
AcDbWipeoutVariables
 70
         1
  0
ENDSEC
  0
EOF
